  0
SECTION
  2
HEADER
  9
$EXTMIN
 10
-210.0
 20
-148.5
  9
$EXTMAX
 10
210.0
 20
148.5
  9
$PDMODE
 70
    32
  9
$PDSIZE
 40
1.5
  9
$LTSCALE
 40
10.0
  0
ENDSEC
  0
SECTION
  2
TABLES
  0
TABLE
  2
LTYPE
 70
    15
  0
LTYPE
  2
CONTINUOUS
 70
    64
  3
実線
 72
    65
 73
     0
 40
0.0
  0
LTYPE
  2
DASHED
 70
    64
  3
破線A
 72
    65
 73
     2
 40
0.6
 49
0.4
 49
-0.2
  0
LTYPE
  2
DASHEDX2
 70
    64
  3
破線B
 72
    65
 73
     2
 40
1.3
 49
0.9
 49
-0.4
  0
LTYPE
  2
DASHDOT
 70
    64
  3
１点鎖線A
 72
    65
 73
     4
 40
0.5375
 49
0.375
 49
-0.05
 49
0.0625
 49
-0.05
  0
LTYPE
  2
DASHDOTX2
 70
    64
  3
１点鎖線B
 72
    65
 73
     4
 40
1.075
 49
0.75
 49
-0.1
 49
0.125
 49
-0.1
  0
LTYPE
  2
DIVIDE2
 70
    64
  3
２点鎖線A
 72
    65
 73
     6
 40
0.5125
 49
0.3
 49
-0.0375
 49
0.05
 49
-0.0375
 49
0.05
 49
-0.0375
  0
LTYPE
  2
DIVIDE
 70
    64
  3
２点鎖線B
 72
    65
 73
     6
 40
1.05
 49
0.55
 49
-0.1
 49
0.1
 49
-0.1
 49
0.1
 49
-0.1
  0
LTYPE
  2
DOT
 70
    64
  3
点線A
 72
    65
 73
     2
 40
0.1125
 49
0.0625
 49
-0.05
  0
LTYPE
  2
DOTX2
 70
    64
  3
点線B
 72
    65
 73
     2
 40
0.275
 49
0.15
 49
-0.125
  0
LTYPE
  2
CONTINUOUS
 70
    64
  3
実線
 72
    65
 73
     0
 40
0.0
  0
LTYPE
  2
CONTINUOUS
 70
    64
  3
実線
 72
    65
 73
     0
 40
0.0
  0
LTYPE
  2
CONTINUOUS
 70
    64
  3
実線
 72
    65
 73
     0
 40
0.0
  0
LTYPE
  2
CONTINUOUS
 70
    64
  3
実線
 72
    65
 73
     0
 40
0.0
  0
LTYPE
  2
CONTINUOUS
 70
    64
  3
実線
 72
    65
 73
     0
 40
0.0
  0
LTYPE
  2
CONTINUOUS
 70
    64
  3
実線
 72
    65
 73
     0
 40
0.0
  0
ENDTAB
  0
TABLE
  2
LAYER
 70
    34
  0
LAYER
  2
通り芯
 70
     0
 62
    15
  6
CONTINUOUS
  0
LAYER
  2
補助線
 70
     0
 62
    16
  6
DOT
  0
LAYER
  2
躯体
 70
     0
 62
    31
  6
CONTINUOUS
  0
LAYER
  2
型材
 70
     0
 62
    32
  6
CONTINUOUS
  0
LAYER
  2
型材断面
 70
     0
 62
    47
  6
CONTINUOUS
  0
LAYER
  2
ガラス
 70
     0
 62
    48
  6
CONTINUOUS
  0
LAYER
  2
ゴム等
 70
     0
 62
    63
  6
CONTINUOUS
  0
LAYER
  2
ボルト／ビス
 70
     0
 62
    64
  6
CONTINUOUS
  0
LAYER
  2
文字
 70
     0
 62
    79
  6
CONTINUOUS
  0
LAYER
  2
寸法
 70
     0
 62
    80
  6
CONTINUOUS
  0
LAYER
  2
ﾊｯﾁﾝｸﾞ
 70
     0
 62
    95
  6
CONTINUOUS
  0
LAYER
  2
別途部材
 70
     0
 62
    96
  6
CONTINUOUS
  0
LAYER
  2
曲げ物
 70
     0
 62
   111
  6
CONTINUOUS
  0
LAYER
  2
鉄骨等
 70
     0
 62
   112
  6
CONTINUOUS
  0
LAYER
  2
St
 70
     0
 62
   127
  6
CONTINUOUS
  0
LAYER
  2
その他部品等
 70
     0
 62
   128
  6
CONTINUOUS
  0
LAYER
  2
ｶﾞｽｹｯﾄ
 70
     0
 62
   143
  6
CONTINUOUS
  0
LAYER
  2
ｽｹｯﾁ
 70
     0
 62
    14
  6
CONTINUOUS
  0
LAYER
  2
0
 70
     0
 62
    17
  6
CONTINUOUS
  0
LAYER
  2
1
 70
     0
 62
    30
  6
CONTINUOUS
  0
LAYER
  2
4
 70
     0
 62
    33
  6
CONTINUOUS
  0
LAYER
  2
ﾚｲﾔ3
 70
     0
 62
    46
  6
CONTINUOUS
  0
LAYER
  2
外形線
 70
     0
 62
    49
  6
CONTINUOUS
  0
LAYER
  2
部品
 70
     0
 62
    14
  6
CONTINUOUS
  0
LAYER
  2
サッシ芯
 70
     0
 62
    17
  6
DASHDOTX2
  0
LAYER
  2
寸法線
 70
     0
 62
    62
  6
CONTINUOUS
  0
LAYER
  2
姿図外形線
 70
     0
 62
    65
  6
CONTINUOUS
  0
LAYER
  2
姿補助線
 70
     0
 62
    30
  6
CONTINUOUS
  0
LAYER
  2
透視線
 70
     0
 62
    78
  6
DOT
  0
LAYER
  2
用紙
 70
     0
 62
    81
  6
CONTINUOUS
  0
LAYER
  2
実線図枠
 70
     0
 62
    94
  6
CONTINUOUS
  0
LAYER
  2
補助図枠
 70
     0
 62
    97
  6
CONTINUOUS
  0
LAYER
  2
建具記号
 70
     0
 62
   110
  6
CONTINUOUS
  0
LAYER
  2
補助文字
 70
     0
 62
   113
  6
CONTINUOUS
  0
ENDTAB
  0
TABLE
  2
STYLE
 70
    10
  0
STYLE
  2
STANDARD
 70
     0
 40
1.0
 41
1.0
 42
1.0
 50
0.0
 71
     0
  3
TXT
  4
BIGFONT
  0
STYLE
  2
TATE
 70
     4
 40
1.0
 41
1.0
 42
1.0
 50
0.0
 71
     0
  3
TXT
  4
BIGFONT
  0
STYLE
  2
TextStyle03
 70
     0
 40
1.0
 41
1.0
 42
1.0
 50
0.0
 71
     0
  3
MONOTXT
  4
BIGFONT
  0
STYLE
  2
TextStyle04
 70
     0
 40
1.0
 41
1.0
 42
1.0
 50
0.0
 71
     0
  3
MONOTXT
  4
BIGFONT
  0
STYLE
  2
TextStyle05
 70
     0
 40
1.0
 41
1.0
 42
1.0
 50
0.0
 71
     0
  3
MONOTXT
  4
BIGFONT
  0
STYLE
  2
TextStyle06
 70
     0
 40
1.0
 41
1.0
 42
1.0
 50
0.0
 71
     0
  3
MONOTXT
  4
BIGFONT
  0
STYLE
  2
TextStyle07
 70
     0
 40
1.0
 41
1.0
 42
1.0
 50
0.0
 71
     0
  3
MONOTXT
  4
BIGFONT
  0
STYLE
  2
TextStyle08
 70
     0
 40
1.0
 41
1.0
 42
1.0
 50
0.0
 71
     0
  3
MONOTXT
  4
BIGFONT
  0
STYLE
  2
TextStyle09
 70
     0
 40
1.0
 41
1.0
 42
1.0
 50
0.0
 71
     0
  3
MONOTXT
  4
BIGFONT
  0
STYLE
  2
TextStyle10
 70
     0
 40
1.0
 41
1.0
 42
1.0
 50
0.0
 71
     0
  3
MONOTXT
  4
BIGFONT
  0
ENDTAB
  0
ENDSEC
  0
SECTION
  2
BLOCKS
  0
BLOCK
  2
*GRP_0001
 70
    65
 10
0.0
 20
0.0
  0
LINE
  8
型材断面
  6
CONTINUOUS
 10
195.0
 20
133.5
 11
195.0
 21
-133.5
  0
LINE
  8
型材断面
  6
CONTINUOUS
 10
195.0
 20
-133.5
 11
-185.0
 21
-133.5
  0
LINE
  8
型材断面
  6
CONTINUOUS
 10
-185.0
 20
-133.5
 11
-185.0
 21
133.5
  0
LINE
  8
型材断面
  6
CONTINUOUS
 10
195.0
 20
133.5
 11
-185.0
 21
133.5
  0
LINE
  8
型材断面
  6
CONTINUOUS
 10
145.0
 20
-133.5
 11
145.0
 21
-118.5
  0
LINE
  8
型材断面
  6
CONTINUOUS
 10
195.0
 20
-118.5
 11
145.0
 21
-118.5
  0
ENDBLK
  0
BLOCK
  2
*DIM_0002
 70
    65
 10
0.0
 20
0.0
  0
LINE
  8
寸法
  6
BYBLOCK
 62
     0
 10
167.343563
 20
-49.867045
 11
175.77841
 21
-49.867045
  0
LINE
  8
寸法
  6
BYBLOCK
 62
     0
 10
167.343563
 20
-92.533713
 11
175.77841
 21
-92.533713
  0
LINE
  8
寸法
  6
BYBLOCK
 62
     0
 10
175.77841
 20
-49.867045
 11
175.77841
 21
-92.533713
  0
POINT
  8
寸法
 62
     0
 10
175.77841
 20
-49.867045
  0
POINT
  8
寸法
 62
     0
 10
175.77841
 20
-92.533713
  0
TEXT
  7
TextStyle03
  8
寸法
  6
CONTINUOUS
 62
     0
 10
175.4
 20
-74.48125
  1
1280
 40
3.0
 50
90.0
 72
     5
 11
175.4
 21
-67.91875
  0
ENDBLK
  0
BLOCK
  2
*DIM_0003
 70
    65
 10
0.0
 20
0.0
  0
LINE
  8
寸法
  6
BYBLOCK
 62
     0
 10
71.257007
 20
-22.536362
 11
-112.076325
 21
-22.536362
  0
POINT
  8
寸法
 62
     0
 10
71.257007
 20
-22.536362
  0
POINT
  8
寸法
 62
     0
 10
-112.076325
 20
-22.536362
  0
TEXT
  7
TextStyle03
  8
寸法
  6
CONTINUOUS
 62
     0
 10
-32.14375
 20
-22.175
  1
呼称寸法　5500
 40
3.0
 72
     5
 11
-8.70625
 21
-22.175
  0
ENDBLK
  0
BLOCK
  2
*DIM_0004
 70
    65
 10
0.0
 20
0.0
  0
LINE
  8
寸法
  6
BYBLOCK
 62
     0
 10
-95.409657
 20
9.76892
 11
-95.409657
 21
4.438815
  0
LINE
  8
寸法
  6
BYBLOCK
 62
     0
 10
-20.40966
 20
9.76892
 11
-20.40966
 21
4.438815
  0
LINE
  8
寸法
  6
BYBLOCK
 62
     0
 10
-95.409657
 20
4.438815
 11
-20.40966
 21
4.438815
  0
POINT
  8
寸法
 62
     0
 10
-95.409657
 20
4.438815
  0
POINT
  8
寸法
 62
     0
 10
-20.40966
 20
4.438815
  0
TEXT
  7
TextStyle03
  8
寸法
  6
CONTINUOUS
 62
     0
 10
-61.20625
 20
4.8
  1
2250
 40
3.0
 72
     5
 11
-54.64375
 21
4.8
  0
ENDBLK
  0
BLOCK
  2
*DIM_0005
 70
    65
 10
0.0
 20
0.0
  0
LINE
  8
寸法
  6
BYBLOCK
 62
     0
 10
54.590337
 20
9.76892
 11
54.590337
 21
4.438815
  0
LINE
  8
寸法
  6
BYBLOCK
 62
     0
 10
-20.40966
 20
4.438815
 11
54.590337
 21
4.438815
  0
POINT
  8
寸法
 62
     0
 10
54.590337
 20
4.438815
  0
TEXT
  7
TextStyle03
  8
寸法
  6
CONTINUOUS
 62
     0
 10
13.79375
 20
4.8
  1
2250
 40
3.0
 72
     5
 11
20.35625
 21
4.8
  0
ENDBLK
  0
BLOCK
  2
*DIM_0006
 70
    65
 10
0.0
 20
0.0
  0
LINE
  8
寸法
  6
BYBLOCK
 62
     0
 10
72.257007
 20
56.732382
 11
81.98129
 21
56.732382
  0
LINE
  8
寸法
  6
BYBLOCK
 62
     0
 10
74.887138
 20
53.032382
 11
81.98129
 21
53.032382
  0
LINE
  8
寸法
  6
BYBLOCK
 62
     0
 10
81.98129
 20
56.732382
 11
81.98129
 21
53.032382
  0
POINT
  8
寸法
 62
     0
 10
81.98129
 20
56.732382
  0
POINT
  8
寸法
 62
     0
 10
81.98129
 20
53.032382
  0
TEXT
  7
TextStyle03
  8
寸法
  6
CONTINUOUS
 62
     0
 10
81.65
 20
57.7125
  1
111
 40
3.0
 50
90.0
 72
     5
 11
81.65
 21
62.5875
  0
ENDBLK
  0
BLOCK
  2
*DIM_0007
 70
    65
 10
0.0
 20
0.0
  0
LINE
  8
寸法
  6
BYBLOCK
 62
     0
 10
72.257007
 20
13.399048
 11
81.98129
 21
13.399045
  0
LINE
  8
寸法
  6
BYBLOCK
 62
     0
 10
74.887138
 20
17.099048
 11
81.98129
 21
17.099045
  0
LINE
  8
寸法
  6
BYBLOCK
 62
     0
 10
81.98129
 20
13.399045
 11
81.98129
 21
17.099045
  0
POINT
  8
寸法
 62
     0
 10
81.98129
 20
13.399045
  0
POINT
  8
寸法
 62
     0
 10
81.98129
 20
17.099045
  0
TEXT
  7
TextStyle03
  8
寸法
  6
CONTINUOUS
 62
     0
 10
81.625
 20
7.5375
  1
111
 40
3.0
 50
90.0
 72
     5
 11
81.625
 21
12.4125
  0
ENDBLK
  0
BLOCK
  2
*DIM_0008
 70
    65
 10
0.0
 20
0.0
  0
LINE
  8
寸法
  6
BYBLOCK
 62
     0
 10
105.276657
 20
13.399048
 11
105.276657
 21
56.73238
  0
POINT
  8
寸法
 62
     0
 10
105.276657
 20
13.399048
  0
POINT
  8
寸法
 62
     0
 10
105.276657
 20
56.73238
  0
TEXT
  7
TextStyle03
  8
寸法
  6
CONTINUOUS
 62
     0
 10
104.9
 20
23.33125
  1
呼称寸法　1300
 40
3.0
 50
90.0
 72
     5
 11
104.9
 21
46.76875
  0
ENDBLK
  0
BLOCK
  2
*DIM_0009
 70
    65
 10
0.0
 20
0.0
  0
LINE
  8
寸法
  6
BYBLOCK
 62
     0
 10
159.167052
 20
58.715712
 11
105.276657
 21
58.715712
  0
LINE
  8
寸法
  6
BYBLOCK
 62
     0
 10
105.276657
 20
56.73238
 11
105.276657
 21
58.715712
  0
POINT
  8
寸法
 62
     0
 10
105.276657
 20
56.73238
  0
POINT
  8
寸法
 62
     0
 10
105.276657
 20
58.715712
  0
TEXT
  7
TextStyle03
  8
寸法
  6
CONTINUOUS
 62
     0
 10
104.85
 20
61.16875
  1
59.5
 40
3.0
 50
90.0
 72
     5
 11
104.85
 21
67.73125
  0
ENDBLK
  0
BLOCK
  2
*DIM_0010
 70
    65
 10
0.0
 20
0.0
  0
LINE
  8
寸法
  6
BYBLOCK
 62
     0
 10
159.167052
 20
11.415712
 11
105.276657
 21
11.415712
  0
LINE
  8
寸法
  6
BYBLOCK
 62
     0
 10
105.276657
 20
13.399048
 11
105.276657
 21
11.415712
  0
POINT
  8
寸法
 62
     0
 10
105.276657
 20
13.399048
  0
POINT
  8
寸法
 62
     0
 10
105.276657
 20
11.415712
  0
TEXT
  7
TextStyle03
  8
寸法
  6
CONTINUOUS
 62
     0
 10
104.85
 20
2.36875
  1
59.5
 40
3.0
 50
90.0
 72
     5
 11
104.85
 21
8.93125
  0
ENDBLK
  0
BLOCK
  2
*DIM_0011
 70
    65
 10
0.0
 20
0.0
  0
LINE
  8
寸法
  6
BYBLOCK
 62
     0
 10
73.240337
 20
-61.334713
 11
73.240337
 21
-22.536362
  0
LINE
  8
寸法
  6
BYBLOCK
 62
     0
 10
71.257007
 20
-22.536362
 11
73.240337
 21
-22.536362
  0
POINT
  8
寸法
 62
     0
 10
71.257007
 20
-22.536362
  0
POINT
  8
寸法
 62
     0
 10
73.240337
 20
-22.536362
  0
TEXT
  7
TextStyle03
  8
寸法
  6
CONTINUOUS
 62
     0
 10
75.69375
 20
-22.175
  1
59.5
 40
3.0
 72
     5
 11
82.25625
 21
-22.175
  0
ENDBLK
  0
BLOCK
  2
*DIM_0012
 70
    65
 10
0.0
 20
0.0
  0
LINE
  8
寸法
  6
BYBLOCK
 62
     0
 10
-114.059657
 20
-61.334713
 11
-114.059657
 21
-22.536362
  0
LINE
  8
寸法
  6
BYBLOCK
 62
     0
 10
-112.076325
 20
-22.536362
 11
-114.059657
 21
-22.536362
  0
POINT
  8
寸法
 62
     0
 10
-112.076325
 20
-22.536362
  0
POINT
  8
寸法
 62
     0
 10
-114.059657
 20
-22.536362
  0
TEXT
  7
TextStyle03
  8
寸法
  6
CONTINUOUS
 62
     0
 10
-123.10625
 20
-22.175
  1
59.5
 40
3.0
 72
     5
 11
-116.54375
 21
-22.175
  0
ENDBLK
  0
BLOCK
  2
*DIM_0013
 70
    65
 10
0.0
 20
0.0
  0
LINE
  8
寸法
  6
BYBLOCK
 62
     0
 10
-115.076325
 20
23.399048
 11
-144.02149
 21
23.399048
  0
LINE
  8
寸法
  6
BYBLOCK
 62
     0
 10
-115.076325
 20
46.732382
 11
-144.02149
 21
46.732382
  0
LINE
  8
寸法
  6
BYBLOCK
 62
     0
 10
-144.02149
 20
23.399048
 11
-144.02149
 21
46.732382
  0
POINT
  8
寸法
 62
     0
 10
-144.02149
 20
23.399048
  0
POINT
  8
寸法
 62
     0
 10
-144.02149
 20
46.732382
  0
TEXT
  7
TextStyle03
  8
寸法
  6
CONTINUOUS
 62
     0
 10
-144.425
 20
32.6125
  1
700
 40
3.0
 50
90.0
 72
     5
 11
-144.425
 21
37.4875
  0
ENDBLK
  0
BLOCK
  2
*DIM_0014
 70
    65
 10
0.0
 20
0.0
  0
LINE
  8
寸法
  6
BYBLOCK
 62
     0
 10
-100.40966
 20
59.73238
 11
-100.40966
 21
88.840452
  0
LINE
  8
寸法
  6
BYBLOCK
 62
     0
 10
-73.742993
 20
59.73238
 11
-73.742993
 21
88.840452
  0
LINE
  8
寸法
  6
BYBLOCK
 62
     0
 10
-100.40966
 20
88.840452
 11
-73.742993
 21
88.840452
  0
POINT
  8
寸法
 62
     0
 10
-100.40966
 20
88.840452
  0
POINT
  8
寸法
 62
     0
 10
-73.742993
 20
88.840452
  0
TEXT
  7
TextStyle03
  8
寸法
  6
CONTINUOUS
 62
     0
 10
-89.5375
 20
89.2
  1
800
 40
3.0
 72
     5
 11
-84.6625
 21
89.2
  0
ENDBLK
  0
BLOCK
  2
*DIM_0015
 70
    65
 10
0.0
 20
0.0
  0
LINE
  8
寸法
  6
BYBLOCK
 62
     0
 10
-47.076328
 20
59.73238
 11
-47.076328
 21
88.840452
  0
LINE
  8
寸法
  6
BYBLOCK
 62
     0
 10
-73.742993
 20
88.840452
 11
-47.076328
 21
88.840452
  0
POINT
  8
寸法
 62
     0
 10
-47.076328
 20
88.840452
  0
TEXT
  7
TextStyle03
  8
寸法
  6
CONTINUOUS
 62
     0
 10
-62.8625
 20
89.2
  1
800
 40
3.0
 72
     5
 11
-57.9875
 21
89.2
  0
ENDBLK
  0
BLOCK
  2
*DIM_0016
 70
    65
 10
0.0
 20
0.0
  0
LINE
  8
寸法
  6
BYBLOCK
 62
     0
 10
-20.40966
 20
59.73238
 11
-20.40966
 21
88.840452
  0
LINE
  8
寸法
  6
BYBLOCK
 62
     0
 10
-47.076328
 20
88.840452
 11
-20.40966
 21
88.840452
  0
POINT
  8
寸法
 62
     0
 10
-20.40966
 20
88.840452
  0
TEXT
  7
TextStyle03
  8
寸法
  6
CONTINUOUS
 62
     0
 10
-36.1875
 20
89.2
  1
800
 40
3.0
 72
     5
 11
-31.3125
 21
89.2
  0
ENDBLK
  0
BLOCK
  2
*DIM_0017
 70
    65
 10
0.0
 20
0.0
  0
LINE
  8
寸法
  6
BYBLOCK
 62
     0
 10
6.257007
 20
59.73238
 11
6.257007
 21
88.840452
  0
LINE
  8
寸法
  6
BYBLOCK
 62
     0
 10
-20.40966
 20
88.840452
 11
6.257007
 21
88.840452
  0
POINT
  8
寸法
 62
     0
 10
6.257007
 20
88.840452
  0
TEXT
  7
TextStyle03
  8
寸法
  6
CONTINUOUS
 62
     0
 10
-9.5375
 20
89.2
  1
800
 40
3.0
 72
     5
 11
-4.6625
 21
89.2
  0
ENDBLK
  0
BLOCK
  2
*DIM_0018
 70
    65
 10
0.0
 20
0.0
  0
LINE
  8
寸法
  6
BYBLOCK
 62
     0
 10
32.923673
 20
59.73238
 11
32.923673
 21
88.840452
  0
LINE
  8
寸法
  6
BYBLOCK
 62
     0
 10
6.257007
 20
88.840452
 11
32.923673
 21
88.840452
  0
POINT
  8
寸法
 62
     0
 10
32.923673
 20
88.840452
  0
TEXT
  7
TextStyle03
  8
寸法
  6
CONTINUOUS
 62
     0
 10
17.1375
 20
89.2
  1
800
 40
3.0
 72
     5
 11
22.0125
 21
89.2
  0
ENDBLK
  0
BLOCK
  2
*DIM_0019
 70
    65
 10
0.0
 20
0.0
  0
LINE
  8
寸法
  6
BYBLOCK
 62
     0
 10
59.59034
 20
59.73238
 11
59.59034
 21
88.840452
  0
LINE
  8
寸法
  6
BYBLOCK
 62
     0
 10
32.923673
 20
88.840452
 11
59.59034
 21
88.840452
  0
POINT
  8
寸法
 62
     0
 10
59.59034
 20
88.840452
  0
TEXT
  7
TextStyle03
  8
寸法
  6
CONTINUOUS
 62
     0
 10
43.8125
 20
89.2
  1
800
 40
3.0
 72
     5
 11
48.6875
 21
89.2
  0
ENDBLK
  0
BLOCK
  2
*DIM_0020
 70
    65
 10
0.0
 20
0.0
  0
LINE
  8
寸法
  6
CONTINUOUS
 10
158.399285
 20
70.502383
 11
166.049335
 21
70.502383
  0
POINT
  8
寸法
 10
158.399285
 20
70.502383
  0
POINT
  8
寸法
 10
166.049335
 20
70.502383
  0
TEXT
  7
TextStyle03
  8
寸法
  6
CONTINUOUS
 10
158.125
 20
70.85
  1
229.5
 40
3.0
 72
     5
 11
166.375
 21
70.85
  0
ENDBLK
  0
BLOCK
  2
*GRP_0021
 70
    65
 10
0.0
 20
0.0
  0
LINE
  8
補助線
  6
BYBLOCK
 62
    64
 10
-108.681065
 20
-82.8227
 11
-108.80491
 21
-82.934235
  0
LINE
  8
補助線
  6
BYBLOCK
 62
    64
 10
-108.798758
 20
-82.816543
 11
-108.68722
 21
-82.94039
  0
LINE
  8
補助線
  6
BYBLOCK
 62
    64
 10
-97.965963
 20
-73.172675
 11
-98.089808
 21
-73.28421
  0
LINE
  8
補助線
  6
BYBLOCK
 62
    64
 10
-98.083652
 20
-73.166518
 11
-97.972117
 21
-73.290365
  0
LINE
  8
補助線
  6
BYBLOCK
 62
    64
 10
-87.374705
 20
-63.634185
 11
-87.250863
 21
-63.52265
  0
LINE
  8
補助線
  6
BYBLOCK
 62
    64
 10
-87.368552
 20
-63.516493
 11
-87.257015
 21
-63.64034
  0
LINE
  8
型材断面
  6
CONTINUOUS
 10
-109.548355
 20
-82.482312
 11
-109.585282
 21
-83.188453
  0
LINE
  8
型材断面
  6
CONTINUOUS
 10
-109.585282
 20
-83.188453
 11
-109.139142
 21
-83.683835
  0
LINE
  8
型材断面
  6
CONTINUOUS
 10
-109.139142
 20
-83.683835
 11
-108.433
 21
-83.720765
  0
LINE
  8
型材断面
  6
CONTINUOUS
 10
-87.622768
 20
-62.736122
 11
-86.916627
 21
-62.773052
  0
LINE
  8
型材断面
  6
CONTINUOUS
 10
-86.916627
 20
-62.773052
 11
-86.470485
 21
-63.268433
  0
LINE
  8
型材断面
  6
CONTINUOUS
 10
-86.470485
 20
-63.268433
 11
-86.507415
 21
-63.974578
  0
LINE
  8
型材断面
  6
CONTINUOUS
 10
-108.433
 20
-83.720765
 11
-86.507415
 21
-63.974578
  0
LINE
  8
型材断面
  6
CONTINUOUS
 10
-109.548355
 20
-82.482312
 11
-87.622768
 21
-62.736122
  0
CIRCLE
  8
ボルト／ビス
  6
CONTINUOUS
 10
-108.742987
 20
-82.878467
 40
0.250185
  0
CIRCLE
  8
ボルト／ビス
  6
CONTINUOUS
 10
-108.742987
 20
-82.878467
 40
0.301025
  0
LINE
  8
ボルト／ビス
  6
CONTINUOUS
 62
    64
 10
-108.9877
 20
-82.930512
 11
-108.910415
 21
-82.692562
  0
LINE
  8
ボルト／ビス
  6
CONTINUOUS
 62
    64
 10
-108.665703
 20
-82.640517
 11
-108.910415
 21
-82.692562
  0
LINE
  8
ボルト／ビス
  6
CONTINUOUS
 62
    64
 10
-108.820273
 20
-83.116417
 11
-108.57556
 21
-83.064372
  0
LINE
  8
ボルト／ビス
  6
CONTINUOUS
 62
    64
 10
-108.498275
 20
-82.826422
 11
-108.57556
 21
-83.064372
  0
LINE
  8
ボルト／ビス
  6
CONTINUOUS
 62
    64
 10
-108.9877
 20
-82.930512
 11
-108.820273
 21
-83.116417
  0
LINE
  8
ボルト／ビス
  6
CONTINUOUS
 62
    64
 10
-108.665703
 20
-82.640517
 11
-108.498275
 21
-82.826422
  0
CIRCLE
  8
ボルト／ビス
  6
CONTINUOUS
 62
    64
 10
-108.742987
 20
-82.878467
 40
0.216668
  0
CIRCLE
  8
ボルト／ビス
  6
CONTINUOUS
 10
-98.027885
 20
-73.228445
 40
0.250185
  0
CIRCLE
  8
ボルト／ビス
  6
CONTINUOUS
 10
-98.027885
 20
-73.228445
 40
0.301025
  0
LINE
  8
ボルト／ビス
  6
CONTINUOUS
 62
    64
 10
-98.2726
 20
-73.280487
 11
-98.195313
 21
-73.042537
  0
LINE
  8
ボルト／ビス
  6
CONTINUOUS
 62
    64
 10
-97.9506
 20
-72.990495
 11
-98.195313
 21
-73.042537
  0
LINE
  8
ボルト／ビス
  6
CONTINUOUS
 62
    64
 10
-98.105173
 20
-73.466392
 11
-97.86046
 21
-73.414347
  0
LINE
  8
ボルト／ビス
  6
CONTINUOUS
 62
    64
 10
-97.783173
 20
-73.1764
 11
-97.86046
 21
-73.414347
  0
LINE
  8
ボルト／ビス
  6
CONTINUOUS
 62
    64
 10
-98.2726
 20
-73.280487
 11
-98.105173
 21
-73.466392
  0
LINE
  8
ボルト／ビス
  6
CONTINUOUS
 62
    64
 10
-97.9506
 20
-72.990495
 11
-97.783173
 21
-73.1764
  0
CIRCLE
  8
ボルト／ビス
  6
CONTINUOUS
 62
    64
 10
-98.027885
 20
-73.228445
 40
0.216668
  0
CIRCLE
  8
ボルト／ビス
  6
CONTINUOUS
 10
-87.312785
 20
-63.578417
 40
0.250185
  0
CIRCLE
  8
ボルト／ビス
  6
CONTINUOUS
 10
-87.312785
 20
-63.578417
 40
0.301025
  0
LINE
  8
ボルト／ビス
  6
CONTINUOUS
 62
    64
 10
-87.235498
 20
-63.340467
 11
-87.48021
 21
-63.392512
  0
LINE
  8
ボルト／ビス
  6
CONTINUOUS
 62
    64
 10
-87.557495
 20
-63.630462
 11
-87.48021
 21
-63.392512
  0
LINE
  8
ボルト／ビス
  6
CONTINUOUS
 62
    64
 10
-87.06807
 20
-63.526372
 11
-87.145357
 21
-63.764322
  0
LINE
  8
ボルト／ビス
  6
CONTINUOUS
 62
    64
 10
-87.39007
 20
-63.816367
 11
-87.145357
 21
-63.764322
  0
LINE
  8
ボルト／ビス
  6
CONTINUOUS
 62
    64
 10
-87.235498
 20
-63.340467
 11
-87.06807
 21
-63.526372
  0
LINE
  8
ボルト／ビス
  6
CONTINUOUS
 62
    64
 10
-87.557495
 20
-63.630462
 11
-87.39007
 21
-63.816367
  0
CIRCLE
  8
ボルト／ビス
  6
CONTINUOUS
 62
    64
 10
-87.312785
 20
-63.578417
 40
0.216668
  0
ENDBLK
  0
BLOCK
  2
*GRP_0022
 70
    65
 10
0.0
 20
0.0
  0
LINE
  8
補助線
  6
BYBLOCK
 62
    64
 10
-87.374705
 20
-82.8227
 11
-87.25086
 21
-82.934235
  0
LINE
  8
補助線
  6
BYBLOCK
 62
    64
 10
-87.257013
 20
-82.816543
 11
-87.36855
 21
-82.94039
  0
LINE
  8
補助線
  6
BYBLOCK
 62
    64
 10
-98.089808
 20
-73.172675
 11
-97.965963
 21
-73.28421
  0
LINE
  8
補助線
  6
BYBLOCK
 62
    64
 10
-97.972117
 20
-73.166518
 11
-98.083652
 21
-73.290365
  0
LINE
  8
補助線
  6
BYBLOCK
 62
    64
 10
-108.681065
 20
-63.634185
 11
-108.804907
 21
-63.52265
  0
LINE
  8
補助線
  6
BYBLOCK
 62
    64
 10
-108.687218
 20
-63.516493
 11
-108.798755
 21
-63.64034
  0
LINE
  8
型材断面
  6
CONTINUOUS
 10
-86.507415
 20
-82.482312
 11
-86.470488
 21
-83.188453
  0
LINE
  8
型材断面
  6
CONTINUOUS
 10
-86.470488
 20
-83.188453
 11
-86.916627
 21
-83.683835
  0
LINE
  8
型材断面
  6
CONTINUOUS
 10
-86.916627
 20
-83.683835
 11
-87.62277
 21
-83.720765
  0
LINE
  8
型材断面
  6
CONTINUOUS
 10
-108.433003
 20
-62.736122
 11
-109.139142
 21
-62.773052
  0
LINE
  8
型材断面
  6
CONTINUOUS
 10
-109.139142
 20
-62.773052
 11
-109.585285
 21
-63.268433
  0
LINE
  8
型材断面
  6
CONTINUOUS
 10
-109.585285
 20
-63.268433
 11
-109.548355
 21
-63.974578
  0
LINE
  8
型材断面
  6
CONTINUOUS
 10
-87.62277
 20
-83.720765
 11
-109.548355
 21
-63.974578
  0
LINE
  8
型材断面
  6
CONTINUOUS
 10
-86.507415
 20
-82.482312
 11
-108.433003
 21
-62.736122
  0
CIRCLE
  8
ボルト／ビス
  6
CONTINUOUS
 10
-87.312782
 20
-82.878467
 40
0.250185
  0
CIRCLE
  8
ボルト／ビス
  6
CONTINUOUS
 10
-87.312782
 20
-82.878467
 40
0.301025
  0
LINE
  8
ボルト／ビス
  6
CONTINUOUS
 62
    64
 10
-87.06807
 20
-82.930512
 11
-87.145355
 21
-82.692562
  0
LINE
  8
ボルト／ビス
  6
CONTINUOUS
 62
    64
 10
-87.390067
 20
-82.640517
 11
-87.145355
 21
-82.692562
  0
LINE
  8
ボルト／ビス
  6
CONTINUOUS
 62
    64
 10
-87.235498
 20
-83.116417
 11
-87.48021
 21
-83.064372
  0
LINE
  8
ボルト／ビス
  6
CONTINUOUS
 62
    64
 10
-87.557495
 20
-82.826422
 11
-87.48021
 21
-83.064372
  0
LINE
  8
ボルト／ビス
  6
CONTINUOUS
 62
    64
 10
-87.06807
 20
-82.930512
 11
-87.235498
 21
-83.116417
  0
LINE
  8
ボルト／ビス
  6
CONTINUOUS
 62
    64
 10
-87.390067
 20
-82.640517
 11
-87.557495
 21
-82.826422
  0
CIRCLE
  8
ボルト／ビス
  6
CONTINUOUS
 62
    64
 10
-87.312782
 20
-82.878467
 40
0.216668
  0
CIRCLE
  8
ボルト／ビス
  6
CONTINUOUS
 10
-98.027885
 20
-73.228445
 40
0.250185
  0
CIRCLE
  8
ボルト／ビス
  6
CONTINUOUS
 10
-98.027885
 20
-73.228445
 40
0.301025
  0
LINE
  8
ボルト／ビス
  6
CONTINUOUS
 62
    64
 10
-97.78317
 20
-73.280487
 11
-97.860458
 21
-73.042537
  0
LINE
  8
ボルト／ビス
  6
CONTINUOUS
 62
    64
 10
-98.10517
 20
-72.990495
 11
-97.860458
 21
-73.042537
  0
LINE
  8
ボルト／ビス
  6
CONTINUOUS
 62
    64
 10
-97.950598
 20
-73.466392
 11
-98.19531
 21
-73.414347
  0
LINE
  8
ボルト／ビス
  6
CONTINUOUS
 62
    64
 10
-98.272598
 20
-73.1764
 11
-98.19531
 21
-73.414347
  0
LINE
  8
ボルト／ビス
  6
CONTINUOUS
 62
    64
 10
-97.78317
 20
-73.280487
 11
-97.950598
 21
-73.466392
  0
LINE
  8
ボルト／ビス
  6
CONTINUOUS
 62
    64
 10
-98.10517
 20
-72.990495
 11
-98.272598
 21
-73.1764
  0
CIRCLE
  8
ボルト／ビス
  6
CONTINUOUS
 62
    64
 10
-98.027885
 20
-73.228445
 40
0.216668
  0
CIRCLE
  8
ボルト／ビス
  6
CONTINUOUS
 10
-108.742985
 20
-63.578417
 40
0.250185
  0
CIRCLE
  8
ボルト／ビス
  6
CONTINUOUS
 10
-108.742985
 20
-63.578417
 40
0.301025
  0
LINE
  8
ボルト／ビス
  6
CONTINUOUS
 62
    64
 10
-108.820273
 20
-63.340467
 11
-108.57556
 21
-63.392512
  0
LINE
  8
ボルト／ビス
  6
CONTINUOUS
 62
    64
 10
-108.498275
 20
-63.630462
 11
-108.57556
 21
-63.392512
  0
LINE
  8
ボルト／ビス
  6
CONTINUOUS
 62
    64
 10
-108.9877
 20
-63.526372
 11
-108.910412
 21
-63.764322
  0
LINE
  8
ボルト／ビス
  6
CONTINUOUS
 62
    64
 10
-108.6657
 20
-63.816367
 11
-108.910412
 21
-63.764322
  0
LINE
  8
ボルト／ビス
  6
CONTINUOUS
 62
    64
 10
-108.820273
 20
-63.340467
 11
-108.9877
 21
-63.526372
  0
LINE
  8
ボルト／ビス
  6
CONTINUOUS
 62
    64
 10
-108.498275
 20
-63.630462
 11
-108.6657
 21
-63.816367
  0
CIRCLE
  8
ボルト／ビス
  6
CONTINUOUS
 62
    64
 10
-108.742985
 20
-63.578417
 40
0.216668
  0
ENDBLK
  0
BLOCK
  2
*GRP_0023
 70
    65
 10
0.0
 20
0.0
  0
LINE
  8
補助線
  6
BYBLOCK
 62
    64
 10
67.86176
 20
-82.8227
 11
67.985605
 21
-82.934235
  0
LINE
  8
補助線
  6
BYBLOCK
 62
    64
 10
67.979452
 20
-82.816543
 11
67.867915
 21
-82.94039
  0
LINE
  8
補助線
  6
BYBLOCK
 62
    64
 10
57.146658
 20
-73.172675
 11
57.270502
 21
-73.28421
  0
LINE
  8
補助線
  6
BYBLOCK
 62
    64
 10
57.264348
 20
-73.166518
 11
57.152813
 21
-73.290365
  0
LINE
  8
補助線
  6
BYBLOCK
 62
    64
 10
46.5554
 20
-63.634185
 11
46.431558
 21
-63.52265
  0
LINE
  8
補助線
  6
BYBLOCK
 62
    64
 10
46.549247
 20
-63.516493
 11
46.43771
 21
-63.64034
  0
LINE
  8
型材断面
  6
CONTINUOUS
 10
68.72905
 20
-82.482312
 11
68.765978
 21
-83.188453
  0
LINE
  8
型材断面
  6
CONTINUOUS
 10
68.765978
 20
-83.188453
 11
68.319837
 21
-83.683835
  0
LINE
  8
型材断面
  6
CONTINUOUS
 10
68.319837
 20
-83.683835
 11
67.613695
 21
-83.720765
  0
LINE
  8
型材断面
  6
CONTINUOUS
 10
46.803463
 20
-62.736122
 11
46.097322
 21
-62.773052
  0
LINE
  8
型材断面
  6
CONTINUOUS
 10
46.097322
 20
-62.773052
 11
45.65118
 21
-63.268433
  0
LINE
  8
型材断面
  6
CONTINUOUS
 10
45.65118
 20
-63.268433
 11
45.68811
 21
-63.974578
  0
LINE
  8
型材断面
  6
CONTINUOUS
 10
67.613695
 20
-83.720765
 11
45.68811
 21
-63.974578
  0
LINE
  8
型材断面
  6
CONTINUOUS
 10
68.72905
 20
-82.482312
 11
46.803463
 21
-62.736122
  0
CIRCLE
  8
ボルト／ビス
  6
CONTINUOUS
 10
67.923682
 20
-82.878467
 40
0.250185
  0
CIRCLE
  8
ボルト／ビス
  6
CONTINUOUS
 10
67.923682
 20
-82.878467
 40
0.301025
  0
LINE
  8
ボルト／ビス
  6
CONTINUOUS
 62
    64
 10
68.168395
 20
-82.930512
 11
68.09111
 21
-82.692562
  0
LINE
  8
ボルト／ビス
  6
CONTINUOUS
 62
    64
 10
67.846398
 20
-82.640517
 11
68.09111
 21
-82.692562
  0
LINE
  8
ボルト／ビス
  6
CONTINUOUS
 62
    64
 10
68.000967
 20
-83.116417
 11
67.756255
 21
-83.064372
  0
LINE
  8
ボルト／ビス
  6
CONTINUOUS
 62
    64
 10
67.67897
 20
-82.826422
 11
67.756255
 21
-83.064372
  0
LINE
  8
ボルト／ビス
  6
CONTINUOUS
 62
    64
 10
68.168395
 20
-82.930512
 11
68.000967
 21
-83.116417
  0
LINE
  8
ボルト／ビス
  6
CONTINUOUS
 62
    64
 10
67.846398
 20
-82.640517
 11
67.67897
 21
-82.826422
  0
CIRCLE
  8
ボルト／ビス
  6
CONTINUOUS
 62
    64
 10
67.923682
 20
-82.878467
 40
0.216668
  0
CIRCLE
  8
ボルト／ビス
  6
CONTINUOUS
 10
57.20858
 20
-73.228445
 40
0.250185
  0
CIRCLE
  8
ボルト／ビス
  6
CONTINUOUS
 10
57.20858
 20
-73.228445
 40
0.301025
  0
LINE
  8
ボルト／ビス
  6
CONTINUOUS
 62
    64
 10
57.453295
 20
-73.280487
 11
57.376008
 21
-73.042537
  0
LINE
  8
ボルト／ビス
  6
CONTINUOUS
 62
    64
 10
57.131295
 20
-72.990495
 11
57.376008
 21
-73.042537
  0
LINE
  8
ボルト／ビス
  6
CONTINUOUS
 62
    64
 10
57.285867
 20
-73.466392
 11
57.041155
 21
-73.414347
  0
LINE
  8
ボルト／ビス
  6
CONTINUOUS
 62
    64
 10
56.963868
 20
-73.1764
 11
57.041155
 21
-73.414347
  0
LINE
  8
ボルト／ビス
  6
CONTINUOUS
 62
    64
 10
57.453295
 20
-73.280487
 11
57.285867
 21
-73.466392
  0
LINE
  8
ボルト／ビス
  6
CONTINUOUS
 62
    64
 10
57.131295
 20
-72.990495
 11
56.963868
 21
-73.1764
  0
CIRCLE
  8
ボルト／ビス
  6
CONTINUOUS
 62
    64
 10
57.20858
 20
-73.228445
 40
0.216668
  0
CIRCLE
  8
ボルト／ビス
  6
CONTINUOUS
 10
46.49348
 20
-63.578417
 40
0.250185
  0
CIRCLE
  8
ボルト／ビス
  6
CONTINUOUS
 10
46.49348
 20
-63.578417
 40
0.301025
  0
LINE
  8
ボルト／ビス
  6
CONTINUOUS
 62
    64
 10
46.416193
 20
-63.340467
 11
46.660905
 21
-63.392512
  0
LINE
  8
ボルト／ビス
  6
CONTINUOUS
 62
    64
 10
46.73819
 20
-63.630462
 11
46.660905
 21
-63.392512
  0
LINE
  8
ボルト／ビス
  6
CONTINUOUS
 62
    64
 10
46.248765
 20
-63.526372
 11
46.326052
 21
-63.764322
  0
LINE
  8
ボルト／ビス
  6
CONTINUOUS
 62
    64
 10
46.570765
 20
-63.816367
 11
46.326052
 21
-63.764322
  0
LINE
  8
ボルト／ビス
  6
CONTINUOUS
 62
    64
 10
46.416193
 20
-63.340467
 11
46.248765
 21
-63.526372
  0
LINE
  8
ボルト／ビス
  6
CONTINUOUS
 62
    64
 10
46.73819
 20
-63.630462
 11
46.570765
 21
-63.816367
  0
CIRCLE
  8
ボルト／ビス
  6
CONTINUOUS
 62
    64
 10
46.49348
 20
-63.578417
 40
0.216668
  0
ENDBLK
  0
BLOCK
  2
*GRP_0024
 70
    65
 10
0.0
 20
0.0
  0
LINE
  8
補助線
  6
BYBLOCK
 62
    64
 10
46.5554
 20
-82.8227
 11
46.431555
 21
-82.934235
  0
LINE
  8
補助線
  6
BYBLOCK
 62
    64
 10
46.437708
 20
-82.816543
 11
46.549245
 21
-82.94039
  0
LINE
  8
補助線
  6
BYBLOCK
 62
    64
 10
57.270502
 20
-73.172675
 11
57.146658
 21
-73.28421
  0
LINE
  8
補助線
  6
BYBLOCK
 62
    64
 10
57.152813
 20
-73.166518
 11
57.264348
 21
-73.290365
  0
LINE
  8
補助線
  6
BYBLOCK
 62
    64
 10
67.86176
 20
-63.634185
 11
67.985602
 21
-63.52265
  0
LINE
  8
補助線
  6
BYBLOCK
 62
    64
 10
67.867913
 20
-63.516493
 11
67.97945
 21
-63.64034
  0
LINE
  8
型材断面
  6
CONTINUOUS
 10
45.68811
 20
-82.482312
 11
45.651182
 21
-83.188453
  0
LINE
  8
型材断面
  6
CONTINUOUS
 10
45.651182
 20
-83.188453
 11
46.097322
 21
-83.683835
  0
LINE
  8
型材断面
  6
CONTINUOUS
 10
46.097322
 20
-83.683835
 11
46.803465
 21
-83.720765
  0
LINE
  8
型材断面
  6
CONTINUOUS
 10
67.613697
 20
-62.736122
 11
68.319837
 21
-62.773052
  0
LINE
  8
型材断面
  6
CONTINUOUS
 10
68.319837
 20
-62.773052
 11
68.76598
 21
-63.268433
  0
LINE
  8
型材断面
  6
CONTINUOUS
 10
68.76598
 20
-63.268433
 11
68.72905
 21
-63.974578
  0
LINE
  8
型材断面
  6
CONTINUOUS
 10
46.803465
 20
-83.720765
 11
68.72905
 21
-63.974578
  0
LINE
  8
型材断面
  6
CONTINUOUS
 10
45.68811
 20
-82.482312
 11
67.613697
 21
-62.736122
  0
CIRCLE
  8
ボルト／ビス
  6
CONTINUOUS
 10
46.493477
 20
-82.878467
 40
0.250185
  0
CIRCLE
  8
ボルト／ビス
  6
CONTINUOUS
 10
46.493477
 20
-82.878467
 40
0.301025
  0
LINE
  8
ボルト／ビス
  6
CONTINUOUS
 62
    64
 10
46.248765
 20
-82.930512
 11
46.32605
 21
-82.692562
  0
LINE
  8
ボルト／ビス
  6
CONTINUOUS
 62
    64
 10
46.570762
 20
-82.640517
 11
46.32605
 21
-82.692562
  0
LINE
  8
ボルト／ビス
  6
CONTINUOUS
 62
    64
 10
46.416193
 20
-83.116417
 11
46.660905
 21
-83.064372
  0
LINE
  8
ボルト／ビス
  6
CONTINUOUS
 62
    64
 10
46.73819
 20
-82.826422
 11
46.660905
 21
-83.064372
  0
LINE
  8
ボルト／ビス
  6
CONTINUOUS
 62
    64
 10
46.248765
 20
-82.930512
 11
46.416193
 21
-83.116417
  0
LINE
  8
ボルト／ビス
  6
CONTINUOUS
 62
    64
 10
46.570762
 20
-82.640517
 11
46.73819
 21
-82.826422
  0
CIRCLE
  8
ボルト／ビス
  6
CONTINUOUS
 62
    64
 10
46.493477
 20
-82.878467
 40
0.216668
  0
CIRCLE
  8
ボルト／ビス
  6
CONTINUOUS
 10
57.20858
 20
-73.228445
 40
0.250185
  0
CIRCLE
  8
ボルト／ビス
  6
CONTINUOUS
 10
57.20858
 20
-73.228445
 40
0.301025
  0
LINE
  8
ボルト／ビス
  6
CONTINUOUS
 62
    64
 10
56.963865
 20
-73.280487
 11
57.041152
 21
-73.042537
  0
LINE
  8
ボルト／ビス
  6
CONTINUOUS
 62
    64
 10
57.285865
 20
-72.990495
 11
57.041152
 21
-73.042537
  0
LINE
  8
ボルト／ビス
  6
CONTINUOUS
 62
    64
 10
57.131293
 20
-73.466392
 11
57.376005
 21
-73.414347
  0
LINE
  8
ボルト／ビス
  6
CONTINUOUS
 62
    64
 10
57.453292
 20
-73.1764
 11
57.376005
 21
-73.414347
  0
LINE
  8
ボルト／ビス
  6
CONTINUOUS
 62
    64
 10
56.963865
 20
-73.280487
 11
57.131293
 21
-73.466392
  0
LINE
  8
ボルト／ビス
  6
CONTINUOUS
 62
    64
 10
57.285865
 20
-72.990495
 11
57.453292
 21
-73.1764
  0
CIRCLE
  8
ボルト／ビス
  6
CONTINUOUS
 62
    64
 10
57.20858
 20
-73.228445
 40
0.216668
  0
CIRCLE
  8
ボルト／ビス
  6
CONTINUOUS
 10
67.92368
 20
-63.578417
 40
0.250185
  0
CIRCLE
  8
ボルト／ビス
  6
CONTINUOUS
 10
67.92368
 20
-63.578417
 40
0.301025
  0
LINE
  8
ボルト／ビス
  6
CONTINUOUS
 62
    64
 10
68.000967
 20
-63.340467
 11
67.756255
 21
-63.392512
  0
LINE
  8
ボルト／ビス
  6
CONTINUOUS
 62
    64
 10
67.67897
 20
-63.630462
 11
67.756255
 21
-63.392512
  0
LINE
  8
ボルト／ビス
  6
CONTINUOUS
 62
    64
 10
68.168395
 20
-63.526372
 11
68.091107
 21
-63.764322
  0
LINE
  8
ボルト／ビス
  6
CONTINUOUS
 62
    64
 10
67.846395
 20
-63.816367
 11
68.091107
 21
-63.764322
  0
LINE
  8
ボルト／ビス
  6
CONTINUOUS
 62
    64
 10
68.000967
 20
-63.340467
 11
68.168395
 21
-63.526372
  0
LINE
  8
ボルト／ビス
  6
CONTINUOUS
 62
    64
 10
67.67897
 20
-63.630462
 11
67.846395
 21
-63.816367
  0
CIRCLE
  8
ボルト／ビス
  6
CONTINUOUS
 62
    64
 10
67.92368
 20
-63.578417
 40
0.216668
  0
ENDBLK
  0
BLOCK
  2
*GRP_0025
 70
    65
 10
0.0
 20
0.0
  0
LINE
  8
補助線
  6
BYBLOCK
 62
    64
 10
-9.756473
 20
-82.8227
 11
-9.632628
 21
-82.934235
  0
LINE
  8
補助線
  6
BYBLOCK
 62
    64
 10
-9.63878
 20
-82.816543
 11
-9.750317
 21
-82.94039
  0
LINE
  8
補助線
  6
BYBLOCK
 62
    64
 10
-20.471575
 20
-73.172675
 11
-20.34773
 21
-73.28421
  0
LINE
  8
補助線
  6
BYBLOCK
 62
    64
 10
-20.353885
 20
-73.166518
 11
-20.46542
 21
-73.290365
  0
LINE
  8
補助線
  6
BYBLOCK
 62
    64
 10
-31.062832
 20
-63.634185
 11
-31.186675
 21
-63.52265
  0
LINE
  8
補助線
  6
BYBLOCK
 62
    64
 10
-31.068985
 20
-63.516493
 11
-31.180523
 21
-63.64034
  0
LINE
  8
型材断面
  6
CONTINUOUS
 10
-8.889182
 20
-82.482312
 11
-8.852255
 21
-83.188453
  0
LINE
  8
型材断面
  6
CONTINUOUS
 10
-8.852255
 20
-83.188453
 11
-9.298395
 21
-83.683835
  0
LINE
  8
型材断面
  6
CONTINUOUS
 10
-9.298395
 20
-83.683835
 11
-10.004537
 21
-83.720765
  0
LINE
  8
型材断面
  6
CONTINUOUS
 10
-30.81477
 20
-62.736122
 11
-31.52091
 21
-62.773052
  0
LINE
  8
型材断面
  6
CONTINUOUS
 10
-31.52091
 20
-62.773052
 11
-31.967053
 21
-63.268433
  0
LINE
  8
型材断面
  6
CONTINUOUS
 10
-31.967053
 20
-63.268433
 11
-31.930123
 21
-63.974578
  0
LINE
  8
型材断面
  6
CONTINUOUS
 10
-10.004537
 20
-83.720765
 11
-31.930123
 21
-63.974578
  0
LINE
  8
型材断面
  6
CONTINUOUS
 10
-8.889182
 20
-82.482312
 11
-30.81477
 21
-62.736122
  0
CIRCLE
  8
ボルト／ビス
  6
CONTINUOUS
 10
-9.69455
 20
-82.878467
 40
0.250185
  0
CIRCLE
  8
ボルト／ビス
  6
CONTINUOUS
 10
-9.69455
 20
-82.878467
 40
0.301025
  0
LINE
  8
ボルト／ビス
  6
CONTINUOUS
 62
    64
 10
-9.449838
 20
-82.930512
 11
-9.527123
 21
-82.692562
  0
LINE
  8
ボルト／ビス
  6
CONTINUOUS
 62
    64
 10
-9.771835
 20
-82.640517
 11
-9.527123
 21
-82.692562
  0
LINE
  8
ボルト／ビス
  6
CONTINUOUS
 62
    64
 10
-9.617265
 20
-83.116417
 11
-9.861978
 21
-83.064372
  0
LINE
  8
ボルト／ビス
  6
CONTINUOUS
 62
    64
 10
-9.939263
 20
-82.826422
 11
-9.861978
 21
-83.064372
  0
LINE
  8
ボルト／ビス
  6
CONTINUOUS
 62
    64
 10
-9.449838
 20
-82.930512
 11
-9.617265
 21
-83.116417
  0
LINE
  8
ボルト／ビス
  6
CONTINUOUS
 62
    64
 10
-9.771835
 20
-82.640517
 11
-9.939263
 21
-82.826422
  0
CIRCLE
  8
ボルト／ビス
  6
CONTINUOUS
 62
    64
 10
-9.69455
 20
-82.878467
 40
0.216668
  0
CIRCLE
  8
ボルト／ビス
  6
CONTINUOUS
 10
-20.409652
 20
-73.228445
 40
0.250185
  0
CIRCLE
  8
ボルト／ビス
  6
CONTINUOUS
 10
-20.409652
 20
-73.228445
 40
0.301025
  0
LINE
  8
ボルト／ビス
  6
CONTINUOUS
 62
    64
 10
-20.164937
 20
-73.280487
 11
-20.242225
 21
-73.042537
  0
LINE
  8
ボルト／ビス
  6
CONTINUOUS
 62
    64
 10
-20.486938
 20
-72.990495
 11
-20.242225
 21
-73.042537
  0
LINE
  8
ボルト／ビス
  6
CONTINUOUS
 62
    64
 10
-20.332365
 20
-73.466392
 11
-20.577077
 21
-73.414347
  0
LINE
  8
ボルト／ビス
  6
CONTINUOUS
 62
    64
 10
-20.654365
 20
-73.1764
 11
-20.577077
 21
-73.414347
  0
LINE
  8
ボルト／ビス
  6
CONTINUOUS
 62
    64
 10
-20.164937
 20
-73.280487
 11
-20.332365
 21
-73.466392
  0
LINE
  8
ボルト／ビス
  6
CONTINUOUS
 62
    64
 10
-20.486938
 20
-72.990495
 11
-20.654365
 21
-73.1764
  0
CIRCLE
  8
ボルト／ビス
  6
CONTINUOUS
 62
    64
 10
-20.409652
 20
-73.228445
 40
0.216668
  0
CIRCLE
  8
ボルト／ビス
  6
CONTINUOUS
 10
-31.124752
 20
-63.578417
 40
0.250185
  0
CIRCLE
  8
ボルト／ビス
  6
CONTINUOUS
 10
-31.124752
 20
-63.578417
 40
0.301025
  0
LINE
  8
ボルト／ビス
  6
CONTINUOUS
 62
    64
 10
-31.20204
 20
-63.340467
 11
-30.957327
 21
-63.392512
  0
LINE
  8
ボルト／ビス
  6
CONTINUOUS
 62
    64
 10
-30.880043
 20
-63.630462
 11
-30.957327
 21
-63.392512
  0
LINE
  8
ボルト／ビス
  6
CONTINUOUS
 62
    64
 10
-31.369467
 20
-63.526372
 11
-31.29218
 21
-63.764322
  0
LINE
  8
ボルト／ビス
  6
CONTINUOUS
 62
    64
 10
-31.047468
 20
-63.816367
 11
-31.29218
 21
-63.764322
  0
LINE
  8
ボルト／ビス
  6
CONTINUOUS
 62
    64
 10
-31.20204
 20
-63.340467
 11
-31.369467
 21
-63.526372
  0
LINE
  8
ボルト／ビス
  6
CONTINUOUS
 62
    64
 10
-30.880043
 20
-63.630462
 11
-31.047468
 21
-63.816367
  0
CIRCLE
  8
ボルト／ビス
  6
CONTINUOUS
 62
    64
 10
-31.124752
 20
-63.578417
 40
0.216668
  0
ENDBLK
  0
BLOCK
  2
*GRP_0026
 70
    65
 10
0.0
 20
0.0
  0
LINE
  8
補助線
  6
BYBLOCK
 62
    64
 10
-31.062832
 20
-82.8227
 11
-31.186678
 21
-82.934235
  0
LINE
  8
補助線
  6
BYBLOCK
 62
    64
 10
-31.180525
 20
-82.816543
 11
-31.068988
 21
-82.94039
  0
LINE
  8
補助線
  6
BYBLOCK
 62
    64
 10
-20.34773
 20
-73.172675
 11
-20.471575
 21
-73.28421
  0
LINE
  8
補助線
  6
BYBLOCK
 62
    64
 10
-20.46542
 20
-73.166518
 11
-20.353885
 21
-73.290365
  0
LINE
  8
補助線
  6
BYBLOCK
 62
    64
 10
-9.756473
 20
-63.634185
 11
-9.63263
 21
-63.52265
  0
LINE
  8
補助線
  6
BYBLOCK
 62
    64
 10
-9.75032
 20
-63.516493
 11
-9.638782
 21
-63.64034
  0
LINE
  8
型材断面
  6
CONTINUOUS
 10
-31.930123
 20
-82.482312
 11
-31.96705
 21
-83.188453
  0
LINE
  8
型材断面
  6
CONTINUOUS
 10
-31.96705
 20
-83.188453
 11
-31.52091
 21
-83.683835
  0
LINE
  8
型材断面
  6
CONTINUOUS
 10
-31.52091
 20
-83.683835
 11
-30.814768
 21
-83.720765
  0
LINE
  8
型材断面
  6
CONTINUOUS
 10
-10.004535
 20
-62.736122
 11
-9.298395
 21
-62.773052
  0
LINE
  8
型材断面
  6
CONTINUOUS
 10
-9.298395
 20
-62.773052
 11
-8.852253
 21
-63.268433
  0
LINE
  8
型材断面
  6
CONTINUOUS
 10
-8.852253
 20
-63.268433
 11
-8.889182
 21
-63.974578
  0
LINE
  8
型材断面
  6
CONTINUOUS
 10
-30.814768
 20
-83.720765
 11
-8.889182
 21
-63.974578
  0
LINE
  8
型材断面
  6
CONTINUOUS
 10
-31.930123
 20
-82.482312
 11
-10.004535
 21
-62.736122
  0
CIRCLE
  8
ボルト／ビス
  6
CONTINUOUS
 10
-31.124755
 20
-82.878467
 40
0.250185
  0
CIRCLE
  8
ボルト／ビス
  6
CONTINUOUS
 10
-31.124755
 20
-82.878467
 40
0.301025
  0
LINE
  8
ボルト／ビス
  6
CONTINUOUS
 62
    64
 10
-31.369467
 20
-82.930512
 11
-31.292183
 21
-82.692562
  0
LINE
  8
ボルト／ビス
  6
CONTINUOUS
 62
    64
 10
-31.04747
 20
-82.640517
 11
-31.292183
 21
-82.692562
  0
LINE
  8
ボルト／ビス
  6
CONTINUOUS
 62
    64
 10
-31.20204
 20
-83.116417
 11
-30.957327
 21
-83.064372
  0
LINE
  8
ボルト／ビス
  6
CONTINUOUS
 62
    64
 10
-30.880043
 20
-82.826422
 11
-30.957327
 21
-83.064372
  0
LINE
  8
ボルト／ビス
  6
CONTINUOUS
 62
    64
 10
-31.369467
 20
-82.930512
 11
-31.20204
 21
-83.116417
  0
LINE
  8
ボルト／ビス
  6
CONTINUOUS
 62
    64
 10
-31.04747
 20
-82.640517
 11
-30.880043
 21
-82.826422
  0
CIRCLE
  8
ボルト／ビス
  6
CONTINUOUS
 62
    64
 10
-31.124755
 20
-82.878467
 40
0.216668
  0
CIRCLE
  8
ボルト／ビス
  6
CONTINUOUS
 10
-20.409652
 20
-73.228445
 40
0.250185
  0
CIRCLE
  8
ボルト／ビス
  6
CONTINUOUS
 10
-20.409652
 20
-73.228445
 40
0.301025
  0
LINE
  8
ボルト／ビス
  6
CONTINUOUS
 62
    64
 10
-20.654367
 20
-73.280487
 11
-20.57708
 21
-73.042537
  0
LINE
  8
ボルト／ビス
  6
CONTINUOUS
 62
    64
 10
-20.332367
 20
-72.990495
 11
-20.57708
 21
-73.042537
  0
LINE
  8
ボルト／ビス
  6
CONTINUOUS
 62
    64
 10
-20.48694
 20
-73.466392
 11
-20.242227
 21
-73.414347
  0
LINE
  8
ボルト／ビス
  6
CONTINUOUS
 62
    64
 10
-20.16494
 20
-73.1764
 11
-20.242227
 21
-73.414347
  0
LINE
  8
ボルト／ビス
  6
CONTINUOUS
 62
    64
 10
-20.654367
 20
-73.280487
 11
-20.48694
 21
-73.466392
  0
LINE
  8
ボルト／ビス
  6
CONTINUOUS
 62
    64
 10
-20.332367
 20
-72.990495
 11
-20.16494
 21
-73.1764
  0
CIRCLE
  8
ボルト／ビス
  6
CONTINUOUS
 62
    64
 10
-20.409652
 20
-73.228445
 40
0.216668
  0
CIRCLE
  8
ボルト／ビス
  6
CONTINUOUS
 10
-9.694553
 20
-63.578417
 40
0.250185
  0
CIRCLE
  8
ボルト／ビス
  6
CONTINUOUS
 10
-9.694553
 20
-63.578417
 40
0.301025
  0
LINE
  8
ボルト／ビス
  6
CONTINUOUS
 62
    64
 10
-9.617265
 20
-63.340467
 11
-9.861978
 21
-63.392512
  0
LINE
  8
ボルト／ビス
  6
CONTINUOUS
 62
    64
 10
-9.939263
 20
-63.630462
 11
-9.861978
 21
-63.392512
  0
LINE
  8
ボルト／ビス
  6
CONTINUOUS
 62
    64
 10
-9.449838
 20
-63.526372
 11
-9.527125
 21
-63.764322
  0
LINE
  8
ボルト／ビス
  6
CONTINUOUS
 62
    64
 10
-9.771838
 20
-63.816367
 11
-9.527125
 21
-63.764322
  0
LINE
  8
ボルト／ビス
  6
CONTINUOUS
 62
    64
 10
-9.617265
 20
-63.340467
 11
-9.449838
 21
-63.526372
  0
LINE
  8
ボルト／ビス
  6
CONTINUOUS
 62
    64
 10
-9.939263
 20
-63.630462
 11
-9.771838
 21
-63.816367
  0
CIRCLE
  8
ボルト／ビス
  6
CONTINUOUS
 62
    64
 10
-9.694553
 20
-63.578417
 40
0.216668
  0
ENDBLK
  0
BLOCK
  2
*DIM_0027
 70
    65
 10
0.0
 20
0.0
  0
LINE
  8
寸法
  6
CONTINUOUS
 10
84.492252
 20
-77.30175
 11
84.492252
 21
-84.9518
  0
POINT
  8
寸法
 10
84.492252
 20
-77.30175
  0
POINT
  8
寸法
 10
84.492252
 20
-84.9518
  0
TEXT
  7
TextStyle03
  8
寸法
  6
CONTINUOUS
 10
88.925
 20
-85.3
  1
229.5
 40
3.0
 50
90.0
 72
     5
 11
88.925
 21
-77.05
  0
ENDBLK
  0
BLOCK
  2
*DIM_0028
 70
    65
 10
0.0
 20
0.0
  0
LINE
  8
寸法
  6
CONTINUOUS
 10
166.343563
 20
-41.056908
 11
130.743563
 21
-41.056908
  0
POINT
  8
寸法
 10
166.343563
 20
-41.056908
  0
POINT
  8
寸法
 10
130.743563
 20
-41.056908
  0
TEXT
  7
TextStyle03
  8
寸法
  6
CONTINUOUS
 10
145.24375
 20
-40.7
  1
1068
 40
3.0
 72
     5
 11
151.80625
 21
-40.7
  0
ENDBLK
  0
BLOCK
  2
*DIM_0029
 70
    65
 10
0.0
 20
0.0
  0
LINE
  8
寸法
  6
BYBLOCK
 62
     0
 10
84.492252
 20
-77.30175
 11
84.492252
 21
-60.635083
  0
POINT
  8
寸法
 62
     0
 10
84.492252
 20
-77.30175
  0
POINT
  8
寸法
 62
     0
 10
84.492252
 20
-60.635083
  0
TEXT
  7
TextStyle03
  8
寸法
  6
CONTINUOUS
 62
     0
 10
83.625
 20
-58.46875
  1
上昇463以上
 40
3.0
 50
90.0
 72
     5
 11
83.625
 21
-40.28125
  0
ENDBLK
  0
ENDSEC
  0
SECTION
  2
ENTITIES
  0
POLYLINE
  8
通り芯
  6
CONTINUOUS
 66
     1
 70
     1
  0
VERTEX
  8
通り芯
 10
-210.0
 20
-148.5
  0
VERTEX
  8
通り芯
 10
210.0
 20
-148.5
  0
VERTEX
  8
通り芯
 10
210.0
 20
148.5
  0
VERTEX
  8
通り芯
 10
-210.0
 20
148.5
  0
SEQEND
  0
INSERT
  2
*GRP_0001
  8
型材断面
  6
CONTINUOUS
 10
0.0
 20
0.0
  0
LINE
  8
型材断面
  6
DASHDOT
 10
71.257007
 20
-87.251428
 11
71.257007
 21
56.73238
  0
LINE
  8
型材断面
  6
DASHDOT
 10
-112.076325
 20
-87.251428
 11
-112.076325
 21
56.73238
  0
LINE
  8
型材断面
  6
DASHDOT
 10
-20.40966
 20
-87.251428
 11
-20.40966
 21
56.73238
  0
POLYLINE
  8
型材断面
  6
CONTINUOUS
 66
     1
 70
     1
  0
VERTEX
  8
型材断面
 10
-10.935852
 20
66.508305
  0
VERTEX
  8
型材断面
 10
-29.707783
 20
66.508305
  0
VERTEX
  8
型材断面
 10
-29.707783
 20
71.245147
  0
VERTEX
  8
型材断面
 10
-10.935852
 20
71.245147
  0
SEQEND
  0
POLYLINE
  8
型材断面
  6
CONTINUOUS
 66
     1
 70
     1
  0
VERTEX
  8
型材断面
 10
-10.935852
 20
3.623125
  0
VERTEX
  8
型材断面
 10
-29.707783
 20
3.623125
  0
VERTEX
  8
型材断面
 10
-29.707783
 20
-1.113717
  0
VERTEX
  8
型材断面
 10
-10.935852
 20
-1.113717
  0
SEQEND
  0
LINE
  8
型材断面
  6
DASHDOT
 10
168.93377
 20
56.73238
 11
-112.076325
 21
56.73238
  0
LINE
  8
型材断面
  6
DASHDOT
 10
168.93377
 20
13.399048
 11
-112.076325
 21
13.399048
  0
LINE
  8
型材断面
  6
DASHDOT
 10
168.93377
 20
35.065715
 11
-112.076325
 21
35.065715
  0
LINE
  8
型材断面
  6
CONTINUOUS
 10
-114.706455
 20
35.065715
 11
-117.296962
 21
36.561345
  0
LINE
  8
型材断面
  6
CONTINUOUS
 10
-114.706455
 20
35.065715
 11
-117.296962
 21
33.570085
  0
LINE
  8
型材断面
  6
CONTINUOUS
 10
-117.296962
 20
33.570085
 11
-117.296962
 21
36.561345
  0
LINE
  8
型材断面
  6
CONTINUOUS
 10
-95.409657
 20
59.36251
 11
-96.905288
 21
61.953017
  0
LINE
  8
型材断面
  6
CONTINUOUS
 10
-95.409657
 20
59.36251
 11
-93.914027
 21
61.953017
  0
LINE
  8
型材断面
  6
CONTINUOUS
 10
-93.914027
 20
61.953017
 11
-96.905288
 21
61.953017
  0
LINE
  8
型材断面
  6
CONTINUOUS
 10
-152.928532
 20
94.709852
 11
-152.332478
 21
92.119345
  0
LINE
  8
型材断面
  6
CONTINUOUS
 10
-152.928532
 20
94.709852
 11
-153.52459
 21
92.119345
  0
LINE
  8
型材断面
  6
CONTINUOUS
 10
-153.52459
 20
92.119345
 11
-152.332478
 21
92.119345
  0
LINE
  8
型材断面
  6
CONTINUOUS
 10
-158.95112
 20
88.840452
 11
-112.709343
 21
88.840452
  0
LINE
  8
型材断面
  6
CONTINUOUS
 10
-152.928532
 20
101.239727
 11
-154.424162
 21
98.64922
  0
LINE
  8
型材断面
  6
CONTINUOUS
 10
-152.928532
 20
101.239727
 11
-151.432903
 21
98.64922
  0
LINE
  8
型材断面
  6
CONTINUOUS
 10
-151.432903
 20
98.64922
 11
-154.424162
 21
98.64922
  0
LINE
  8
型材断面
  6
CONTINUOUS
 10
-158.95112
 20
97.710625
 11
-112.709343
 21
97.710625
  0
LINE
  8
型材断面
  6
CONTINUOUS
 10
-158.95112
 20
83.05242
 11
-112.709343
 21
83.05242
  0
LINE
  8
型材断面
  6
CONTINUOUS
 10
-95.409657
 20
10.76892
 11
-96.905288
 21
8.178413
  0
LINE
  8
型材断面
  6
CONTINUOUS
 10
-95.409657
 20
10.76892
 11
-93.914027
 21
8.178413
  0
LINE
  8
型材断面
  6
CONTINUOUS
 10
-93.914027
 20
8.178413
 11
-96.905288
 21
8.178413
  0
LINE
  8
型材断面
  6
CONTINUOUS
 10
73.887135
 20
35.065715
 11
76.477643
 21
36.561345
  0
LINE
  8
型材断面
  6
CONTINUOUS
 10
73.887135
 20
35.065715
 11
76.477643
 21
33.570085
  0
LINE
  8
型材断面
  6
CONTINUOUS
 10
76.477643
 20
33.570085
 11
76.477643
 21
36.561345
  0
LINE
  8
型材断面
  6
CONTINUOUS
 10
54.590337
 20
59.36251
 11
56.085967
 21
61.953017
  0
LINE
  8
型材断面
  6
CONTINUOUS
 10
54.590337
 20
59.36251
 11
53.094708
 21
61.953017
  0
LINE
  8
型材断面
  6
CONTINUOUS
 10
53.094708
 20
61.953017
 11
56.085967
 21
61.953017
  0
LINE
  8
型材断面
  6
CONTINUOUS
 10
54.590337
 20
10.76892
 11
56.085967
 21
8.178413
  0
LINE
  8
型材断面
  6
CONTINUOUS
 10
54.590337
 20
10.76892
 11
53.094708
 21
8.178413
  0
LINE
  8
型材断面
  6
CONTINUOUS
 10
53.094708
 20
8.178413
 11
56.085967
 21
8.178413
  0
LINE
  8
型材断面
  6
CONTINUOUS
 10
-20.40966
 20
59.36251
 11
-21.90529
 21
61.953017
  0
LINE
  8
型材断面
  6
CONTINUOUS
 10
-20.40966
 20
59.36251
 11
-18.91403
 21
61.953017
  0
LINE
  8
型材断面
  6
CONTINUOUS
 10
-18.91403
 20
61.953017
 11
-21.90529
 21
61.953017
  0
LINE
  8
型材断面
  6
CONTINUOUS
 10
-20.40966
 20
10.76892
 11
-21.90529
 21
8.178413
  0
LINE
  8
型材断面
  6
CONTINUOUS
 10
-20.40966
 20
10.76892
 11
-18.91403
 21
8.178413
  0
LINE
  8
型材断面
  6
CONTINUOUS
 10
-18.91403
 20
8.178413
 11
-21.90529
 21
8.178413
  0
LINE
  8
型材断面
  6
CONTINUOUS
 10
73.887138
 20
53.032382
 11
76.477648
 21
52.43633
  0
LINE
  8
型材断面
  6
CONTINUOUS
 10
73.887138
 20
53.032382
 11
76.477645
 21
53.628442
  0
LINE
  8
型材断面
  6
CONTINUOUS
 10
76.477645
 20
53.628442
 11
76.477648
 21
52.43633
  0
LINE
  8
型材断面
  6
CONTINUOUS
 10
73.887138
 20
17.099048
 11
76.477648
 21
17.6951
  0
LINE
  8
型材断面
  6
CONTINUOUS
 10
73.887138
 20
17.099048
 11
76.477645
 21
16.502988
  0
LINE
  8
型材断面
  6
CONTINUOUS
 10
76.477645
 20
16.502988
 11
76.477648
 21
17.6951
  0
LINE
  8
型材断面
  6
CONTINUOUS
 10
-114.706458
 20
53.032382
 11
-117.296968
 21
52.43633
  0
LINE
  8
型材断面
  6
CONTINUOUS
 10
-114.706458
 20
53.032382
 11
-117.296965
 21
53.628442
  0
LINE
  8
型材断面
  6
CONTINUOUS
 10
-117.296965
 20
53.628442
 11
-117.296968
 21
52.43633
  0
LINE
  8
型材断面
  6
CONTINUOUS
 10
-114.706458
 20
17.099048
 11
-117.296968
 21
17.6951
  0
LINE
  8
型材断面
  6
CONTINUOUS
 10
-114.706458
 20
17.099048
 11
-117.296965
 21
16.502988
  0
LINE
  8
型材断面
  6
CONTINUOUS
 10
-117.296965
 20
16.502988
 11
-117.296968
 21
17.6951
  0
LINE
  8
型材断面
  6
CONTINUOUS
 10
-114.05951
 20
11.41587
 11
-20.40966
 21
11.41587
  0
LINE
  8
型材断面
  6
CONTINUOUS
 10
-114.05951
 20
58.71556
 11
-20.40966
 21
58.71556
  0
LINE
  8
型材断面
  6
CONTINUOUS
 10
73.24019
 20
58.71556
 11
-20.40966
 21
58.71556
  0
LINE
  8
型材断面
  6
CONTINUOUS
 10
73.24019
 20
11.41587
 11
-20.40966
 21
11.41587
  0
LINE
  8
型材断面
  6
CONTINUOUS
 10
-158.95112
 20
77.264387
 11
-112.709343
 21
77.264387
  0
ARC
  8
型材断面
  6
CONTINUOUS
 62
    47
 10
162.515948
 20
11.415711
 40
0.016668
 50
179.999123
 51
270.0
  0
ARC
  8
型材断面
  6
CONTINUOUS
 62
    47
 10
162.55595
 20
11.409045
 40
0.010002
 50
270.0
 51
359.791626
  0
LINE
  8
型材断面
  6
CONTINUOUS
 62
    47
 10
162.73267
 20
11.449048
 11
162.73267
 21
12.299195
  0
LINE
  8
型材断面
  6
CONTINUOUS
 62
    47
 10
162.49928
 20
11.41571
 11
160.39262
 21
11.41571
  0
LINE
  8
型材断面
  6
CONTINUOUS
 62
    47
 10
162.73267
 20
11.415715
 11
166.049335
 21
11.415715
  0
LINE
  8
型材断面
  6
CONTINUOUS
 62
    47
 10
166.549335
 20
11.915715
 11
166.049335
 21
11.915715
  0
LINE
  8
型材断面
  6
CONTINUOUS
 62
    47
 10
160.39262
 20
12.29905
 11
160.065952
 21
12.29905
  0
LINE
  8
型材断面
  6
CONTINUOUS
 62
    47
 10
162.515948
 20
11.399048
 11
162.555608
 21
11.399048
  0
ARC
  8
型材断面
  6
CONTINUOUS
 62
    47
 10
162.515948
 20
58.715717
 40
0.016668
 50
90.0
 51
180.000877
  0
ARC
  8
型材断面
  6
CONTINUOUS
 62
    47
 10
162.55595
 20
58.722383
 40
0.010002
 50
0.208374
 51
90.0
  0
LINE
  8
型材断面
  6
CONTINUOUS
 62
    47
 10
162.73267
 20
58.682378
 11
162.73267
 21
57.832232
  0
LINE
  8
型材断面
  6
CONTINUOUS
 62
    47
 10
162.49928
 20
58.715718
 11
160.39262
 21
58.715718
  0
LINE
  8
型材断面
  6
CONTINUOUS
 62
    47
 10
162.73267
 20
58.715712
 11
166.049335
 21
58.715712
  0
LINE
  8
型材断面
  6
CONTINUOUS
 62
    47
 10
166.549335
 20
58.215712
 11
166.049335
 21
58.215712
  0
LINE
  8
型材断面
  6
CONTINUOUS
 62
    47
 10
160.39262
 20
57.832378
 11
160.065952
 21
57.832378
  0
LINE
  8
型材断面
  6
CONTINUOUS
 62
    47
 10
162.515948
 20
58.732378
 11
162.555608
 21
58.732378
  0
LINE
  8
型材断面
  6
CONTINUOUS
 10
160.39262
 20
11.41571
 11
160.39262
 21
35.065712
  0
LINE
  8
型材断面
  6
CONTINUOUS
 10
160.065952
 20
11.999048
 11
160.065952
 21
35.065712
  0
LINE
  8
型材断面
  6
CONTINUOUS
 10
158.399285
 20
11.999048
 11
158.399285
 21
35.065712
  0
LINE
  8
型材断面
  6
CONTINUOUS
 10
158.565952
 20
11.842527
 11
158.565952
 21
35.065712
  0
LINE
  8
型材断面
  6
CONTINUOUS
 10
162.73267
 20
11.415715
 11
162.73267
 21
35.065712
  0
LINE
  8
型材断面
  6
CONTINUOUS
 10
162.565952
 20
11.409045
 11
162.565952
 21
35.065712
  0
LINE
  8
型材断面
  6
CONTINUOUS
 10
166.049335
 20
11.415715
 11
166.049335
 21
35.065712
  0
LINE
  8
型材断面
  6
CONTINUOUS
 10
166.549335
 20
11.915715
 11
166.549335
 21
35.065712
  0
LINE
  8
型材断面
  6
CONTINUOUS
 10
166.549335
 20
58.215712
 11
166.549335
 21
35.065712
  0
LINE
  8
型材断面
  6
CONTINUOUS
 10
166.049335
 20
58.715712
 11
166.049335
 21
35.065712
  0
LINE
  8
型材断面
  6
CONTINUOUS
 10
162.565952
 20
58.722382
 11
162.565952
 21
35.065712
  0
LINE
  8
型材断面
  6
CONTINUOUS
 10
162.73267
 20
58.715712
 11
162.73267
 21
35.065712
  0
LINE
  8
型材断面
  6
CONTINUOUS
 10
160.39262
 20
58.715718
 11
160.39262
 21
35.065712
  0
LINE
  8
型材断面
  6
CONTINUOUS
 10
160.065952
 20
58.132378
 11
160.065952
 21
35.065712
  0
LINE
  8
型材断面
  6
CONTINUOUS
 10
158.399285
 20
58.132378
 11
158.399285
 21
35.065712
  0
LINE
  8
型材断面
  6
CONTINUOUS
 10
158.565952
 20
58.2889
 11
158.565952
 21
35.065712
  0
ARC
  8
型材断面
  6
CONTINUOUS
 62
    47
 10
-114.059663
 20
-81.418413
 40
0.016668
 50
89.999123
 51
180.0
  0
ARC
  8
型材断面
  6
CONTINUOUS
 62
    47
 10
-114.066329
 20
-81.458415
 40
0.010002
 50
180.0
 51
269.791626
  0
LINE
  8
型材断面
  6
CONTINUOUS
 62
    47
 10
-114.026325
 20
-81.635135
 11
-113.176177
 21
-81.635135
  0
LINE
  8
型材断面
  6
CONTINUOUS
 62
    47
 10
-114.059663
 20
-81.401745
 11
-114.059663
 21
-79.295085
  0
LINE
  8
型材断面
  6
CONTINUOUS
 62
    47
 10
-114.059657
 20
-81.635135
 11
-114.059657
 21
-84.9518
  0
LINE
  8
型材断面
  6
CONTINUOUS
 62
    47
 10
-113.559657
 20
-85.4518
 11
-113.559657
 21
-84.9518
  0
LINE
  8
型材断面
  6
CONTINUOUS
 62
    47
 10
-113.176322
 20
-79.295085
 11
-113.176322
 21
-78.968418
  0
LINE
  8
型材断面
  6
CONTINUOUS
 62
    47
 10
-114.076325
 20
-81.418412
 11
-114.076325
 21
-81.458072
  0
ARC
  8
型材断面
  6
CONTINUOUS
 62
    47
 10
73.240343
 20
-81.418413
 40
0.016668
 50
0.0
 51
90.000877
  0
ARC
  8
型材断面
  6
CONTINUOUS
 62
    47
 10
73.247009
 20
-81.458415
 40
0.010002
 50
270.208374
 51
360.0
  0
LINE
  8
型材断面
  6
CONTINUOUS
 62
    47
 10
73.207005
 20
-81.635135
 11
72.35686
 21
-81.635135
  0
LINE
  8
型材断面
  6
CONTINUOUS
 62
    47
 10
73.240345
 20
-81.401745
 11
73.240345
 21
-79.295085
  0
LINE
  8
型材断面
  6
CONTINUOUS
 62
    47
 10
73.24034
 20
-81.635135
 11
73.24034
 21
-84.9518
  0
LINE
  8
型材断面
  6
CONTINUOUS
 62
    47
 10
72.74034
 20
-85.4518
 11
72.74034
 21
-84.9518
  0
LINE
  8
型材断面
  6
CONTINUOUS
 62
    47
 10
72.357005
 20
-79.295085
 11
72.357005
 21
-78.968418
  0
LINE
  8
型材断面
  6
CONTINUOUS
 62
    47
 10
73.257005
 20
-81.418412
 11
73.257005
 21
-81.458072
  0
LINE
  8
型材断面
  6
CONTINUOUS
 10
-113.632845
 20
-77.468418
 11
-20.40966
 21
-77.468418
  0
LINE
  8
型材断面
  6
CONTINUOUS
 10
-113.476325
 20
-77.30175
 11
-20.40966
 21
-77.30175
  0
LINE
  8
型材断面
  6
CONTINUOUS
 10
-113.476325
 20
-78.968418
 11
-20.40966
 21
-78.968418
  0
LINE
  8
型材断面
  6
CONTINUOUS
 10
-114.059663
 20
-79.295085
 11
-20.40966
 21
-79.295085
  0
LINE
  8
型材断面
  6
CONTINUOUS
 10
-114.066327
 20
-81.468418
 11
-20.40966
 21
-81.468418
  0
LINE
  8
型材断面
  6
CONTINUOUS
 10
-114.059657
 20
-81.635135
 11
-20.40966
 21
-81.635135
  0
LINE
  8
型材断面
  6
CONTINUOUS
 10
-114.059657
 20
-84.9518
 11
-20.40966
 21
-84.9518
  0
LINE
  8
型材断面
  6
CONTINUOUS
 10
-113.559657
 20
-85.4518
 11
-20.40966
 21
-85.4518
  0
LINE
  8
型材断面
  6
CONTINUOUS
 10
72.74034
 20
-85.4518
 11
-20.40966
 21
-85.4518
  0
LINE
  8
型材断面
  6
CONTINUOUS
 10
73.24034
 20
-84.9518
 11
-20.40966
 21
-84.9518
  0
LINE
  8
型材断面
  6
CONTINUOUS
 10
73.24034
 20
-81.635135
 11
-20.40966
 21
-81.635135
  0
LINE
  8
型材断面
  6
CONTINUOUS
 10
73.24701
 20
-81.468418
 11
-20.40966
 21
-81.468418
  0
LINE
  8
型材断面
  6
CONTINUOUS
 10
72.657005
 20
-77.30175
 11
-20.40966
 21
-77.30175
  0
LINE
  8
型材断面
  6
CONTINUOUS
 10
72.813528
 20
-77.468418
 11
-20.40966
 21
-77.468418
  0
LINE
  8
型材断面
  6
CONTINUOUS
 10
72.657005
 20
-78.968418
 11
-20.40966
 21
-78.968418
  0
LINE
  8
型材断面
  6
CONTINUOUS
 10
73.240345
 20
-79.295085
 11
-20.40966
 21
-79.295085
  0
ARC
  8
型材断面
  6
DOT
 62
    47
 10
-114.059663
 20
-64.751746
 40
0.016668
 50
89.999123
 51
180.0
  0
ARC
  8
型材断面
  6
DOT
 62
    47
 10
-114.066329
 20
-64.791748
 40
0.010002
 50
180.0
 51
269.791626
  0
LINE
  8
型材断面
  6
DOT
 62
    47
 10
-114.059663
 20
-64.735077
 11
-114.059663
 21
-62.628417
  0
LINE
  8
型材断面
  6
DOT
 62
    47
 10
-113.176322
 20
-62.628417
 11
-113.176322
 21
-62.30175
  0
LINE
  8
型材断面
  6
DOT
 62
    47
 10
-114.076325
 20
-64.751745
 11
-114.076325
 21
-64.791405
  0
ARC
  8
型材断面
  6
DOT
 62
    47
 10
73.240343
 20
-64.751746
 40
0.016668
 50
0.0
 51
90.000877
  0
ARC
  8
型材断面
  6
DOT
 62
    47
 10
73.247009
 20
-64.791748
 40
0.010002
 50
270.208374
 51
360.0
  0
LINE
  8
型材断面
  6
DOT
 62
    47
 10
73.240345
 20
-64.735077
 11
73.240345
 21
-62.628417
  0
LINE
  8
型材断面
  6
DOT
 62
    47
 10
72.357005
 20
-62.628417
 11
72.357005
 21
-62.30175
  0
LINE
  8
型材断面
  6
DOT
 62
    47
 10
73.257005
 20
-64.751745
 11
73.257005
 21
-64.791405
  0
LINE
  8
型材断面
  6
DOT
 10
-113.476325
 20
-60.635083
 11
-20.40966
 21
-60.635083
  0
LINE
  8
型材断面
  6
DOT
 10
-113.632845
 20
-60.80175
 11
-20.40966
 21
-60.80175
  0
LINE
  8
型材断面
  6
DOT
 10
-114.059663
 20
-62.628417
 11
-20.40966
 21
-62.628417
  0
LINE
  8
型材断面
  6
DOT
 10
-113.476325
 20
-62.30175
 11
-20.40966
 21
-62.30175
  0
LINE
  8
型材断面
  6
DOT
 10
-114.066327
 20
-64.80175
 11
-20.40966
 21
-64.80175
  0
LINE
  8
型材断面
  6
DOT
 10
73.24701
 20
-64.80175
 11
-20.40966
 21
-64.80175
  0
LINE
  8
型材断面
  6
DOT
 10
72.657005
 20
-62.30175
 11
-20.40966
 21
-62.30175
  0
LINE
  8
型材断面
  6
DOT
 10
72.813528
 20
-60.80175
 11
-20.40966
 21
-60.80175
  0
LINE
  8
型材断面
  6
DOT
 10
72.657005
 20
-60.635083
 11
-20.40966
 21
-60.635083
  0
LINE
  8
型材断面
  6
DOT
 10
73.240345
 20
-62.628417
 11
-20.40966
 21
-62.628417
  0
INSERT
  2
*GRP_0021
  8
型材断面
  6
CONTINUOUS
 10
0.0
 20
0.0
  0
INSERT
  2
*GRP_0022
  8
型材断面
  6
CONTINUOUS
 10
0.0
 20
0.0
  0
INSERT
  2
*GRP_0023
  8
型材断面
  6
CONTINUOUS
 10
0.0
 20
0.0
  0
INSERT
  2
*GRP_0024
  8
型材断面
  6
CONTINUOUS
 10
0.0
 20
0.0
  0
INSERT
  2
*GRP_0025
  8
型材断面
  6
CONTINUOUS
 10
0.0
 20
0.0
  0
INSERT
  2
*GRP_0026
  8
型材断面
  6
CONTINUOUS
 10
0.0
 20
0.0
  0
LINE
  8
型材断面
  6
DASHDOT
 10
-75.559657
 20
13.399048
 11
-75.559657
 21
56.73238
  0
LINE
  8
型材断面
  6
DASHDOT
 10
-38.79299
 20
13.399048
 11
-38.79299
 21
56.73238
  0
LINE
  8
型材断面
  6
DASHDOT
 10
34.740337
 20
13.399048
 11
34.740337
 21
56.73238
  0
LINE
  8
型材断面
  6
DASHDOT
 10
-2.02633
 20
13.399048
 11
-2.02633
 21
56.73238
  0
LINE
  8
型材断面
  6
CONTINUOUS
 10
52.582005
 20
11.84253
 11
52.582005
 21
14.34253
  0
LINE
  8
型材断面
  6
CONTINUOUS
 10
53.41534
 20
11.84253
 11
53.41534
 21
14.34253
  0
LINE
  8
型材断面
  6
CONTINUOUS
 10
16.773673
 20
11.84253
 11
16.773673
 21
14.34253
  0
LINE
  8
型材断面
  6
CONTINUOUS
 10
15.940337
 20
11.84253
 11
15.940337
 21
14.34253
  0
LINE
  8
型材断面
  6
CONTINUOUS
 10
-19.992995
 20
11.84253
 11
-19.992995
 21
14.34253
  0
LINE
  8
型材断面
  6
CONTINUOUS
 10
-20.82633
 20
11.84253
 11
-20.82633
 21
14.34253
  0
LINE
  8
型材断面
  6
CONTINUOUS
 10
-93.401325
 20
11.84253
 11
-93.401325
 21
14.34253
  0
LINE
  8
型材断面
  6
CONTINUOUS
 10
-94.23466
 20
11.84253
 11
-94.23466
 21
14.34253
  0
LINE
  8
型材断面
  6
CONTINUOUS
 10
-57.592993
 20
11.84253
 11
-57.592993
 21
14.34253
  0
LINE
  8
型材断面
  6
CONTINUOUS
 10
-56.759657
 20
11.84253
 11
-56.759657
 21
14.34253
  0
LINE
  8
型材断面
  6
CONTINUOUS
 10
52.582005
 20
58.2889
 11
52.582005
 21
55.7889
  0
LINE
  8
型材断面
  6
CONTINUOUS
 10
53.41534
 20
58.2889
 11
53.41534
 21
55.7889
  0
LINE
  8
型材断面
  6
CONTINUOUS
 10
16.773673
 20
58.2889
 11
16.773673
 21
55.7889
  0
LINE
  8
型材断面
  6
CONTINUOUS
 10
15.940337
 20
58.2889
 11
15.940337
 21
55.7889
  0
LINE
  8
型材断面
  6
CONTINUOUS
 10
-19.992995
 20
58.2889
 11
-19.992995
 21
55.7889
  0
LINE
  8
型材断面
  6
CONTINUOUS
 10
-20.82633
 20
58.2889
 11
-20.82633
 21
55.7889
  0
LINE
  8
型材断面
  6
CONTINUOUS
 10
-93.401325
 20
58.2889
 11
-93.401325
 21
55.7889
  0
LINE
  8
型材断面
  6
CONTINUOUS
 10
-94.23466
 20
58.2889
 11
-94.23466
 21
55.7889
  0
LINE
  8
型材断面
  6
CONTINUOUS
 10
-57.592993
 20
58.2889
 11
-57.592993
 21
55.7889
  0
LINE
  8
型材断面
  6
CONTINUOUS
 10
-56.759657
 20
58.2889
 11
-56.759657
 21
55.7889
  0
LINE
  8
型材断面
  6
CONTINUOUS
 10
-93.401325
 20
55.7889
 11
-57.592993
 21
55.7889
  0
LINE
  8
型材断面
  6
CONTINUOUS
 10
-93.401325
 20
14.34253
 11
-57.592993
 21
14.34253
  0
LINE
  8
型材断面
  6
CONTINUOUS
 10
-56.759657
 20
14.34253
 11
-20.82633
 21
14.34253
  0
LINE
  8
型材断面
  6
CONTINUOUS
 10
-56.759657
 20
55.7889
 11
-20.82633
 21
55.7889
  0
LINE
  8
型材断面
  6
CONTINUOUS
 10
-19.992995
 20
55.7889
 11
15.940337
 21
55.7889
  0
LINE
  8
型材断面
  6
CONTINUOUS
 10
-19.992995
 20
14.34253
 11
15.940337
 21
14.34253
  0
LINE
  8
型材断面
  6
CONTINUOUS
 10
16.773673
 20
14.34253
 11
52.582005
 21
14.34253
  0
LINE
  8
型材断面
  6
CONTINUOUS
 10
16.773673
 20
55.7889
 11
52.582005
 21
55.7889
  0
LINE
  8
型材断面
  6
CONTINUOUS
 10
73.240193
 20
11.41587
 11
73.240193
 21
35.065715
  0
LINE
  8
型材断面
  6
CONTINUOUS
 10
73.240193
 20
58.71556
 11
73.240193
 21
35.065715
  0
LINE
  8
型材断面
  6
CONTINUOUS
 10
72.813528
 20
35.48238
 11
70.313528
 21
35.48238
  0
LINE
  8
型材断面
  6
CONTINUOUS
 10
72.813528
 20
34.649048
 11
70.313528
 21
34.649048
  0
LINE
  8
型材断面
  6
CONTINUOUS
 10
72.57783
 20
11.842527
 11
72.813528
 21
12.078235
  0
LINE
  8
型材断面
  6
CONTINUOUS
 10
70.313528
 20
34.649048
 11
70.313528
 21
14.57823
  0
LINE
  8
型材断面
  6
CONTINUOUS
 10
70.313528
 20
14.57823
 11
70.077825
 21
14.342527
  0
LINE
  8
型材断面
  6
CONTINUOUS
 10
70.077825
 20
14.342527
 11
72.57783
 21
11.842527
  0
LINE
  8
型材断面
  6
CONTINUOUS
 10
70.313528
 20
14.57823
 11
72.813528
 21
12.078235
  0
LINE
  8
型材断面
  6
CONTINUOUS
 10
73.240193
 20
11.41587
 11
72.69568
 21
11.960383
  0
LINE
  8
型材断面
  6
CONTINUOUS
 10
72.57783
 20
58.288903
 11
72.813528
 21
58.053195
  0
LINE
  8
型材断面
  6
CONTINUOUS
 10
70.313528
 20
55.5532
 11
70.077825
 21
55.788903
  0
LINE
  8
型材断面
  6
CONTINUOUS
 10
73.240193
 20
58.71556
 11
72.69568
 21
58.171047
  0
LINE
  8
型材断面
  6
CONTINUOUS
 10
70.313528
 20
35.48238
 11
70.313528
 21
55.5532
  0
LINE
  8
型材断面
  6
CONTINUOUS
 10
70.313528
 20
55.5532
 11
72.813528
 21
58.053195
  0
LINE
  8
型材断面
  6
CONTINUOUS
 10
72.813528
 20
12.078235
 11
72.813528
 21
58.053195
  0
LINE
  8
型材断面
  6
CONTINUOUS
 10
70.077825
 20
55.788903
 11
72.57783
 21
58.288903
  0
LINE
  8
型材断面
  6
CONTINUOUS
 10
-114.059512
 20
11.41587
 11
-114.059512
 21
35.065715
  0
LINE
  8
型材断面
  6
CONTINUOUS
 10
-114.059512
 20
58.71556
 11
-114.059512
 21
35.065715
  0
LINE
  8
型材断面
  6
CONTINUOUS
 10
-113.632848
 20
35.48238
 11
-111.132848
 21
35.48238
  0
LINE
  8
型材断面
  6
CONTINUOUS
 10
-113.632848
 20
34.649048
 11
-111.132848
 21
34.649048
  0
LINE
  8
型材断面
  6
CONTINUOUS
 10
-113.39715
 20
11.842527
 11
-113.632848
 21
12.078235
  0
LINE
  8
型材断面
  6
CONTINUOUS
 10
-111.132848
 20
34.649048
 11
-111.132848
 21
14.57823
  0
LINE
  8
型材断面
  6
CONTINUOUS
 10
-111.132848
 20
14.57823
 11
-110.897145
 21
14.342527
  0
LINE
  8
型材断面
  6
CONTINUOUS
 10
-110.897145
 20
14.342527
 11
-113.39715
 21
11.842527
  0
LINE
  8
型材断面
  6
CONTINUOUS
 10
-111.132848
 20
14.57823
 11
-113.632848
 21
12.078235
  0
LINE
  8
型材断面
  6
CONTINUOUS
 10
-114.059512
 20
11.41587
 11
-113.515
 21
11.960383
  0
LINE
  8
型材断面
  6
CONTINUOUS
 10
-113.39715
 20
58.288903
 11
-113.632848
 21
58.053195
  0
LINE
  8
型材断面
  6
CONTINUOUS
 10
-111.132848
 20
55.5532
 11
-110.897145
 21
55.788903
  0
LINE
  8
型材断面
  6
CONTINUOUS
 10
-114.059512
 20
58.71556
 11
-113.515
 21
58.171047
  0
LINE
  8
型材断面
  6
CONTINUOUS
 10
-111.132848
 20
35.48238
 11
-111.132848
 21
55.5532
  0
LINE
  8
型材断面
  6
CONTINUOUS
 10
-111.132848
 20
55.5532
 11
-113.632848
 21
58.053195
  0
LINE
  8
型材断面
  6
CONTINUOUS
 10
-113.632848
 20
12.078235
 11
-113.632848
 21
58.053195
  0
LINE
  8
型材断面
  6
CONTINUOUS
 10
-110.897145
 20
55.788903
 11
-113.39715
 21
58.288903
  0
LINE
  8
型材断面
  6
CONTINUOUS
 10
-94.23466
 20
55.7889
 11
-110.897142
 21
55.7889
  0
LINE
  8
型材断面
  6
CONTINUOUS
 10
-94.23466
 20
14.34253
 11
-110.897142
 21
14.34253
  0
LINE
  8
型材断面
  6
CONTINUOUS
 10
-113.397148
 20
11.84253
 11
72.577828
 21
11.84253
  0
LINE
  8
型材断面
  6
CONTINUOUS
 10
53.41534
 20
14.34253
 11
70.077822
 21
14.34253
  0
LINE
  8
型材断面
  6
CONTINUOUS
 10
53.41534
 20
55.7889
 11
70.077822
 21
55.7889
  0
LINE
  8
型材断面
  6
CONTINUOUS
 10
-113.397148
 20
58.2889
 11
72.577828
 21
58.2889
  0
LINE
  8
型材断面
  6
CONTINUOUS
 10
35.990337
 20
54.955567
 11
33.490337
 21
54.955567
  0
LINE
  8
型材断面
  6
CONTINUOUS
 10
35.990337
 20
15.175863
 11
33.490337
 21
15.175863
  0
LINE
  8
型材断面
  6
CONTINUOUS
 10
35.990337
 20
54.955567
 11
35.990337
 21
15.175863
  0
LINE
  8
型材断面
  6
CONTINUOUS
 10
33.490337
 20
54.955567
 11
33.490337
 21
15.175863
  0
LINE
  8
型材断面
  6
CONTINUOUS
 10
-0.77633
 20
54.955567
 11
-3.27633
 21
54.955567
  0
LINE
  8
型材断面
  6
CONTINUOUS
 10
-0.77633
 20
15.175863
 11
-3.27633
 21
15.175863
  0
LINE
  8
型材断面
  6
CONTINUOUS
 10
-0.77633
 20
54.955567
 11
-0.77633
 21
15.175863
  0
LINE
  8
型材断面
  6
CONTINUOUS
 10
-3.27633
 20
54.955567
 11
-3.27633
 21
15.175863
  0
LINE
  8
型材断面
  6
CONTINUOUS
 10
-76.809657
 20
54.955567
 11
-74.309657
 21
54.955567
  0
LINE
  8
型材断面
  6
CONTINUOUS
 10
-76.809657
 20
15.175863
 11
-74.309657
 21
15.175863
  0
LINE
  8
型材断面
  6
CONTINUOUS
 10
-76.809657
 20
54.955567
 11
-76.809657
 21
15.175863
  0
LINE
  8
型材断面
  6
CONTINUOUS
 10
-74.309657
 20
54.955567
 11
-74.309657
 21
15.175863
  0
LINE
  8
型材断面
  6
CONTINUOUS
 10
-40.04299
 20
54.955567
 11
-37.54299
 21
54.955567
  0
LINE
  8
型材断面
  6
CONTINUOUS
 10
-40.04299
 20
15.175863
 11
-37.54299
 21
15.175863
  0
LINE
  8
型材断面
  6
CONTINUOUS
 10
-40.04299
 20
54.955567
 11
-40.04299
 21
15.175863
  0
LINE
  8
型材断面
  6
CONTINUOUS
 10
-37.54299
 20
54.955567
 11
-37.54299
 21
15.175863
  0
TEXT
  7
TextStyle03
  8
文字
  6
CONTINUOUS
 10
147.775
 20
-86.1
  1
網入り6.8t
 40
3.0
 72
     5
 11
164.4625
 21
-86.1
  0
TEXT
  7
TextStyle03
  8
文字
  6
CONTINUOUS
 10
-28.625
 20
67.2
  1
可動装置側
 40
3.0
 72
     5
 11
-12.125
 21
67.2
  0
TEXT
  7
TextStyle03
  8
文字
  6
CONTINUOUS
 10
-28.625
 20
-0.075
  1
可動装置側
 40
3.0
 72
     5
 11
-12.125
 21
-0.075
  0
TEXT
  7
TextStyle03
  8
文字
  6
CONTINUOUS
 10
154.45
 20
-90.775
  1
×５枚
 40
3.0
 72
     5
 11
164.2
 21
-90.775
  0
TEXT
  7
TextStyle03
  8
文字
  6
CONTINUOUS
 10
-150.125
 20
93.325
  1
はケーシング位置を示す
 40
3.0
 72
     5
 11
-113.375
 21
93.325
  0
TEXT
  7
TextStyle03
  8
文字
  6
CONTINUOUS
 10
-150.125
 20
89.95
  1
４ヶ所中1ヶ所に設定
 40
3.0
 72
     5
 11
-118.4375
 21
89.95
  0
TEXT
  7
TextStyle03
  8
文字
  6
CONTINUOUS
 10
-150.125
 20
98.85
  1
は排水穴位置を示す
 40
3.0
 72
     5
 11
-120.125
 21
98.85
  0
TEXT
  7
TextStyle03
  8
文字
  6
CONTINUOUS
 10
-149.625
 20
23.975
  1
アンカーピッチ
 40
3.0
 50
90.0
 72
     5
 11
-149.625
 21
47.225
  0
TEXT
  7
TextStyle03
  8
文字
  6
CONTINUOUS
 10
-98.025
 20
93.125
  1
アンカーピッチ
 40
3.0
 72
     5
 11
-74.775
 21
93.125
  0
TEXT
  7
TextStyle03
  8
文字
  6
CONTINUOUS
 10
-153.85
 20
83.975
  1
アンカー数量　１８ヶ所
 40
3.0
 72
     5
 11
-117.1
 21
83.975
  0
TEXT
  7
TextStyle03
  8
文字
  6
CONTINUOUS
 10
-158.85
 20
73.25
  1
※重量に依るのでご相談ください
 40
3.0
 72
     5
 11
-108.6
 21
73.25
  0
TEXT
  7
TextStyle03
  8
文字
  6
CONTINUOUS
 10
-158.85
 20
78.2
  1
アームユニット数　※６～８ヶ所
 40
3.0
 72
     5
 11
-108.6
 21
78.2
  0
LINE
  8
文字
  6
CONTINUOUS
 10
158.399285
 20
70.502383
 11
158.399285
 21
59.952418
  0
LINE
  8
文字
  6
CONTINUOUS
 10
166.049335
 20
70.502383
 11
166.049335
 21
60.0175
  0
LINE
  8
文字
  6
CONTINUOUS
 10
84.492252
 20
-77.30175
 11
73.94229
 21
-77.30175
  0
LINE
  8
文字
  6
CONTINUOUS
 10
84.492252
 20
-84.9518
 11
74.00737
 21
-84.9518
  0
LINE
  8
文字
  6
CONTINUOUS
 10
84.492252
 20
-60.635083
 11
73.94229
 21
-60.635083
  0
LINE
  8
文字
  6
CONTINUOUS
 10
166.343563
 20
-41.056908
 11
166.343563
 21
-47.884648
  0
LINE
  8
文字
  6
CONTINUOUS
 10
130.743563
 20
-41.056908
 11
130.743563
 21
-47.884648
  0
TEXT
  7
TextStyle03
  8
文字
  6
CONTINUOUS
 10
60.3
 20
125.25
  1
シリーズ：ＴＦ２ＦＬ
 40
5.0
 72
     5
 11
115.925
 21
125.25
  0
TEXT
  7
TextStyle03
  8
文字
  6
CONTINUOUS
 10
60.3
 20
119.625
  1
　　　　　（上下可動）1300×5500タイプ
 40
5.0
 72
     5
 11
166.55
 21
119.625
  0
TEXT
  7
TextStyle03
  8
文字
  6
CONTINUOUS
 10
60.3
 20
114.0
  1
図面名　：外観姿図
 40
5.0
 72
     5
 11
110.3
 21
114.0
  0
TEXT
  7
TextStyle03
  8
文字
  6
CONTINUOUS
 10
60.3
 20
108.375
  1
　　　　　　
 40
5.0
 72
     5
 11
93.425
 21
108.375
  0
TEXT
  7
TextStyle03
  8
文字
  6
CONTINUOUS
 10
60.45
 20
104.525
  1
ＮＳコード：ＮＳＦＺＬ
 40
5.0
 72
     5
 11
121.7
 21
104.525
  0
INSERT
  2
*DIM_0002
  8
寸法
  6
CONTINUOUS
 10
0.0
 20
0.0
  0
INSERT
  2
*DIM_0003
  8
寸法
  6
CONTINUOUS
 10
0.0
 20
0.0
  0
INSERT
  2
*DIM_0004
  8
寸法
  6
CONTINUOUS
 10
0.0
 20
0.0
  0
INSERT
  2
*DIM_0005
  8
寸法
  6
CONTINUOUS
 10
0.0
 20
0.0
  0
INSERT
  2
*DIM_0006
  8
寸法
  6
CONTINUOUS
 10
0.0
 20
0.0
  0
INSERT
  2
*DIM_0007
  8
寸法
  6
CONTINUOUS
 10
0.0
 20
0.0
  0
INSERT
  2
*DIM_0008
  8
寸法
  6
CONTINUOUS
 10
0.0
 20
0.0
  0
INSERT
  2
*DIM_0009
  8
寸法
  6
CONTINUOUS
 10
0.0
 20
0.0
  0
INSERT
  2
*DIM_0010
  8
寸法
  6
CONTINUOUS
 10
0.0
 20
0.0
  0
INSERT
  2
*DIM_0011
  8
寸法
  6
CONTINUOUS
 10
0.0
 20
0.0
  0
INSERT
  2
*DIM_0012
  8
寸法
  6
CONTINUOUS
 10
0.0
 20
0.0
  0
INSERT
  2
*DIM_0013
  8
寸法
  6
CONTINUOUS
 10
0.0
 20
0.0
  0
INSERT
  2
*DIM_0014
  8
寸法
  6
CONTINUOUS
 10
0.0
 20
0.0
  0
INSERT
  2
*DIM_0015
  8
寸法
  6
CONTINUOUS
 10
0.0
 20
0.0
  0
INSERT
  2
*DIM_0016
  8
寸法
  6
CONTINUOUS
 10
0.0
 20
0.0
  0
INSERT
  2
*DIM_0017
  8
寸法
  6
CONTINUOUS
 10
0.0
 20
0.0
  0
INSERT
  2
*DIM_0018
  8
寸法
  6
CONTINUOUS
 10
0.0
 20
0.0
  0
INSERT
  2
*DIM_0019
  8
寸法
  6
CONTINUOUS
 10
0.0
 20
0.0
  0
INSERT
  2
*DIM_0020
  8
寸法
  6
CONTINUOUS
 10
0.0
 20
0.0
  0
INSERT
  2
*DIM_0027
  8
寸法
  6
CONTINUOUS
 10
0.0
 20
0.0
  0
INSERT
  2
*DIM_0028
  8
寸法
  6
CONTINUOUS
 10
0.0
 20
0.0
  0
INSERT
  2
*DIM_0029
  8
寸法
  6
CONTINUOUS
 10
0.0
 20
0.0
  0
LINE
  8
別途部材
  6
CONTINUOUS
 62
    47
 10
158.499285
 20
11.842527
 11
158.565952
 21
11.842527
  0
ARC
  8
別途部材
  6
CONTINUOUS
 62
    47
 10
158.499286
 20
11.942526
 40
0.1
 50
180.0
 51
270.0
  0
LINE
  8
別途部材
  6
CONTINUOUS
 62
    47
 10
158.399285
 20
11.942527
 11
158.399285
 21
14.309193
  0
LINE
  8
別途部材
  6
CONTINUOUS
 62
    47
 10
160.065952
 20
11.999048
 11
158.565952
 21
11.999048
  0
LINE
  8
別途部材
  6
CONTINUOUS
 62
    47
 10
158.499285
 20
58.2889
 11
158.565952
 21
58.2889
  0
ARC
  8
別途部材
  6
CONTINUOUS
 62
    47
 10
158.499286
 20
58.188901
 40
0.1
 50
90.0
 51
180.0
  0
LINE
  8
別途部材
  6
CONTINUOUS
 62
    47
 10
158.399285
 20
58.1889
 11
158.399285
 21
55.822233
  0
LINE
  8
別途部材
  6
CONTINUOUS
 62
    47
 10
160.065952
 20
58.132378
 11
158.565952
 21
58.132378
  0
LINE
  8
別途部材
  6
CONTINUOUS
 62
    47
 10
-113.632845
 20
-77.40175
 11
-113.632845
 21
-77.468418
  0
ARC
  8
別途部材
  6
CONTINUOUS
 62
    47
 10
-113.532847
 20
-77.401751
 40
0.1
 50
90.0
 51
180.0
  0
LINE
  8
別途部材
  6
CONTINUOUS
 62
    47
 10
-113.532845
 20
-77.30175
 11
-111.16618
 21
-77.30175
  0
LINE
  8
別途部材
  6
CONTINUOUS
 62
    47
 10
-113.476325
 20
-78.968418
 11
-113.476325
 21
-77.468418
  0
LINE
  8
別途部材
  6
CONTINUOUS
 62
    47
 10
72.813528
 20
-77.40175
 11
72.813528
 21
-77.468418
  0
ARC
  8
別途部材
  6
CONTINUOUS
 62
    47
 10
72.713528
 20
-77.401751
 40
0.1
 50
0.0
 51
90.0
  0
LINE
  8
別途部材
  6
CONTINUOUS
 62
    47
 10
72.713528
 20
-77.30175
 11
70.34686
 21
-77.30175
  0
LINE
  8
別途部材
  6
CONTINUOUS
 62
    47
 10
72.657005
 20
-78.968418
 11
72.657005
 21
-77.468418
  0
LINE
  8
別途部材
  6
DOT
 62
    47
 10
-113.632845
 20
-60.735083
 11
-113.632845
 21
-60.80175
  0
ARC
  8
別途部材
  6
DOT
 62
    47
 10
-113.532847
 20
-60.735084
 40
0.1
 50
90.0
 51
180.0
  0
LINE
  8
別途部材
  6
DOT
 62
    47
 10
-113.532845
 20
-60.635083
 11
-111.16618
 21
-60.635083
  0
LINE
  8
別途部材
  6
DOT
 62
    47
 10
-113.476325
 20
-62.30175
 11
-113.476325
 21
-60.80175
  0
LINE
  8
別途部材
  6
DOT
 62
    47
 10
72.813528
 20
-60.735083
 11
72.813528
 21
-60.80175
  0
ARC
  8
別途部材
  6
DOT
 62
    47
 10
72.713528
 20
-60.735084
 40
0.1
 50
0.0
 51
90.0
  0
LINE
  8
別途部材
  6
DOT
 62
    47
 10
72.713528
 20
-60.635083
 11
70.34686
 21
-60.635083
  0
LINE
  8
別途部材
  6
DOT
 62
    47
 10
72.657005
 20
-62.30175
 11
72.657005
 21
-60.80175
  0
LINE
  8
曲げ物
  6
CONTINUOUS
 10
166.343563
 20
-92.533713
 11
166.343563
 21
-49.867045
  0
LINE
  8
曲げ物
  6
CONTINUOUS
 10
55.982738
 20
37.022003
 11
52.287425
 21
33.32669
  0
LINE
  8
曲げ物
  6
CONTINUOUS
 10
55.279268
 20
35.485893
 11
53.823538
 21
34.030163
  0
LINE
  8
曲げ物
  6
CONTINUOUS
 10
54.446628
 20
36.318533
 11
52.990898
 21
34.862803
  0
LINE
  8
曲げ物
  6
CONTINUOUS
 10
19.732727
 20
37.022003
 11
16.037415
 21
33.32669
  0
LINE
  8
曲げ物
  6
CONTINUOUS
 10
19.029257
 20
35.485893
 11
17.573527
 21
34.030163
  0
LINE
  8
曲げ物
  6
CONTINUOUS
 10
18.196617
 20
36.318533
 11
16.740887
 21
34.862803
  0
LINE
  8
曲げ物
  6
CONTINUOUS
 10
-18.715007
 20
37.022003
 11
-22.41032
 21
33.32669
  0
LINE
  8
曲げ物
  6
CONTINUOUS
 10
-19.418477
 20
35.485893
 11
-20.874208
 21
34.030163
  0
LINE
  8
曲げ物
  6
CONTINUOUS
 10
-20.251117
 20
36.318533
 11
-21.706848
 21
34.862803
  0
LINE
  8
曲げ物
  6
CONTINUOUS
 10
-54.98961
 20
37.022003
 11
-58.684922
 21
33.32669
  0
LINE
  8
曲げ物
  6
CONTINUOUS
 10
-55.69308
 20
35.485893
 11
-57.14881
 21
34.030163
  0
LINE
  8
曲げ物
  6
CONTINUOUS
 10
-56.52572
 20
36.318533
 11
-57.98145
 21
34.862803
  0
LINE
  8
曲げ物
  6
CONTINUOUS
 10
-91.262047
 20
37.022003
 11
-94.95736
 21
33.32669
  0
LINE
  8
曲げ物
  6
CONTINUOUS
 10
-91.965517
 20
35.485893
 11
-93.421248
 21
34.030163
  0
LINE
  8
曲げ物
  6
CONTINUOUS
 10
-92.798157
 20
36.318533
 11
-94.253888
 21
34.862803
  0
LINE
  8
曲げ物
  6
CONTINUOUS
 10
166.343563
 20
-92.533713
 11
130.743563
 21
-92.533713
  0
LINE
  8
曲げ物
  6
CONTINUOUS
 10
130.743563
 20
-92.533713
 11
130.743563
 21
-49.867045
  0
LINE
  8
曲げ物
  6
CONTINUOUS
 10
166.343563
 20
-49.867045
 11
130.743563
 21
-49.867045
  0
ENDSEC
  0
EOF
