  0
SECTION
  2
HEADER
  9
$EXTMIN
 10
-210.0
 20
-148.5
  9
$EXTMAX
 10
210.0
 20
148.5
  9
$PDMODE
 70
    32
  9
$PDSIZE
 40
1.5
  9
$LTSCALE
 40
10.0
  0
ENDSEC
  0
SECTION
  2
TABLES
  0
TABLE
  2
LTYPE
 70
    15
  0
LTYPE
  2
CONTINUOUS
 70
    64
  3
実線
 72
    65
 73
     0
 40
0.0
  0
LTYPE
  2
DASHED
 70
    64
  3
破線A
 72
    65
 73
     2
 40
0.6
 49
0.4
 49
-0.2
  0
LTYPE
  2
DASHEDX2
 70
    64
  3
破線B
 72
    65
 73
     2
 40
1.3
 49
0.9
 49
-0.4
  0
LTYPE
  2
DASHDOT
 70
    64
  3
１点鎖線A
 72
    65
 73
     4
 40
0.5375
 49
0.375
 49
-0.05
 49
0.0625
 49
-0.05
  0
LTYPE
  2
DASHDOTX2
 70
    64
  3
１点鎖線B
 72
    65
 73
     4
 40
1.075
 49
0.75
 49
-0.1
 49
0.125
 49
-0.1
  0
LTYPE
  2
DIVIDE2
 70
    64
  3
２点鎖線A
 72
    65
 73
     6
 40
0.5125
 49
0.3
 49
-0.0375
 49
0.05
 49
-0.0375
 49
0.05
 49
-0.0375
  0
LTYPE
  2
DIVIDE
 70
    64
  3
２点鎖線B
 72
    65
 73
     6
 40
1.05
 49
0.55
 49
-0.1
 49
0.1
 49
-0.1
 49
0.1
 49
-0.1
  0
LTYPE
  2
DOT
 70
    64
  3
点線A
 72
    65
 73
     2
 40
0.1125
 49
0.0625
 49
-0.05
  0
LTYPE
  2
DOTX2
 70
    64
  3
点線B
 72
    65
 73
     2
 40
0.275
 49
0.15
 49
-0.125
  0
LTYPE
  2
CONTINUOUS
 70
    64
  3
実線
 72
    65
 73
     0
 40
0.0
  0
LTYPE
  2
CONTINUOUS
 70
    64
  3
実線
 72
    65
 73
     0
 40
0.0
  0
LTYPE
  2
CONTINUOUS
 70
    64
  3
実線
 72
    65
 73
     0
 40
0.0
  0
LTYPE
  2
CONTINUOUS
 70
    64
  3
実線
 72
    65
 73
     0
 40
0.0
  0
LTYPE
  2
CONTINUOUS
 70
    64
  3
実線
 72
    65
 73
     0
 40
0.0
  0
LTYPE
  2
CONTINUOUS
 70
    64
  3
実線
 72
    65
 73
     0
 40
0.0
  0
ENDTAB
  0
TABLE
  2
LAYER
 70
    34
  0
LAYER
  2
通り芯
 70
     0
 62
    15
  6
CONTINUOUS
  0
LAYER
  2
補助線
 70
     0
 62
    16
  6
DOT
  0
LAYER
  2
躯体
 70
     0
 62
    31
  6
CONTINUOUS
  0
LAYER
  2
型材
 70
     0
 62
    32
  6
CONTINUOUS
  0
LAYER
  2
型材断面
 70
     0
 62
    47
  6
CONTINUOUS
  0
LAYER
  2
ガラス
 70
     0
 62
    48
  6
CONTINUOUS
  0
LAYER
  2
ゴム等
 70
     0
 62
    63
  6
CONTINUOUS
  0
LAYER
  2
ボルト／ビス
 70
     0
 62
    64
  6
CONTINUOUS
  0
LAYER
  2
文字
 70
     0
 62
    79
  6
CONTINUOUS
  0
LAYER
  2
寸法
 70
     0
 62
    80
  6
CONTINUOUS
  0
LAYER
  2
ﾊｯﾁﾝｸﾞ
 70
     0
 62
    95
  6
CONTINUOUS
  0
LAYER
  2
別途部材
 70
     0
 62
    96
  6
CONTINUOUS
  0
LAYER
  2
曲げ物
 70
     0
 62
   111
  6
CONTINUOUS
  0
LAYER
  2
鉄骨等
 70
     0
 62
   112
  6
CONTINUOUS
  0
LAYER
  2
St
 70
     0
 62
   127
  6
CONTINUOUS
  0
LAYER
  2
その他部品等
 70
     0
 62
   128
  6
CONTINUOUS
  0
LAYER
  2
ｶﾞｽｹｯﾄ
 70
     0
 62
   143
  6
CONTINUOUS
  0
LAYER
  2
ｽｹｯﾁ
 70
     0
 62
    14
  6
CONTINUOUS
  0
LAYER
  2
0
 70
     0
 62
    17
  6
CONTINUOUS
  0
LAYER
  2
1
 70
     0
 62
    30
  6
CONTINUOUS
  0
LAYER
  2
4
 70
     0
 62
    33
  6
CONTINUOUS
  0
LAYER
  2
ﾚｲﾔ3
 70
     0
 62
    46
  6
CONTINUOUS
  0
LAYER
  2
外形線
 70
     0
 62
    49
  6
CONTINUOUS
  0
LAYER
  2
部品
 70
     0
 62
    14
  6
CONTINUOUS
  0
LAYER
  2
サッシ芯
 70
     0
 62
    17
  6
DASHDOTX2
  0
LAYER
  2
寸法線
 70
     0
 62
    62
  6
CONTINUOUS
  0
LAYER
  2
姿図外形線
 70
     0
 62
    65
  6
CONTINUOUS
  0
LAYER
  2
姿補助線
 70
     0
 62
    30
  6
CONTINUOUS
  0
LAYER
  2
透視線
 70
     0
 62
    78
  6
DOT
  0
LAYER
  2
用紙
 70
     0
 62
    81
  6
CONTINUOUS
  0
LAYER
  2
実線図枠
 70
     0
 62
    94
  6
CONTINUOUS
  0
LAYER
  2
補助図枠
 70
     0
 62
    97
  6
CONTINUOUS
  0
LAYER
  2
建具記号
 70
     0
 62
   110
  6
CONTINUOUS
  0
LAYER
  2
補助文字
 70
     0
 62
   113
  6
CONTINUOUS
  0
ENDTAB
  0
TABLE
  2
STYLE
 70
    10
  0
STYLE
  2
STANDARD
 70
     0
 40
1.0
 41
1.0
 42
1.0
 50
0.0
 71
     0
  3
TXT
  4
BIGFONT
  0
STYLE
  2
TATE
 70
     4
 40
1.0
 41
1.0
 42
1.0
 50
0.0
 71
     0
  3
TXT
  4
BIGFONT
  0
STYLE
  2
TextStyle03
 70
     0
 40
1.0
 41
1.0
 42
1.0
 50
0.0
 71
     0
  3
MONOTXT
  4
BIGFONT
  0
STYLE
  2
TextStyle04
 70
     0
 40
1.0
 41
1.0
 42
1.0
 50
0.0
 71
     0
  3
MONOTXT
  4
BIGFONT
  0
STYLE
  2
TextStyle05
 70
     0
 40
1.0
 41
1.0
 42
1.0
 50
0.0
 71
     0
  3
MONOTXT
  4
BIGFONT
  0
STYLE
  2
TextStyle06
 70
     0
 40
1.0
 41
1.0
 42
1.0
 50
0.0
 71
     0
  3
MONOTXT
  4
BIGFONT
  0
STYLE
  2
TextStyle07
 70
     0
 40
1.0
 41
1.0
 42
1.0
 50
0.0
 71
     0
  3
MONOTXT
  4
BIGFONT
  0
STYLE
  2
TextStyle08
 70
     0
 40
1.0
 41
1.0
 42
1.0
 50
0.0
 71
     0
  3
MONOTXT
  4
BIGFONT
  0
STYLE
  2
TextStyle09
 70
     0
 40
1.0
 41
1.0
 42
1.0
 50
0.0
 71
     0
  3
MONOTXT
  4
BIGFONT
  0
STYLE
  2
TextStyle10
 70
     0
 40
1.0
 41
1.0
 42
1.0
 50
0.0
 71
     0
  3
MONOTXT
  4
BIGFONT
  0
ENDTAB
  0
ENDSEC
  0
SECTION
  2
BLOCKS
  0
BLOCK
  2
*GRP_0001
 70
    65
 10
0.0
 20
0.0
  0
LINE
  8
型材断面
  6
CONTINUOUS
 10
195.0
 20
133.5
 11
195.0
 21
-133.5
  0
LINE
  8
型材断面
  6
CONTINUOUS
 10
195.0
 20
-133.5
 11
-185.0
 21
-133.5
  0
LINE
  8
型材断面
  6
CONTINUOUS
 10
-185.0
 20
-133.5
 11
-185.0
 21
133.5
  0
LINE
  8
型材断面
  6
CONTINUOUS
 10
195.0
 20
133.5
 11
-185.0
 21
133.5
  0
LINE
  8
型材断面
  6
CONTINUOUS
 10
145.0
 20
-133.5
 11
145.0
 21
-118.5
  0
LINE
  8
型材断面
  6
CONTINUOUS
 10
195.0
 20
-118.5
 11
145.0
 21
-118.5
  0
ENDBLK
  0
BLOCK
  2
*DIM_0002
 70
    65
 10
0.0
 20
0.0
  0
LINE
  8
寸法
  6
BYBLOCK
 62
     0
 10
100.79942
 20
-63.785395
 11
108.91095
 21
-63.785395
  0
LINE
  8
寸法
  6
BYBLOCK
 62
     0
 10
100.79942
 20
-83.118728
 11
108.91095
 21
-83.118728
  0
LINE
  8
寸法
  6
BYBLOCK
 62
     0
 10
108.91095
 20
-63.785395
 11
108.91095
 21
-83.118728
  0
POINT
  8
寸法
 62
     0
 10
108.91095
 20
-63.785395
  0
POINT
  8
寸法
 62
     0
 10
108.91095
 20
-83.118728
  0
TEXT
  7
TextStyle03
  8
寸法
  6
CONTINUOUS
 62
     0
 10
108.525
 20
-75.9125
  1
580
 40
3.0
 50
90.0
 72
     5
 11
108.525
 21
-71.0375
  0
ENDBLK
  0
BLOCK
  2
*DIM_0003
 70
    65
 10
0.0
 20
0.0
  0
LINE
  8
寸法
  6
BYBLOCK
 62
     0
 10
4.712865
 20
-13.121378
 11
-78.620467
 21
-13.121378
  0
POINT
  8
寸法
 62
     0
 10
4.712865
 20
-13.121378
  0
POINT
  8
寸法
 62
     0
 10
-78.620467
 20
-13.121378
  0
TEXT
  7
TextStyle03
  8
寸法
  6
CONTINUOUS
 62
     0
 10
-48.69375
 20
-12.75
  1
呼称寸法　2500
 40
3.0
 72
     5
 11
-25.25625
 21
-12.75
  0
ENDBLK
  0
BLOCK
  2
*DIM_0004
 70
    65
 10
0.0
 20
0.0
  0
LINE
  8
寸法
  6
BYBLOCK
 62
     0
 10
-61.9538
 20
19.183902
 11
-61.9538
 21
14.01842
  0
LINE
  8
寸法
  6
BYBLOCK
 62
     0
 10
-11.953805
 20
19.183902
 11
-11.953805
 21
14.01842
  0
LINE
  8
寸法
  6
BYBLOCK
 62
     0
 10
-61.9538
 20
14.01842
 11
-11.953805
 21
14.01842
  0
POINT
  8
寸法
 62
     0
 10
-61.9538
 20
14.01842
  0
POINT
  8
寸法
 62
     0
 10
-11.953805
 20
14.01842
  0
TEXT
  7
TextStyle03
  8
寸法
  6
CONTINUOUS
 62
     0
 10
-40.23125
 20
14.375
  1
1500
 40
3.0
 72
     5
 11
-33.66875
 21
14.375
  0
ENDBLK
  0
BLOCK
  2
*DIM_0005
 70
    65
 10
0.0
 20
0.0
  0
LINE
  8
寸法
  6
BYBLOCK
 62
     0
 10
5.712865
 20
42.814035
 11
15.437147
 21
42.814035
  0
LINE
  8
寸法
  6
BYBLOCK
 62
     0
 10
8.342995
 20
39.114035
 11
15.437147
 21
39.114035
  0
LINE
  8
寸法
  6
BYBLOCK
 62
     0
 10
15.437147
 20
42.814035
 11
15.437147
 21
39.114035
  0
POINT
  8
寸法
 62
     0
 10
15.437147
 20
42.814035
  0
POINT
  8
寸法
 62
     0
 10
15.437147
 20
39.114035
  0
TEXT
  7
TextStyle03
  8
寸法
  6
CONTINUOUS
 62
     0
 10
15.125
 20
43.8125
  1
111
 40
3.0
 50
90.0
 72
     5
 11
15.125
 21
48.6875
  0
ENDBLK
  0
BLOCK
  2
*DIM_0006
 70
    65
 10
0.0
 20
0.0
  0
LINE
  8
寸法
  6
BYBLOCK
 62
     0
 10
5.712865
 20
22.81403
 11
15.437147
 21
22.814027
  0
LINE
  8
寸法
  6
BYBLOCK
 62
     0
 10
8.342995
 20
26.51403
 11
15.437147
 21
26.514027
  0
LINE
  8
寸法
  6
BYBLOCK
 62
     0
 10
15.437147
 20
22.814027
 11
15.437147
 21
26.514027
  0
POINT
  8
寸法
 62
     0
 10
15.437147
 20
22.814027
  0
POINT
  8
寸法
 62
     0
 10
15.437147
 20
26.514027
  0
TEXT
  7
TextStyle03
  8
寸法
  6
CONTINUOUS
 62
     0
 10
15.45
 20
16.5625
  1
111
 40
3.0
 50
90.0
 72
     5
 11
15.45
 21
21.4375
  0
ENDBLK
  0
BLOCK
  2
*DIM_0007
 70
    65
 10
0.0
 20
0.0
  0
LINE
  8
寸法
  6
BYBLOCK
 62
     0
 10
38.732515
 20
22.814033
 11
38.732515
 21
42.814033
  0
POINT
  8
寸法
 62
     0
 10
38.732515
 20
22.814033
  0
POINT
  8
寸法
 62
     0
 10
38.732515
 20
42.814033
  0
TEXT
  7
TextStyle03
  8
寸法
  6
CONTINUOUS
 62
     0
 10
38.375
 20
21.925
  1
呼称寸法　600
 40
3.0
 50
90.0
 72
     5
 11
38.375
 21
43.675
  0
ENDBLK
  0
BLOCK
  2
*DIM_0008
 70
    65
 10
0.0
 20
0.0
  0
LINE
  8
寸法
  6
BYBLOCK
 62
     0
 10
92.62291
 20
44.79737
 11
38.732515
 21
44.79737
  0
LINE
  8
寸法
  6
BYBLOCK
 62
     0
 10
38.732515
 20
42.814033
 11
38.732515
 21
44.79737
  0
POINT
  8
寸法
 62
     0
 10
38.732515
 20
42.814033
  0
POINT
  8
寸法
 62
     0
 10
38.732515
 20
44.79737
  0
TEXT
  7
TextStyle03
  8
寸法
  6
CONTINUOUS
 62
     0
 10
38.35
 20
47.26875
  1
59.5
 40
3.0
 50
90.0
 72
     5
 11
38.35
 21
53.83125
  0
ENDBLK
  0
BLOCK
  2
*DIM_0009
 70
    65
 10
0.0
 20
0.0
  0
LINE
  8
寸法
  6
BYBLOCK
 62
     0
 10
92.62291
 20
20.830703
 11
38.732515
 21
20.830703
  0
LINE
  8
寸法
  6
BYBLOCK
 62
     0
 10
38.732515
 20
22.814033
 11
38.732515
 21
20.830703
  0
POINT
  8
寸法
 62
     0
 10
38.732515
 20
22.814033
  0
POINT
  8
寸法
 62
     0
 10
38.732515
 20
20.830703
  0
TEXT
  7
TextStyle03
  8
寸法
  6
CONTINUOUS
 62
     0
 10
38.35
 20
11.76875
  1
59.5
 40
3.0
 50
90.0
 72
     5
 11
38.35
 21
18.33125
  0
ENDBLK
  0
BLOCK
  2
*DIM_0010
 70
    65
 10
0.0
 20
0.0
  0
LINE
  8
寸法
  6
BYBLOCK
 62
     0
 10
6.696195
 20
-61.253063
 11
6.696195
 21
-13.121378
  0
LINE
  8
寸法
  6
BYBLOCK
 62
     0
 10
4.712865
 20
-13.121378
 11
6.696195
 21
-13.121378
  0
POINT
  8
寸法
 62
     0
 10
4.712865
 20
-13.121378
  0
POINT
  8
寸法
 62
     0
 10
6.696195
 20
-13.121378
  0
TEXT
  7
TextStyle03
  8
寸法
  6
CONTINUOUS
 62
     0
 10
9.16875
 20
-12.75
  1
59.5
 40
3.0
 72
     5
 11
15.73125
 21
-12.75
  0
ENDBLK
  0
BLOCK
  2
*DIM_0011
 70
    65
 10
0.0
 20
0.0
  0
LINE
  8
寸法
  6
BYBLOCK
 62
     0
 10
-80.6038
 20
-61.253063
 11
-80.6038
 21
-13.121378
  0
LINE
  8
寸法
  6
BYBLOCK
 62
     0
 10
-78.620467
 20
-13.121378
 11
-80.6038
 21
-13.121378
  0
POINT
  8
寸法
 62
     0
 10
-78.620467
 20
-13.121378
  0
POINT
  8
寸法
 62
     0
 10
-80.6038
 20
-13.121378
  0
TEXT
  7
TextStyle03
  8
寸法
  6
CONTINUOUS
 62
     0
 10
-89.65625
 20
-12.75
  1
59.5
 40
3.0
 72
     5
 11
-83.09375
 21
-12.75
  0
ENDBLK
  0
BLOCK
  2
*DIM_0012
 70
    65
 10
0.0
 20
0.0
  0
LINE
  8
寸法
  6
BYBLOCK
 62
     0
 10
-81.620467
 20
39.4807
 11
-94.913305
 21
39.4807
  0
LINE
  8
寸法
  6
BYBLOCK
 62
     0
 10
-81.620467
 20
26.147365
 11
-94.913305
 21
26.147365
  0
LINE
  8
寸法
  6
BYBLOCK
 62
     0
 10
-94.913305
 20
39.4807
 11
-94.913305
 21
26.147365
  0
POINT
  8
寸法
 62
     0
 10
-94.913305
 20
39.4807
  0
POINT
  8
寸法
 62
     0
 10
-94.913305
 20
26.147365
  0
TEXT
  7
TextStyle03
  8
寸法
  6
CONTINUOUS
 62
     0
 10
-95.35
 20
30.3625
  1
400
 40
3.0
 50
90.0
 72
     5
 11
-95.35
 21
35.2375
  0
ENDBLK
  0
BLOCK
  2
*DIM_0013
 70
    65
 10
0.0
 20
0.0
  0
LINE
  8
寸法
  6
BYBLOCK
 62
     0
 10
-71.953802
 20
45.814033
 11
-71.953802
 21
75.561652
  0
LINE
  8
寸法
  6
BYBLOCK
 62
     0
 10
-48.62047
 20
45.814033
 11
-48.62047
 21
75.561652
  0
LINE
  8
寸法
  6
BYBLOCK
 62
     0
 10
-71.953802
 20
75.561652
 11
-48.62047
 21
75.561652
  0
POINT
  8
寸法
 62
     0
 10
-71.953802
 20
75.561652
  0
POINT
  8
寸法
 62
     0
 10
-48.62047
 20
75.561652
  0
TEXT
  7
TextStyle03
  8
寸法
  6
CONTINUOUS
 62
     0
 10
-62.7375
 20
75.925
  1
700
 40
3.0
 72
     5
 11
-57.8625
 21
75.925
  0
ENDBLK
  0
BLOCK
  2
*DIM_0014
 70
    65
 10
0.0
 20
0.0
  0
LINE
  8
寸法
  6
BYBLOCK
 62
     0
 10
-25.287135
 20
45.814033
 11
-25.287135
 21
75.561652
  0
LINE
  8
寸法
  6
BYBLOCK
 62
     0
 10
-48.62047
 20
75.561652
 11
-25.287135
 21
75.561652
  0
POINT
  8
寸法
 62
     0
 10
-25.287135
 20
75.561652
  0
TEXT
  7
TextStyle03
  8
寸法
  6
CONTINUOUS
 62
     0
 10
-39.4125
 20
75.925
  1
700
 40
3.0
 72
     5
 11
-34.5375
 21
75.925
  0
ENDBLK
  0
BLOCK
  2
*DIM_0015
 70
    65
 10
0.0
 20
0.0
  0
LINE
  8
寸法
  6
BYBLOCK
 62
     0
 10
-1.953802
 20
45.814033
 11
-1.953802
 21
75.561652
  0
LINE
  8
寸法
  6
BYBLOCK
 62
     0
 10
-25.287135
 20
75.561652
 11
-1.953802
 21
75.561652
  0
POINT
  8
寸法
 62
     0
 10
-1.953802
 20
75.561652
  0
TEXT
  7
TextStyle03
  8
寸法
  6
CONTINUOUS
 62
     0
 10
-16.0625
 20
75.925
  1
700
 40
3.0
 72
     5
 11
-11.1875
 21
75.925
  0
ENDBLK
  0
BLOCK
  2
*DIM_0016
 70
    65
 10
0.0
 20
0.0
  0
LINE
  8
寸法
  6
CONTINUOUS
 10
17.94811
 20
-68.123585
 11
17.94811
 21
-75.773635
  0
POINT
  8
寸法
 10
17.94811
 20
-68.123585
  0
POINT
  8
寸法
 10
17.94811
 20
-75.773635
  0
TEXT
  7
TextStyle03
  8
寸法
  6
CONTINUOUS
 10
22.0
 20
-76.0
  1
229.5
 40
3.0
 50
90.0
 72
     5
 11
22.0
 21
-67.75
  0
ENDBLK
  0
BLOCK
  2
*GRP_0017
 70
    65
 10
0.0
 20
0.0
  0
LINE
  8
補助線
  6
BYBLOCK
 62
    64
 10
-75.212668
 20
-73.66289
 11
-75.361593
 21
-73.737715
  0
LINE
  8
補助線
  6
BYBLOCK
 62
    64
 10
-75.324543
 20
-73.625838
 11
-75.249718
 21
-73.774765
  0
LINE
  8
補助線
  6
BYBLOCK
 62
    64
 10
-65.294188
 20
-68.679533
 11
-65.443115
 21
-68.754357
  0
LINE
  8
補助線
  6
BYBLOCK
 62
    64
 10
-65.406065
 20
-68.64248
 11
-65.33124
 21
-68.791407
  0
LINE
  8
補助線
  6
BYBLOCK
 62
    64
 10
-55.524637
 20
-63.771
 11
-55.37571
 21
-63.696175
  0
LINE
  8
補助線
  6
BYBLOCK
 62
    64
 10
-55.487587
 20
-63.659123
 11
-55.412763
 21
-63.80805
  0
LINE
  8
型材断面
  6
CONTINUOUS
 10
-75.959108
 20
-73.105325
 11
-76.18141
 21
-73.776577
  0
LINE
  8
型材断面
  6
CONTINUOUS
 10
-76.18141
 20
-73.776577
 11
-75.882107
 21
-74.372282
  0
LINE
  8
型材断面
  6
CONTINUOUS
 10
-75.882107
 20
-74.372282
 11
-75.210855
 21
-74.594585
  0
LINE
  8
型材断面
  6
CONTINUOUS
 10
-55.52645
 20
-62.839307
 11
-54.855195
 21
-63.06161
  0
LINE
  8
型材断面
  6
CONTINUOUS
 10
-54.855195
 20
-63.06161
 11
-54.555893
 21
-63.657315
  0
LINE
  8
型材断面
  6
CONTINUOUS
 10
-54.555893
 20
-63.657315
 11
-54.778197
 21
-64.328568
  0
LINE
  8
型材断面
  6
CONTINUOUS
 10
-75.959108
 20
-73.105325
 11
-55.52645
 21
-62.839307
  0
LINE
  8
型材断面
  6
CONTINUOUS
 10
-75.210855
 20
-74.594585
 11
-54.778197
 21
-64.328568
  0
CIRCLE
  8
ボルト／ビス
  6
CONTINUOUS
 10
-75.28713
 20
-73.700302
 40
0.250185
  0
CIRCLE
  8
ボルト／ビス
  6
CONTINUOUS
 10
-75.28713
 20
-73.700302
 40
0.301025
  0
LINE
  8
ボルト／ビス
  6
CONTINUOUS
 62
    64
 10
-75.536895
 20
-73.6858
 11
-75.39945
 21
-73.47675
  0
LINE
  8
ボルト／ビス
  6
CONTINUOUS
 62
    64
 10
-75.149685
 20
-73.491252
 11
-75.39945
 21
-73.47675
  0
LINE
  8
ボルト／ビス
  6
CONTINUOUS
 62
    64
 10
-75.424575
 20
-73.909353
 11
-75.17481
 21
-73.923855
  0
LINE
  8
ボルト／ビス
  6
CONTINUOUS
 62
    64
 10
-75.037365
 20
-73.714805
 11
-75.17481
 21
-73.923855
  0
LINE
  8
ボルト／ビス
  6
CONTINUOUS
 62
    64
 10
-75.536895
 20
-73.6858
 11
-75.424575
 21
-73.909353
  0
LINE
  8
ボルト／ビス
  6
CONTINUOUS
 62
    64
 10
-75.149685
 20
-73.491252
 11
-75.037365
 21
-73.714805
  0
CIRCLE
  8
ボルト／ビス
  6
CONTINUOUS
 62
    64
 10
-75.28713
 20
-73.700302
 40
0.216668
  0
CIRCLE
  8
ボルト／ビス
  6
CONTINUOUS
 10
-65.368653
 20
-68.716945
 40
0.250185
  0
CIRCLE
  8
ボルト／ビス
  6
CONTINUOUS
 10
-65.368653
 20
-68.716945
 40
0.301025
  0
LINE
  8
ボルト／ビス
  6
CONTINUOUS
 62
    64
 10
-65.618418
 20
-68.70244
 11
-65.480973
 21
-68.49339
  0
LINE
  8
ボルト／ビス
  6
CONTINUOUS
 62
    64
 10
-65.231207
 20
-68.507892
 11
-65.480973
 21
-68.49339
  0
LINE
  8
ボルト／ビス
  6
CONTINUOUS
 62
    64
 10
-65.506098
 20
-68.925995
 11
-65.25633
 21
-68.9405
  0
LINE
  8
ボルト／ビス
  6
CONTINUOUS
 62
    64
 10
-65.118887
 20
-68.73145
 11
-65.25633
 21
-68.9405
  0
LINE
  8
ボルト／ビス
  6
CONTINUOUS
 62
    64
 10
-65.618418
 20
-68.70244
 11
-65.506098
 21
-68.925995
  0
LINE
  8
ボルト／ビス
  6
CONTINUOUS
 62
    64
 10
-65.231207
 20
-68.507892
 11
-65.118887
 21
-68.73145
  0
CIRCLE
  8
ボルト／ビス
  6
CONTINUOUS
 62
    64
 10
-65.368653
 20
-68.716945
 40
0.216668
  0
CIRCLE
  8
ボルト／ビス
  6
CONTINUOUS
 10
-55.450175
 20
-63.733587
 40
0.250185
  0
CIRCLE
  8
ボルト／ビス
  6
CONTINUOUS
 10
-55.450175
 20
-63.733587
 40
0.301025
  0
LINE
  8
ボルト／ビス
  6
CONTINUOUS
 62
    64
 10
-55.31273
 20
-63.524538
 11
-55.562495
 21
-63.510035
  0
LINE
  8
ボルト／ビス
  6
CONTINUOUS
 62
    64
 10
-55.69994
 20
-63.719085
 11
-55.562495
 21
-63.510035
  0
LINE
  8
ボルト／ビス
  6
CONTINUOUS
 62
    64
 10
-55.20041
 20
-63.748092
 11
-55.337853
 21
-63.95714
  0
LINE
  8
ボルト／ビス
  6
CONTINUOUS
 62
    64
 10
-55.58762
 20
-63.942638
 11
-55.337853
 21
-63.95714
  0
LINE
  8
ボルト／ビス
  6
CONTINUOUS
 62
    64
 10
-55.31273
 20
-63.524538
 11
-55.20041
 21
-63.748092
  0
LINE
  8
ボルト／ビス
  6
CONTINUOUS
 62
    64
 10
-55.69994
 20
-63.719085
 11
-55.58762
 21
-63.942638
  0
CIRCLE
  8
ボルト／ビス
  6
CONTINUOUS
 62
    64
 10
-55.450175
 20
-63.733587
 40
0.216668
  0
ENDBLK
  0
BLOCK
  2
*GRP_0018
 70
    65
 10
0.0
 20
0.0
  0
LINE
  8
補助線
  6
BYBLOCK
 62
    64
 10
-55.524637
 20
-73.66289
 11
-55.375713
 21
-73.737715
  0
LINE
  8
補助線
  6
BYBLOCK
 62
    64
 10
-55.412763
 20
-73.625838
 11
-55.487587
 21
-73.774765
  0
LINE
  8
補助線
  6
BYBLOCK
 62
    64
 10
-65.443117
 20
-68.679533
 11
-65.29419
 21
-68.754357
  0
LINE
  8
補助線
  6
BYBLOCK
 62
    64
 10
-65.33124
 20
-68.64248
 11
-65.406065
 21
-68.791407
  0
LINE
  8
補助線
  6
BYBLOCK
 62
    64
 10
-75.212668
 20
-63.771
 11
-75.361595
 21
-63.696175
  0
LINE
  8
補助線
  6
BYBLOCK
 62
    64
 10
-75.249718
 20
-63.659123
 11
-75.324543
 21
-63.80805
  0
LINE
  8
型材断面
  6
CONTINUOUS
 10
-54.778197
 20
-73.105325
 11
-54.555895
 21
-73.776577
  0
LINE
  8
型材断面
  6
CONTINUOUS
 10
-54.555895
 20
-73.776577
 11
-54.855198
 21
-74.372282
  0
LINE
  8
型材断面
  6
CONTINUOUS
 10
-54.855198
 20
-74.372282
 11
-55.52645
 21
-74.594585
  0
LINE
  8
型材断面
  6
CONTINUOUS
 10
-75.210855
 20
-62.839307
 11
-75.88211
 21
-63.06161
  0
LINE
  8
型材断面
  6
CONTINUOUS
 10
-75.88211
 20
-63.06161
 11
-76.181412
 21
-63.657315
  0
LINE
  8
型材断面
  6
CONTINUOUS
 10
-76.181412
 20
-63.657315
 11
-75.959108
 21
-64.328568
  0
LINE
  8
型材断面
  6
CONTINUOUS
 10
-54.778197
 20
-73.105325
 11
-75.210855
 21
-62.839307
  0
LINE
  8
型材断面
  6
CONTINUOUS
 10
-55.52645
 20
-74.594585
 11
-75.959108
 21
-64.328568
  0
CIRCLE
  8
ボルト／ビス
  6
CONTINUOUS
 10
-55.450175
 20
-73.700302
 40
0.250185
  0
CIRCLE
  8
ボルト／ビス
  6
CONTINUOUS
 10
-55.450175
 20
-73.700302
 40
0.301025
  0
LINE
  8
ボルト／ビス
  6
CONTINUOUS
 62
    64
 10
-55.20041
 20
-73.6858
 11
-55.337855
 21
-73.47675
  0
LINE
  8
ボルト／ビス
  6
CONTINUOUS
 62
    64
 10
-55.58762
 20
-73.491252
 11
-55.337855
 21
-73.47675
  0
LINE
  8
ボルト／ビス
  6
CONTINUOUS
 62
    64
 10
-55.31273
 20
-73.909353
 11
-55.562495
 21
-73.923855
  0
LINE
  8
ボルト／ビス
  6
CONTINUOUS
 62
    64
 10
-55.69994
 20
-73.714805
 11
-55.562495
 21
-73.923855
  0
LINE
  8
ボルト／ビス
  6
CONTINUOUS
 62
    64
 10
-55.20041
 20
-73.6858
 11
-55.31273
 21
-73.909353
  0
LINE
  8
ボルト／ビス
  6
CONTINUOUS
 62
    64
 10
-55.58762
 20
-73.491252
 11
-55.69994
 21
-73.714805
  0
CIRCLE
  8
ボルト／ビス
  6
CONTINUOUS
 62
    64
 10
-55.450175
 20
-73.700302
 40
0.216668
  0
CIRCLE
  8
ボルト／ビス
  6
CONTINUOUS
 10
-65.368653
 20
-68.716945
 40
0.250185
  0
CIRCLE
  8
ボルト／ビス
  6
CONTINUOUS
 10
-65.368653
 20
-68.716945
 40
0.301025
  0
LINE
  8
ボルト／ビス
  6
CONTINUOUS
 62
    64
 10
-65.118887
 20
-68.70244
 11
-65.256333
 21
-68.49339
  0
LINE
  8
ボルト／ビス
  6
CONTINUOUS
 62
    64
 10
-65.506098
 20
-68.507892
 11
-65.256333
 21
-68.49339
  0
LINE
  8
ボルト／ビス
  6
CONTINUOUS
 62
    64
 10
-65.231207
 20
-68.925995
 11
-65.480975
 21
-68.9405
  0
LINE
  8
ボルト／ビス
  6
CONTINUOUS
 62
    64
 10
-65.618418
 20
-68.73145
 11
-65.480975
 21
-68.9405
  0
LINE
  8
ボルト／ビス
  6
CONTINUOUS
 62
    64
 10
-65.118887
 20
-68.70244
 11
-65.231207
 21
-68.925995
  0
LINE
  8
ボルト／ビス
  6
CONTINUOUS
 62
    64
 10
-65.506098
 20
-68.507892
 11
-65.618418
 21
-68.73145
  0
CIRCLE
  8
ボルト／ビス
  6
CONTINUOUS
 62
    64
 10
-65.368653
 20
-68.716945
 40
0.216668
  0
CIRCLE
  8
ボルト／ビス
  6
CONTINUOUS
 10
-75.28713
 20
-63.733587
 40
0.250185
  0
CIRCLE
  8
ボルト／ビス
  6
CONTINUOUS
 10
-75.28713
 20
-63.733587
 40
0.301025
  0
LINE
  8
ボルト／ビス
  6
CONTINUOUS
 62
    64
 10
-75.424575
 20
-63.524538
 11
-75.17481
 21
-63.510035
  0
LINE
  8
ボルト／ビス
  6
CONTINUOUS
 62
    64
 10
-75.037365
 20
-63.719085
 11
-75.17481
 21
-63.510035
  0
LINE
  8
ボルト／ビス
  6
CONTINUOUS
 62
    64
 10
-75.536895
 20
-63.748092
 11
-75.399453
 21
-63.95714
  0
LINE
  8
ボルト／ビス
  6
CONTINUOUS
 62
    64
 10
-75.149685
 20
-63.942638
 11
-75.399453
 21
-63.95714
  0
LINE
  8
ボルト／ビス
  6
CONTINUOUS
 62
    64
 10
-75.424575
 20
-63.524538
 11
-75.536895
 21
-63.748092
  0
LINE
  8
ボルト／ビス
  6
CONTINUOUS
 62
    64
 10
-75.037365
 20
-63.719085
 11
-75.149685
 21
-63.942638
  0
CIRCLE
  8
ボルト／ビス
  6
CONTINUOUS
 62
    64
 10
-75.28713
 20
-63.733587
 40
0.216668
  0
ENDBLK
  0
BLOCK
  2
*GRP_0019
 70
    65
 10
0.0
 20
0.0
  0
LINE
  8
補助線
  6
BYBLOCK
 62
    64
 10
1.305077
 20
-73.66289
 11
1.454003
 21
-73.737715
  0
LINE
  8
補助線
  6
BYBLOCK
 62
    64
 10
1.416952
 20
-73.625838
 11
1.342128
 21
-73.774765
  0
LINE
  8
補助線
  6
BYBLOCK
 62
    64
 10
-8.613403
 20
-68.679533
 11
-8.464475
 21
-68.754357
  0
LINE
  8
補助線
  6
BYBLOCK
 62
    64
 10
-8.501525
 20
-68.64248
 11
-8.57635
 21
-68.791407
  0
LINE
  8
補助線
  6
BYBLOCK
 62
    64
 10
-18.382953
 20
-63.771
 11
-18.53188
 21
-63.696175
  0
LINE
  8
補助線
  6
BYBLOCK
 62
    64
 10
-18.420003
 20
-63.659123
 11
-18.494827
 21
-63.80805
  0
LINE
  8
型材断面
  6
CONTINUOUS
 10
2.051518
 20
-73.105325
 11
2.27382
 21
-73.776577
  0
LINE
  8
型材断面
  6
CONTINUOUS
 10
2.27382
 20
-73.776577
 11
1.974518
 21
-74.372282
  0
LINE
  8
型材断面
  6
CONTINUOUS
 10
1.974518
 20
-74.372282
 11
1.303265
 21
-74.594585
  0
LINE
  8
型材断面
  6
CONTINUOUS
 10
-18.38114
 20
-62.839307
 11
-19.052395
 21
-63.06161
  0
LINE
  8
型材断面
  6
CONTINUOUS
 10
-19.052395
 20
-63.06161
 11
-19.351697
 21
-63.657315
  0
LINE
  8
型材断面
  6
CONTINUOUS
 10
-19.351697
 20
-63.657315
 11
-19.129392
 21
-64.328568
  0
LINE
  8
型材断面
  6
CONTINUOUS
 10
2.051518
 20
-73.105325
 11
-18.38114
 21
-62.839307
  0
LINE
  8
型材断面
  6
CONTINUOUS
 10
1.303265
 20
-74.594585
 11
-19.129392
 21
-64.328568
  0
CIRCLE
  8
ボルト／ビス
  6
CONTINUOUS
 10
1.37954
 20
-73.700302
 40
0.250185
  0
CIRCLE
  8
ボルト／ビス
  6
CONTINUOUS
 10
1.37954
 20
-73.700302
 40
0.301025
  0
LINE
  8
ボルト／ビス
  6
CONTINUOUS
 62
    64
 10
1.629305
 20
-73.6858
 11
1.49186
 21
-73.47675
  0
LINE
  8
ボルト／ビス
  6
CONTINUOUS
 62
    64
 10
1.242095
 20
-73.491252
 11
1.49186
 21
-73.47675
  0
LINE
  8
ボルト／ビス
  6
CONTINUOUS
 62
    64
 10
1.516985
 20
-73.909353
 11
1.26722
 21
-73.923855
  0
LINE
  8
ボルト／ビス
  6
CONTINUOUS
 62
    64
 10
1.129775
 20
-73.714805
 11
1.26722
 21
-73.923855
  0
LINE
  8
ボルト／ビス
  6
CONTINUOUS
 62
    64
 10
1.629305
 20
-73.6858
 11
1.516985
 21
-73.909353
  0
LINE
  8
ボルト／ビス
  6
CONTINUOUS
 62
    64
 10
1.242095
 20
-73.491252
 11
1.129775
 21
-73.714805
  0
CIRCLE
  8
ボルト／ビス
  6
CONTINUOUS
 62
    64
 10
1.37954
 20
-73.700302
 40
0.216668
  0
CIRCLE
  8
ボルト／ビス
  6
CONTINUOUS
 10
-8.538937
 20
-68.716945
 40
0.250185
  0
CIRCLE
  8
ボルト／ビス
  6
CONTINUOUS
 10
-8.538937
 20
-68.716945
 40
0.301025
  0
LINE
  8
ボルト／ビス
  6
CONTINUOUS
 62
    64
 10
-8.289173
 20
-68.70244
 11
-8.426617
 21
-68.49339
  0
LINE
  8
ボルト／ビス
  6
CONTINUOUS
 62
    64
 10
-8.676382
 20
-68.507892
 11
-8.426617
 21
-68.49339
  0
LINE
  8
ボルト／ビス
  6
CONTINUOUS
 62
    64
 10
-8.401493
 20
-68.925995
 11
-8.65126
 21
-68.9405
  0
LINE
  8
ボルト／ビス
  6
CONTINUOUS
 62
    64
 10
-8.788702
 20
-68.73145
 11
-8.65126
 21
-68.9405
  0
LINE
  8
ボルト／ビス
  6
CONTINUOUS
 62
    64
 10
-8.289173
 20
-68.70244
 11
-8.401493
 21
-68.925995
  0
LINE
  8
ボルト／ビス
  6
CONTINUOUS
 62
    64
 10
-8.676382
 20
-68.507892
 11
-8.788702
 21
-68.73145
  0
CIRCLE
  8
ボルト／ビス
  6
CONTINUOUS
 62
    64
 10
-8.538937
 20
-68.716945
 40
0.216668
  0
CIRCLE
  8
ボルト／ビス
  6
CONTINUOUS
 10
-18.457415
 20
-63.733587
 40
0.250185
  0
CIRCLE
  8
ボルト／ビス
  6
CONTINUOUS
 10
-18.457415
 20
-63.733587
 40
0.301025
  0
LINE
  8
ボルト／ビス
  6
CONTINUOUS
 62
    64
 10
-18.59486
 20
-63.524538
 11
-18.345095
 21
-63.510035
  0
LINE
  8
ボルト／ビス
  6
CONTINUOUS
 62
    64
 10
-18.20765
 20
-63.719085
 11
-18.345095
 21
-63.510035
  0
LINE
  8
ボルト／ビス
  6
CONTINUOUS
 62
    64
 10
-18.70718
 20
-63.748092
 11
-18.569737
 21
-63.95714
  0
LINE
  8
ボルト／ビス
  6
CONTINUOUS
 62
    64
 10
-18.31997
 20
-63.942638
 11
-18.569737
 21
-63.95714
  0
LINE
  8
ボルト／ビス
  6
CONTINUOUS
 62
    64
 10
-18.59486
 20
-63.524538
 11
-18.70718
 21
-63.748092
  0
LINE
  8
ボルト／ビス
  6
CONTINUOUS
 62
    64
 10
-18.20765
 20
-63.719085
 11
-18.31997
 21
-63.942638
  0
CIRCLE
  8
ボルト／ビス
  6
CONTINUOUS
 62
    64
 10
-18.457415
 20
-63.733587
 40
0.216668
  0
ENDBLK
  0
BLOCK
  2
*GRP_0020
 70
    65
 10
0.0
 20
0.0
  0
LINE
  8
補助線
  6
BYBLOCK
 62
    64
 10
-18.382953
 20
-73.66289
 11
-18.531877
 21
-73.737715
  0
LINE
  8
補助線
  6
BYBLOCK
 62
    64
 10
-18.494827
 20
-73.625838
 11
-18.420003
 21
-73.774765
  0
LINE
  8
補助線
  6
BYBLOCK
 62
    64
 10
-8.464473
 20
-68.679533
 11
-8.6134
 21
-68.754357
  0
LINE
  8
補助線
  6
BYBLOCK
 62
    64
 10
-8.57635
 20
-68.64248
 11
-8.501525
 21
-68.791407
  0
LINE
  8
補助線
  6
BYBLOCK
 62
    64
 10
1.305077
 20
-63.771
 11
1.454005
 21
-63.696175
  0
LINE
  8
補助線
  6
BYBLOCK
 62
    64
 10
1.342128
 20
-63.659123
 11
1.416952
 21
-63.80805
  0
LINE
  8
型材断面
  6
CONTINUOUS
 10
-19.129392
 20
-73.105325
 11
-19.351695
 21
-73.776577
  0
LINE
  8
型材断面
  6
CONTINUOUS
 10
-19.351695
 20
-73.776577
 11
-19.052393
 21
-74.372282
  0
LINE
  8
型材断面
  6
CONTINUOUS
 10
-19.052393
 20
-74.372282
 11
-18.38114
 21
-74.594585
  0
LINE
  8
型材断面
  6
CONTINUOUS
 10
1.303265
 20
-62.839307
 11
1.97452
 21
-63.06161
  0
LINE
  8
型材断面
  6
CONTINUOUS
 10
1.97452
 20
-63.06161
 11
2.273822
 21
-63.657315
  0
LINE
  8
型材断面
  6
CONTINUOUS
 10
2.273822
 20
-63.657315
 11
2.051518
 21
-64.328568
  0
LINE
  8
型材断面
  6
CONTINUOUS
 10
-19.129392
 20
-73.105325
 11
1.303265
 21
-62.839307
  0
LINE
  8
型材断面
  6
CONTINUOUS
 10
-18.38114
 20
-74.594585
 11
2.051518
 21
-64.328568
  0
CIRCLE
  8
ボルト／ビス
  6
CONTINUOUS
 10
-18.457415
 20
-73.700302
 40
0.250185
  0
CIRCLE
  8
ボルト／ビス
  6
CONTINUOUS
 10
-18.457415
 20
-73.700302
 40
0.301025
  0
LINE
  8
ボルト／ビス
  6
CONTINUOUS
 62
    64
 10
-18.70718
 20
-73.6858
 11
-18.569735
 21
-73.47675
  0
LINE
  8
ボルト／ビス
  6
CONTINUOUS
 62
    64
 10
-18.31997
 20
-73.491252
 11
-18.569735
 21
-73.47675
  0
LINE
  8
ボルト／ビス
  6
CONTINUOUS
 62
    64
 10
-18.59486
 20
-73.909353
 11
-18.345095
 21
-73.923855
  0
LINE
  8
ボルト／ビス
  6
CONTINUOUS
 62
    64
 10
-18.20765
 20
-73.714805
 11
-18.345095
 21
-73.923855
  0
LINE
  8
ボルト／ビス
  6
CONTINUOUS
 62
    64
 10
-18.70718
 20
-73.6858
 11
-18.59486
 21
-73.909353
  0
LINE
  8
ボルト／ビス
  6
CONTINUOUS
 62
    64
 10
-18.31997
 20
-73.491252
 11
-18.20765
 21
-73.714805
  0
CIRCLE
  8
ボルト／ビス
  6
CONTINUOUS
 62
    64
 10
-18.457415
 20
-73.700302
 40
0.216668
  0
CIRCLE
  8
ボルト／ビス
  6
CONTINUOUS
 10
-8.538937
 20
-68.716945
 40
0.250185
  0
CIRCLE
  8
ボルト／ビス
  6
CONTINUOUS
 10
-8.538937
 20
-68.716945
 40
0.301025
  0
LINE
  8
ボルト／ビス
  6
CONTINUOUS
 62
    64
 10
-8.788702
 20
-68.70244
 11
-8.651257
 21
-68.49339
  0
LINE
  8
ボルト／ビス
  6
CONTINUOUS
 62
    64
 10
-8.401493
 20
-68.507892
 11
-8.651257
 21
-68.49339
  0
LINE
  8
ボルト／ビス
  6
CONTINUOUS
 62
    64
 10
-8.676382
 20
-68.925995
 11
-8.426615
 21
-68.9405
  0
LINE
  8
ボルト／ビス
  6
CONTINUOUS
 62
    64
 10
-8.289173
 20
-68.73145
 11
-8.426615
 21
-68.9405
  0
LINE
  8
ボルト／ビス
  6
CONTINUOUS
 62
    64
 10
-8.788702
 20
-68.70244
 11
-8.676382
 21
-68.925995
  0
LINE
  8
ボルト／ビス
  6
CONTINUOUS
 62
    64
 10
-8.401493
 20
-68.507892
 11
-8.289173
 21
-68.73145
  0
CIRCLE
  8
ボルト／ビス
  6
CONTINUOUS
 62
    64
 10
-8.538937
 20
-68.716945
 40
0.216668
  0
CIRCLE
  8
ボルト／ビス
  6
CONTINUOUS
 10
1.37954
 20
-63.733587
 40
0.250185
  0
CIRCLE
  8
ボルト／ビス
  6
CONTINUOUS
 10
1.37954
 20
-63.733587
 40
0.301025
  0
LINE
  8
ボルト／ビス
  6
CONTINUOUS
 62
    64
 10
1.516985
 20
-63.524538
 11
1.26722
 21
-63.510035
  0
LINE
  8
ボルト／ビス
  6
CONTINUOUS
 62
    64
 10
1.129775
 20
-63.719085
 11
1.26722
 21
-63.510035
  0
LINE
  8
ボルト／ビス
  6
CONTINUOUS
 62
    64
 10
1.629305
 20
-63.748092
 11
1.491863
 21
-63.95714
  0
LINE
  8
ボルト／ビス
  6
CONTINUOUS
 62
    64
 10
1.242095
 20
-63.942638
 11
1.491863
 21
-63.95714
  0
LINE
  8
ボルト／ビス
  6
CONTINUOUS
 62
    64
 10
1.516985
 20
-63.524538
 11
1.629305
 21
-63.748092
  0
LINE
  8
ボルト／ビス
  6
CONTINUOUS
 62
    64
 10
1.129775
 20
-63.719085
 11
1.242095
 21
-63.942638
  0
CIRCLE
  8
ボルト／ビス
  6
CONTINUOUS
 62
    64
 10
1.37954
 20
-63.733587
 40
0.216668
  0
ENDBLK
  0
BLOCK
  2
*DIM_0021
 70
    65
 10
0.0
 20
0.0
  0
LINE
  8
寸法
  6
CONTINUOUS
 10
92.603333
 20
56.049278
 11
100.253383
 21
56.049278
  0
POINT
  8
寸法
 10
92.603333
 20
56.049278
  0
POINT
  8
寸法
 10
100.253383
 20
56.049278
  0
TEXT
  7
TextStyle03
  8
寸法
  6
CONTINUOUS
 10
92.35
 20
56.4
  1
229.5
 40
3.0
 72
     5
 11
100.6
 21
56.4
  0
ENDBLK
  0
BLOCK
  2
*DIM_0022
 70
    65
 10
0.0
 20
0.0
  0
LINE
  8
寸法
  6
CONTINUOUS
 10
99.79942
 20
-55.638317
 11
59.04942
 21
-55.638317
  0
POINT
  8
寸法
 10
99.79942
 20
-55.638317
  0
POINT
  8
寸法
 10
59.04942
 20
-55.638317
  0
TEXT
  7
TextStyle03
  8
寸法
  6
CONTINUOUS
 10
74.43125
 20
-55.275
  1
1222.5
 40
3.0
 72
     5
 11
84.36875
 21
-55.275
  0
ENDBLK
  0
BLOCK
  2
*DIM_0023
 70
    65
 10
0.0
 20
0.0
  0
LINE
  8
寸法
  6
BYBLOCK
 62
     0
 10
17.94811
 20
-68.123585
 11
17.94811
 21
-60.790253
  0
POINT
  8
寸法
 62
     0
 10
17.94811
 20
-68.123585
  0
POINT
  8
寸法
 62
     0
 10
17.94811
 20
-60.790253
  0
TEXT
  7
TextStyle03
  8
寸法
  6
CONTINUOUS
 62
     0
 10
17.375
 20
-58.51875
  1
上昇179以上
 40
3.0
 50
90.0
 72
     5
 11
17.375
 21
-40.33125
  0
ENDBLK
  0
ENDSEC
  0
SECTION
  2
ENTITIES
  0
POLYLINE
  8
通り芯
  6
CONTINUOUS
 66
     1
 70
     1
  0
VERTEX
  8
通り芯
 10
-210.0
 20
-148.5
  0
VERTEX
  8
通り芯
 10
210.0
 20
-148.5
  0
VERTEX
  8
通り芯
 10
210.0
 20
148.5
  0
VERTEX
  8
通り芯
 10
-210.0
 20
148.5
  0
SEQEND
  0
INSERT
  2
*GRP_0001
  8
型材断面
  6
CONTINUOUS
 10
0.0
 20
0.0
  0
LINE
  8
型材断面
  6
DASHDOT
 10
4.712865
 20
-77.836442
 11
4.712865
 21
42.814033
  0
LINE
  8
型材断面
  6
DASHDOT
 10
-36.953802
 20
-77.836442
 11
-36.953802
 21
42.814033
  0
LINE
  8
型材断面
  6
DASHDOT
 10
-78.620467
 20
-77.836442
 11
-78.620467
 21
42.814033
  0
LINE
  8
型材断面
  6
DASHDOT
 10
102.389627
 20
42.814033
 11
-78.620467
 21
42.814033
  0
LINE
  8
型材断面
  6
DASHDOT
 10
102.389627
 20
32.814033
 11
-78.620467
 21
32.814033
  0
LINE
  8
型材断面
  6
DASHDOT
 10
-36.953802
 20
22.814033
 11
-36.953802
 21
42.814033
  0
POLYLINE
  8
型材断面
  6
CONTINUOUS
 66
     1
 70
     1
  0
VERTEX
  8
型材断面
 10
-27.384055
 20
13.03811
  0
VERTEX
  8
型材断面
 10
-46.155985
 20
13.03811
  0
VERTEX
  8
型材断面
 10
-46.155985
 20
8.301267
  0
VERTEX
  8
型材断面
 10
-27.384055
 20
8.301267
  0
SEQEND
  0
POLYLINE
  8
型材断面
  6
CONTINUOUS
 66
     1
 70
     1
  0
VERTEX
  8
型材断面
 10
-27.384055
 20
52.589955
  0
VERTEX
  8
型材断面
 10
-46.155985
 20
52.589955
  0
VERTEX
  8
型材断面
 10
-46.155985
 20
57.326798
  0
VERTEX
  8
型材断面
 10
-27.384055
 20
57.326798
  0
SEQEND
  0
LINE
  8
型材断面
  6
CONTINUOUS
 10
-61.9538
 20
45.444162
 11
-63.44943
 21
48.03467
  0
LINE
  8
型材断面
  6
CONTINUOUS
 10
-61.9538
 20
45.444162
 11
-60.45817
 21
48.03467
  0
LINE
  8
型材断面
  6
CONTINUOUS
 10
-60.45817
 20
48.03467
 11
-63.44943
 21
48.03467
  0
LINE
  8
型材断面
  6
CONTINUOUS
 10
-119.472675
 20
80.791505
 11
-118.87662
 21
78.200998
  0
LINE
  8
型材断面
  6
CONTINUOUS
 10
-119.472675
 20
80.791505
 11
-120.068732
 21
78.200998
  0
LINE
  8
型材断面
  6
CONTINUOUS
 10
-120.068732
 20
78.200998
 11
-118.87662
 21
78.200998
  0
LINE
  8
型材断面
  6
CONTINUOUS
 10
-125.495263
 20
74.922105
 11
-79.253485
 21
74.922105
  0
LINE
  8
型材断面
  6
CONTINUOUS
 10
-119.472675
 20
87.32138
 11
-120.968305
 21
84.730873
  0
LINE
  8
型材断面
  6
CONTINUOUS
 10
-119.472675
 20
87.32138
 11
-117.977045
 21
84.730873
  0
LINE
  8
型材断面
  6
CONTINUOUS
 10
-117.977045
 20
84.730873
 11
-120.968305
 21
84.730873
  0
LINE
  8
型材断面
  6
CONTINUOUS
 10
-125.495263
 20
83.792277
 11
-79.253485
 21
83.792277
  0
LINE
  8
型材断面
  6
CONTINUOUS
 10
-125.495263
 20
69.134073
 11
-79.253485
 21
69.134073
  0
LINE
  8
型材断面
  6
CONTINUOUS
 10
-81.250597
 20
32.814033
 11
-83.841105
 21
34.309663
  0
LINE
  8
型材断面
  6
CONTINUOUS
 10
-81.250597
 20
32.814033
 11
-83.841105
 21
31.318403
  0
LINE
  8
型材断面
  6
CONTINUOUS
 10
-83.841105
 20
31.318403
 11
-83.841105
 21
34.309663
  0
LINE
  8
型材断面
  6
CONTINUOUS
 10
-61.9538
 20
20.183902
 11
-63.44943
 21
17.593395
  0
LINE
  8
型材断面
  6
CONTINUOUS
 10
-61.9538
 20
20.183902
 11
-60.45817
 21
17.593395
  0
LINE
  8
型材断面
  6
CONTINUOUS
 10
-60.45817
 20
17.593395
 11
-63.44943
 21
17.593395
  0
LINE
  8
型材断面
  6
CONTINUOUS
 10
-11.953805
 20
45.444162
 11
-10.458175
 21
48.03467
  0
LINE
  8
型材断面
  6
CONTINUOUS
 10
-11.953805
 20
45.444162
 11
-13.449435
 21
48.03467
  0
LINE
  8
型材断面
  6
CONTINUOUS
 10
-13.449435
 20
48.03467
 11
-10.458175
 21
48.03467
  0
LINE
  8
型材断面
  6
CONTINUOUS
 10
7.342993
 20
32.814033
 11
9.9335
 21
34.309663
  0
LINE
  8
型材断面
  6
CONTINUOUS
 10
7.342993
 20
32.814033
 11
9.9335
 21
31.318403
  0
LINE
  8
型材断面
  6
CONTINUOUS
 10
9.9335
 20
31.318403
 11
9.9335
 21
34.309663
  0
LINE
  8
型材断面
  6
CONTINUOUS
 10
-11.953805
 20
20.183902
 11
-10.458175
 21
17.593395
  0
LINE
  8
型材断面
  6
CONTINUOUS
 10
-11.953805
 20
20.183902
 11
-13.449435
 21
17.593395
  0
LINE
  8
型材断面
  6
CONTINUOUS
 10
-13.449435
 20
17.593395
 11
-10.458175
 21
17.593395
  0
LINE
  8
型材断面
  6
CONTINUOUS
 10
7.342995
 20
39.114035
 11
9.933505
 21
38.517982
  0
LINE
  8
型材断面
  6
CONTINUOUS
 10
7.342995
 20
39.114035
 11
9.933503
 21
39.710095
  0
LINE
  8
型材断面
  6
CONTINUOUS
 10
9.933503
 20
39.710095
 11
9.933505
 21
38.517982
  0
LINE
  8
型材断面
  6
CONTINUOUS
 10
7.342995
 20
26.51403
 11
9.933505
 21
27.110082
  0
LINE
  8
型材断面
  6
CONTINUOUS
 10
7.342995
 20
26.51403
 11
9.933503
 21
25.91797
  0
LINE
  8
型材断面
  6
CONTINUOUS
 10
9.933503
 20
25.91797
 11
9.933505
 21
27.110082
  0
LINE
  8
型材断面
  6
CONTINUOUS
 10
-81.2506
 20
39.114035
 11
-83.84111
 21
38.517982
  0
LINE
  8
型材断面
  6
CONTINUOUS
 10
-81.2506
 20
39.114035
 11
-83.841107
 21
39.710095
  0
LINE
  8
型材断面
  6
CONTINUOUS
 10
-83.841107
 20
39.710095
 11
-83.84111
 21
38.517982
  0
LINE
  8
型材断面
  6
CONTINUOUS
 10
-81.2506
 20
26.51403
 11
-83.84111
 21
27.110082
  0
LINE
  8
型材断面
  6
CONTINUOUS
 10
-81.2506
 20
26.51403
 11
-83.841107
 21
25.91797
  0
LINE
  8
型材断面
  6
CONTINUOUS
 10
-83.841107
 20
25.91797
 11
-83.84111
 21
27.110082
  0
LINE
  8
型材断面
  6
CONTINUOUS
 10
-80.603653
 20
20.830853
 11
-36.953802
 21
20.830853
  0
LINE
  8
型材断面
  6
CONTINUOUS
 10
-80.603653
 20
44.797213
 11
-36.953802
 21
44.797213
  0
LINE
  8
型材断面
  6
CONTINUOUS
 10
6.696047
 20
44.797213
 11
-36.953802
 21
44.797213
  0
LINE
  8
型材断面
  6
CONTINUOUS
 10
6.696047
 20
20.830853
 11
-36.953802
 21
20.830853
  0
LINE
  8
型材断面
  6
CONTINUOUS
 10
-125.495263
 20
63.34604
 11
-79.253485
 21
63.34604
  0
ARC
  8
型材断面
  6
CONTINUOUS
 62
    47
 10
-80.603805
 20
-72.240246
 40
0.016668
 50
89.999123
 51
180.0
  0
ARC
  8
型材断面
  6
CONTINUOUS
 62
    47
 10
-80.610471
 20
-72.280248
 40
0.010002
 50
180.0
 51
269.791626
  0
LINE
  8
型材断面
  6
CONTINUOUS
 62
    47
 10
-80.570465
 20
-72.456967
 11
-79.72032
 21
-72.456967
  0
LINE
  8
型材断面
  6
CONTINUOUS
 62
    47
 10
-80.603805
 20
-72.22358
 11
-80.603805
 21
-70.11692
  0
LINE
  8
型材断面
  6
CONTINUOUS
 62
    47
 10
-80.6038
 20
-72.456967
 11
-80.6038
 21
-75.773635
  0
LINE
  8
型材断面
  6
CONTINUOUS
 62
    47
 10
-80.1038
 20
-76.273635
 11
-80.1038
 21
-75.773635
  0
LINE
  8
型材断面
  6
CONTINUOUS
 62
    47
 10
-79.720465
 20
-70.11692
 11
-79.720465
 21
-69.79025
  0
LINE
  8
型材断面
  6
CONTINUOUS
 62
    47
 10
-80.620465
 20
-72.240245
 11
-80.620465
 21
-72.279905
  0
ARC
  8
型材断面
  6
CONTINUOUS
 62
    47
 10
6.696201
 20
-72.240246
 40
0.016668
 50
0.0
 51
90.000877
  0
ARC
  8
型材断面
  6
CONTINUOUS
 62
    47
 10
6.702867
 20
-72.280248
 40
0.010002
 50
270.208374
 51
360.0
  0
LINE
  8
型材断面
  6
CONTINUOUS
 62
    47
 10
6.662865
 20
-72.456967
 11
5.812717
 21
-72.456967
  0
LINE
  8
型材断面
  6
CONTINUOUS
 62
    47
 10
6.696203
 20
-72.22358
 11
6.696203
 21
-70.11692
  0
LINE
  8
型材断面
  6
CONTINUOUS
 62
    47
 10
6.696198
 20
-72.456967
 11
6.696198
 21
-75.773635
  0
LINE
  8
型材断面
  6
CONTINUOUS
 62
    47
 10
6.196198
 20
-76.273635
 11
6.196198
 21
-75.773635
  0
LINE
  8
型材断面
  6
CONTINUOUS
 62
    47
 10
5.812862
 20
-70.11692
 11
5.812862
 21
-69.79025
  0
LINE
  8
型材断面
  6
CONTINUOUS
 62
    47
 10
6.712865
 20
-72.240245
 11
6.712865
 21
-72.279905
  0
LINE
  8
型材断面
  6
CONTINUOUS
 10
-80.020465
 20
-68.123585
 11
-36.9538
 21
-68.123585
  0
LINE
  8
型材断面
  6
CONTINUOUS
 10
-80.176987
 20
-68.29025
 11
-36.9538
 21
-68.29025
  0
LINE
  8
型材断面
  6
CONTINUOUS
 10
-80.603805
 20
-70.11692
 11
-36.9538
 21
-70.11692
  0
LINE
  8
型材断面
  6
CONTINUOUS
 10
-80.020465
 20
-69.79025
 11
-36.9538
 21
-69.79025
  0
LINE
  8
型材断面
  6
CONTINUOUS
 10
-80.6038
 20
-72.456967
 11
-36.9538
 21
-72.456967
  0
LINE
  8
型材断面
  6
CONTINUOUS
 10
-80.61047
 20
-72.29025
 11
-36.9538
 21
-72.29025
  0
LINE
  8
型材断面
  6
CONTINUOUS
 10
-80.6038
 20
-75.773635
 11
-36.9538
 21
-75.773635
  0
LINE
  8
型材断面
  6
CONTINUOUS
 10
-80.1038
 20
-76.273635
 11
-36.9538
 21
-76.273635
  0
LINE
  8
型材断面
  6
CONTINUOUS
 10
6.196198
 20
-76.273635
 11
-36.9538
 21
-76.273635
  0
LINE
  8
型材断面
  6
CONTINUOUS
 10
6.696198
 20
-75.773635
 11
-36.9538
 21
-75.773635
  0
LINE
  8
型材断面
  6
CONTINUOUS
 10
6.696198
 20
-72.456967
 11
-36.9538
 21
-72.456967
  0
LINE
  8
型材断面
  6
CONTINUOUS
 10
6.702867
 20
-72.29025
 11
-36.9538
 21
-72.29025
  0
LINE
  8
型材断面
  6
CONTINUOUS
 10
6.696203
 20
-70.11692
 11
-36.9538
 21
-70.11692
  0
LINE
  8
型材断面
  6
CONTINUOUS
 10
6.112865
 20
-69.79025
 11
-36.9538
 21
-69.79025
  0
LINE
  8
型材断面
  6
CONTINUOUS
 10
6.112865
 20
-68.123585
 11
-36.9538
 21
-68.123585
  0
LINE
  8
型材断面
  6
CONTINUOUS
 10
6.269385
 20
-68.29025
 11
-36.9538
 21
-68.29025
  0
ARC
  8
型材断面
  6
DOT
 62
    47
 10
-80.603805
 20
-64.906912
 40
0.016668
 50
89.999123
 51
180.0
  0
ARC
  8
型材断面
  6
DOT
 62
    47
 10
-80.610471
 20
-64.946914
 40
0.010002
 50
180.0
 51
269.791626
  0
LINE
  8
型材断面
  6
DOT
 62
    47
 10
-80.603805
 20
-64.890247
 11
-80.603805
 21
-62.783587
  0
LINE
  8
型材断面
  6
DOT
 62
    47
 10
-79.720465
 20
-62.783587
 11
-79.720465
 21
-62.456917
  0
LINE
  8
型材断面
  6
DOT
 62
    47
 10
-80.620465
 20
-64.906913
 11
-80.620465
 21
-64.946573
  0
ARC
  8
型材断面
  6
DOT
 62
    47
 10
6.696201
 20
-64.906912
 40
0.016668
 50
0.0
 51
90.000877
  0
ARC
  8
型材断面
  6
DOT
 62
    47
 10
6.702867
 20
-64.946914
 40
0.010002
 50
270.208374
 51
360.0
  0
LINE
  8
型材断面
  6
DOT
 62
    47
 10
6.696203
 20
-64.890247
 11
6.696203
 21
-62.783587
  0
LINE
  8
型材断面
  6
DOT
 62
    47
 10
5.812862
 20
-62.783587
 11
5.812862
 21
-62.456917
  0
LINE
  8
型材断面
  6
DOT
 62
    47
 10
6.712865
 20
-64.906913
 11
6.712865
 21
-64.946573
  0
LINE
  8
型材断面
  6
DOT
 10
-80.176987
 20
-60.956917
 11
-36.9538
 21
-60.956917
  0
LINE
  8
型材断面
  6
DOT
 10
-80.020465
 20
-60.790253
 11
-36.9538
 21
-60.790253
  0
LINE
  8
型材断面
  6
DOT
 10
-80.603805
 20
-62.783587
 11
-36.9538
 21
-62.783587
  0
LINE
  8
型材断面
  6
DOT
 10
-80.020465
 20
-62.456917
 11
-36.9538
 21
-62.456917
  0
LINE
  8
型材断面
  6
DOT
 10
-80.61047
 20
-64.956917
 11
-36.9538
 21
-64.956917
  0
LINE
  8
型材断面
  6
DOT
 10
6.702867
 20
-64.956917
 11
-36.9538
 21
-64.956917
  0
LINE
  8
型材断面
  6
DOT
 10
6.112865
 20
-62.456917
 11
-36.9538
 21
-62.456917
  0
LINE
  8
型材断面
  6
DOT
 10
6.696203
 20
-62.783587
 11
-36.9538
 21
-62.783587
  0
LINE
  8
型材断面
  6
DOT
 10
6.112865
 20
-60.790253
 11
-36.9538
 21
-60.790253
  0
LINE
  8
型材断面
  6
DOT
 10
6.269385
 20
-60.956917
 11
-36.9538
 21
-60.956917
  0
INSERT
  2
*GRP_0017
  8
型材断面
  6
CONTINUOUS
 10
0.0
 20
0.0
  0
INSERT
  2
*GRP_0018
  8
型材断面
  6
CONTINUOUS
 10
0.0
 20
0.0
  0
INSERT
  2
*GRP_0019
  8
型材断面
  6
CONTINUOUS
 10
0.0
 20
0.0
  0
INSERT
  2
*GRP_0020
  8
型材断面
  6
CONTINUOUS
 10
0.0
 20
0.0
  0
LINE
  8
型材断面
  6
CONTINUOUS
 10
92.769997
 20
44.370552
 11
92.769997
 21
32.814033
  0
LINE
  8
型材断面
  6
CONTINUOUS
 10
92.603333
 20
32.814033
 11
92.603333
 21
44.214033
  0
LINE
  8
型材断面
  6
CONTINUOUS
 10
94.269997
 20
32.814033
 11
94.269997
 21
44.214033
  0
ARC
  8
型材断面
  6
CONTINUOUS
 62
    47
 10
96.719994
 20
44.79737
 40
0.016668
 50
90.0
 51
180.000877
  0
ARC
  8
型材断面
  6
CONTINUOUS
 62
    47
 10
96.759996
 20
44.804035
 40
0.010002
 50
0.208374
 51
90.0
  0
LINE
  8
型材断面
  6
CONTINUOUS
 62
    47
 10
96.936715
 20
44.764033
 11
96.936715
 21
43.913885
  0
LINE
  8
型材断面
  6
CONTINUOUS
 10
96.936715
 20
32.814033
 11
96.936715
 21
44.797365
  0
LINE
  8
型材断面
  6
CONTINUOUS
 10
100.253383
 20
32.814033
 11
100.253383
 21
44.797365
  0
LINE
  8
型材断面
  6
CONTINUOUS
 10
100.753383
 20
32.814033
 11
100.753383
 21
44.297365
  0
LINE
  8
型材断面
  6
CONTINUOUS
 62
    47
 10
96.703327
 20
44.79737
 11
94.596667
 21
44.79737
  0
LINE
  8
型材断面
  6
CONTINUOUS
 10
94.596667
 20
32.814033
 11
94.596667
 21
44.79737
  0
LINE
  8
型材断面
  6
CONTINUOUS
 62
    47
 10
96.936715
 20
44.797365
 11
100.253383
 21
44.797365
  0
LINE
  8
型材断面
  6
CONTINUOUS
 62
    47
 10
100.753383
 20
44.297365
 11
100.253383
 21
44.297365
  0
LINE
  8
型材断面
  6
CONTINUOUS
 62
    47
 10
94.596667
 20
43.91403
 11
94.269997
 21
43.91403
  0
LINE
  8
型材断面
  6
CONTINUOUS
 10
92.769997
 20
21.257512
 11
92.769997
 21
32.814033
  0
LINE
  8
型材断面
  6
CONTINUOUS
 10
92.603333
 20
32.814033
 11
92.603333
 21
21.414035
  0
LINE
  8
型材断面
  6
CONTINUOUS
 10
94.269997
 20
32.814033
 11
94.269997
 21
21.414035
  0
ARC
  8
型材断面
  6
CONTINUOUS
 62
    47
 10
96.719994
 20
20.830697
 40
0.016668
 50
179.999123
 51
270.0
  0
ARC
  8
型材断面
  6
CONTINUOUS
 62
    47
 10
96.759996
 20
20.824031
 40
0.010002
 50
270.0
 51
359.791626
  0
LINE
  8
型材断面
  6
CONTINUOUS
 62
    47
 10
96.936715
 20
20.864035
 11
96.936715
 21
21.714183
  0
LINE
  8
型材断面
  6
CONTINUOUS
 10
96.936715
 20
32.814033
 11
96.936715
 21
20.830703
  0
LINE
  8
型材断面
  6
CONTINUOUS
 10
100.253383
 20
32.814033
 11
100.253383
 21
20.830703
  0
LINE
  8
型材断面
  6
CONTINUOUS
 10
100.753383
 20
32.814033
 11
100.753383
 21
21.330703
  0
LINE
  8
型材断面
  6
CONTINUOUS
 62
    47
 10
96.703327
 20
20.830697
 11
94.596667
 21
20.830697
  0
LINE
  8
型材断面
  6
CONTINUOUS
 10
94.596667
 20
32.814033
 11
94.596667
 21
20.830697
  0
LINE
  8
型材断面
  6
CONTINUOUS
 62
    47
 10
96.936715
 20
20.830703
 11
100.253383
 21
20.830703
  0
LINE
  8
型材断面
  6
CONTINUOUS
 62
    47
 10
100.753383
 20
21.330703
 11
100.253383
 21
21.330703
  0
LINE
  8
型材断面
  6
CONTINUOUS
 62
    47
 10
94.596667
 20
21.714038
 11
94.269997
 21
21.714038
  0
LINE
  8
型材断面
  6
CONTINUOUS
 10
96.769997
 20
32.814033
 11
96.769997
 21
44.804035
  0
LINE
  8
型材断面
  6
CONTINUOUS
 62
    47
 10
96.719993
 20
44.814033
 11
96.759653
 21
44.814033
  0
LINE
  8
型材断面
  6
CONTINUOUS
 62
    47
 10
96.719993
 20
20.814035
 11
96.759653
 21
20.814035
  0
LINE
  8
型材断面
  6
CONTINUOUS
 10
96.769997
 20
32.814033
 11
96.769997
 21
20.824033
  0
LINE
  8
型材断面
  6
DASHDOT
 10
102.389627
 20
22.814033
 11
-78.620467
 21
22.814033
  0
LINE
  8
型材断面
  6
CONTINUOUS
 10
17.94811
 20
-60.790253
 11
7.398148
 21
-60.790253
  0
LINE
  8
型材断面
  6
CONTINUOUS
 10
-57.37047
 20
23.757512
 11
-16.537135
 21
23.757512
  0
LINE
  8
型材断面
  6
CONTINUOUS
 10
-57.37047
 20
41.870552
 11
-16.537135
 21
41.870552
  0
LINE
  8
型材断面
  6
CONTINUOUS
 10
-35.703802
 20
24.590845
 11
-35.703802
 21
41.03722
  0
LINE
  8
型材断面
  6
CONTINUOUS
 10
-38.203802
 20
24.590845
 11
-38.203802
 21
41.03722
  0
LINE
  8
型材断面
  6
CONTINUOUS
 10
6.69605
 20
32.814033
 11
6.69605
 21
20.830853
  0
LINE
  8
型材断面
  6
CONTINUOUS
 10
6.69605
 20
32.814033
 11
6.69605
 21
44.797213
  0
LINE
  8
型材断面
  6
CONTINUOUS
 10
3.769385
 20
32.397365
 11
6.269385
 21
32.397365
  0
LINE
  8
型材断面
  6
CONTINUOUS
 10
3.769385
 20
33.2307
 11
6.269385
 21
33.2307
  0
LINE
  8
型材断面
  6
CONTINUOUS
 10
6.033688
 20
21.25751
 11
6.269385
 21
21.493217
  0
LINE
  8
型材断面
  6
CONTINUOUS
 10
6.69605
 20
20.830853
 11
6.151538
 21
21.375365
  0
LINE
  8
型材断面
  6
CONTINUOUS
 10
3.769385
 20
23.993212
 11
6.269385
 21
21.493217
  0
LINE
  8
型材断面
  6
CONTINUOUS
 10
3.533683
 20
23.75751
 11
6.033685
 21
21.257512
  0
LINE
  8
型材断面
  6
CONTINUOUS
 10
3.769385
 20
32.397365
 11
3.769385
 21
23.993212
  0
LINE
  8
型材断面
  6
CONTINUOUS
 10
3.769385
 20
32.397365
 11
3.769385
 21
23.993212
  0
LINE
  8
型材断面
  6
CONTINUOUS
 10
3.769385
 20
23.993212
 11
3.533685
 21
23.757512
  0
LINE
  8
型材断面
  6
CONTINUOUS
 10
6.033688
 20
44.370555
 11
6.269385
 21
44.134848
  0
LINE
  8
型材断面
  6
CONTINUOUS
 10
6.69605
 20
44.797213
 11
6.151538
 21
44.2527
  0
LINE
  8
型材断面
  6
CONTINUOUS
 10
3.769385
 20
33.2307
 11
3.769385
 21
41.634852
  0
LINE
  8
型材断面
  6
CONTINUOUS
 10
3.533685
 20
41.870552
 11
3.769385
 21
41.634852
  0
LINE
  8
型材断面
  6
CONTINUOUS
 10
3.769385
 20
33.2307
 11
3.769385
 21
41.634852
  0
LINE
  8
型材断面
  6
CONTINUOUS
 10
6.269385
 20
21.493217
 11
6.269385
 21
44.134848
  0
LINE
  8
型材断面
  6
CONTINUOUS
 10
3.769385
 20
41.634852
 11
6.269385
 21
44.134848
  0
LINE
  8
型材断面
  6
CONTINUOUS
 10
6.269385
 20
21.493217
 11
6.269385
 21
44.134848
  0
LINE
  8
型材断面
  6
CONTINUOUS
 10
3.533683
 20
41.870555
 11
6.033685
 21
44.370552
  0
LINE
  8
型材断面
  6
CONTINUOUS
 10
-80.603655
 20
32.814033
 11
-80.603655
 21
20.830853
  0
LINE
  8
型材断面
  6
CONTINUOUS
 10
-80.603655
 20
32.814033
 11
-80.603655
 21
44.797213
  0
LINE
  8
型材断面
  6
CONTINUOUS
 10
-77.67699
 20
32.397365
 11
-80.17699
 21
32.397365
  0
LINE
  8
型材断面
  6
CONTINUOUS
 10
-77.67699
 20
33.2307
 11
-80.17699
 21
33.2307
  0
LINE
  8
型材断面
  6
CONTINUOUS
 10
-79.941292
 20
21.25751
 11
-80.17699
 21
21.493217
  0
LINE
  8
型材断面
  6
CONTINUOUS
 10
-80.603655
 20
20.830853
 11
-80.059142
 21
21.375365
  0
LINE
  8
型材断面
  6
CONTINUOUS
 10
-77.67699
 20
23.993212
 11
-80.17699
 21
21.493217
  0
LINE
  8
型材断面
  6
CONTINUOUS
 10
-77.441288
 20
23.75751
 11
-79.94129
 21
21.257512
  0
LINE
  8
型材断面
  6
CONTINUOUS
 10
-77.67699
 20
32.397365
 11
-77.67699
 21
23.993212
  0
LINE
  8
型材断面
  6
CONTINUOUS
 10
-77.67699
 20
32.397365
 11
-77.67699
 21
23.993212
  0
LINE
  8
型材断面
  6
CONTINUOUS
 10
-77.67699
 20
23.993212
 11
-77.44129
 21
23.757512
  0
LINE
  8
型材断面
  6
CONTINUOUS
 10
-79.941292
 20
44.370555
 11
-80.17699
 21
44.134848
  0
LINE
  8
型材断面
  6
CONTINUOUS
 10
-80.603655
 20
44.797213
 11
-80.059142
 21
44.2527
  0
LINE
  8
型材断面
  6
CONTINUOUS
 10
-77.67699
 20
33.2307
 11
-77.67699
 21
41.634852
  0
LINE
  8
型材断面
  6
CONTINUOUS
 10
-77.44129
 20
41.870552
 11
-77.67699
 21
41.634852
  0
LINE
  8
型材断面
  6
CONTINUOUS
 10
-77.67699
 20
33.2307
 11
-77.67699
 21
41.634852
  0
LINE
  8
型材断面
  6
CONTINUOUS
 10
-80.17699
 20
21.493217
 11
-80.17699
 21
44.134848
  0
LINE
  8
型材断面
  6
CONTINUOUS
 10
-77.67699
 20
41.634852
 11
-80.17699
 21
44.134848
  0
LINE
  8
型材断面
  6
CONTINUOUS
 10
-80.17699
 20
21.493217
 11
-80.17699
 21
44.134848
  0
LINE
  8
型材断面
  6
CONTINUOUS
 10
-77.441288
 20
41.870555
 11
-79.94129
 21
44.370552
  0
LINE
  8
型材断面
  6
CONTINUOUS
 10
-15.7038
 20
23.757512
 11
3.53368
 21
23.757512
  0
LINE
  8
型材断面
  6
CONTINUOUS
 10
-15.7038
 20
41.870552
 11
3.53368
 21
41.870552
  0
LINE
  8
型材断面
  6
CONTINUOUS
 10
-58.203805
 20
41.870552
 11
-77.441285
 21
41.870552
  0
LINE
  8
型材断面
  6
CONTINUOUS
 10
6.033685
 20
44.370552
 11
-79.94129
 21
44.370552
  0
LINE
  8
型材断面
  6
CONTINUOUS
 10
-59.32821
 20
23.757512
 11
-77.441285
 21
23.757512
  0
LINE
  8
型材断面
  6
CONTINUOUS
 10
6.033685
 20
21.257512
 11
-79.94129
 21
21.257512
  0
TEXT
  7
TextStyle03
  8
文字
  6
CONTINUOUS
 10
81.275
 20
-76.7
  1
網入り6.8t
 40
3.0
 72
     5
 11
97.9625
 21
-76.7
  0
TEXT
  7
TextStyle03
  8
文字
  6
CONTINUOUS
 10
87.95
 20
-81.375
  1
×２枚
 40
3.0
 72
     5
 11
97.7
 21
-81.375
  0
TEXT
  7
TextStyle03
  8
文字
  6
CONTINUOUS
 10
-45.175
 20
9.325
  1
可動装置側
 40
3.0
 72
     5
 11
-28.675
 21
9.325
  0
TEXT
  7
TextStyle03
  8
文字
  6
CONTINUOUS
 10
-45.175
 20
53.3
  1
可動装置側
 40
3.0
 72
     5
 11
-28.675
 21
53.3
  0
TEXT
  7
TextStyle03
  8
文字
  6
CONTINUOUS
 10
-116.675
 20
79.425
  1
はケーシング位置を示す
 40
3.0
 72
     5
 11
-79.925
 21
79.425
  0
TEXT
  7
TextStyle03
  8
文字
  6
CONTINUOUS
 10
-116.675
 20
76.05
  1
４ヶ所中1ヶ所に設定
 40
3.0
 72
     5
 11
-84.9875
 21
76.05
  0
TEXT
  7
TextStyle03
  8
文字
  6
CONTINUOUS
 10
-116.675
 20
84.95
  1
は排水穴位置を示す
 40
3.0
 72
     5
 11
-86.675
 21
84.95
  0
TEXT
  7
TextStyle03
  8
文字
  6
CONTINUOUS
 10
-99.7
 20
11.275
  1
アンカーピッチ
 40
3.0
 50
90.0
 72
     5
 11
-99.7
 21
34.525
  0
TEXT
  7
TextStyle03
  8
文字
  6
CONTINUOUS
 10
-72.0
 20
80.825
  1
アンカーピッチ
 40
3.0
 72
     5
 11
-48.75
 21
80.825
  0
TEXT
  7
TextStyle03
  8
文字
  6
CONTINUOUS
 10
-120.4
 20
70.075
  1
アンカー数量　１２ヶ所
 40
3.0
 72
     5
 11
-83.65
 21
70.075
  0
TEXT
  7
TextStyle03
  8
文字
  6
CONTINUOUS
 10
-125.4
 20
59.35
  1
※重量に依るのでご相談ください
 40
3.0
 72
     5
 11
-75.15
 21
59.35
  0
TEXT
  7
TextStyle03
  8
文字
  6
CONTINUOUS
 10
-125.4
 20
64.3
  1
アームユニット数　※２～４ヶ所
 40
3.0
 72
     5
 11
-75.15
 21
64.3
  0
LINE
  8
文字
  6
CONTINUOUS
 10
17.94811
 20
-68.123585
 11
7.398148
 21
-68.123585
  0
LINE
  8
文字
  6
CONTINUOUS
 10
17.94811
 20
-75.773635
 11
7.46323
 21
-75.773635
  0
LINE
  8
文字
  6
CONTINUOUS
 10
92.603333
 20
56.049278
 11
92.603333
 21
45.499315
  0
LINE
  8
文字
  6
CONTINUOUS
 10
100.253383
 20
56.049278
 11
100.253383
 21
45.564398
  0
LINE
  8
文字
  6
CONTINUOUS
 10
99.79942
 20
-55.638317
 11
99.79942
 21
-62.364335
  0
LINE
  8
文字
  6
CONTINUOUS
 10
59.04942
 20
-55.638317
 11
59.04942
 21
-62.364335
  0
TEXT
  7
TextStyle03
  8
文字
  6
CONTINUOUS
 10
61.6
 20
125.25
  1
シリーズ：ＴＦ２ＦＬ
 40
5.0
 72
     5
 11
117.225
 21
125.25
  0
TEXT
  7
TextStyle03
  8
文字
  6
CONTINUOUS
 10
61.6
 20
119.625
  1
　　　　　（上下可動）600×2500タイプ
 40
5.0
 72
     5
 11
165.0375
 21
119.625
  0
TEXT
  7
TextStyle03
  8
文字
  6
CONTINUOUS
 10
61.6
 20
114.0
  1
図面名　：外観姿図
 40
5.0
 72
     5
 11
111.6
 21
114.0
  0
TEXT
  7
TextStyle03
  8
文字
  6
CONTINUOUS
 10
61.6
 20
108.375
  1
　　　　　　
 40
5.0
 72
     5
 11
94.725
 21
108.375
  0
LINE
  8
文字
  6
CONTINUOUS
 10
-15.7038
 20
23.757512
 11
-15.7038
 21
21.257512
  0
LINE
  8
文字
  6
CONTINUOUS
 10
-16.537135
 20
23.757512
 11
-16.537135
 21
21.257512
  0
LINE
  8
文字
  6
CONTINUOUS
 10
-58.203805
 20
23.757512
 11
-58.203805
 21
21.257512
  0
LINE
  8
文字
  6
CONTINUOUS
 10
-57.37047
 20
23.757512
 11
-57.37047
 21
21.257512
  0
LINE
  8
文字
  6
CONTINUOUS
 10
-15.7038
 20
41.870552
 11
-15.7038
 21
44.370552
  0
LINE
  8
文字
  6
CONTINUOUS
 10
-16.537135
 20
41.870552
 11
-16.537135
 21
44.370552
  0
LINE
  8
文字
  6
CONTINUOUS
 10
-58.203805
 20
41.870552
 11
-58.203805
 21
44.370552
  0
LINE
  8
文字
  6
CONTINUOUS
 10
-57.37047
 20
41.870552
 11
-57.37047
 21
44.370552
  0
LINE
  8
文字
  6
CONTINUOUS
 10
-35.703802
 20
24.590845
 11
-38.203802
 21
24.590845
  0
LINE
  8
文字
  6
CONTINUOUS
 10
-35.703802
 20
41.03722
 11
-38.203802
 21
41.03722
  0
TEXT
  7
TextStyle03
  8
文字
  6
CONTINUOUS
 10
61.75
 20
104.525
  1
ＮＳコード：ＮＳＦＺＬ
 40
5.0
 72
     5
 11
123.0
 21
104.525
  0
INSERT
  2
*DIM_0002
  8
寸法
  6
CONTINUOUS
 10
0.0
 20
0.0
  0
INSERT
  2
*DIM_0003
  8
寸法
  6
CONTINUOUS
 10
0.0
 20
0.0
  0
INSERT
  2
*DIM_0004
  8
寸法
  6
CONTINUOUS
 10
0.0
 20
0.0
  0
INSERT
  2
*DIM_0005
  8
寸法
  6
CONTINUOUS
 10
0.0
 20
0.0
  0
INSERT
  2
*DIM_0006
  8
寸法
  6
CONTINUOUS
 10
0.0
 20
0.0
  0
INSERT
  2
*DIM_0007
  8
寸法
  6
CONTINUOUS
 10
0.0
 20
0.0
  0
INSERT
  2
*DIM_0008
  8
寸法
  6
CONTINUOUS
 10
0.0
 20
0.0
  0
INSERT
  2
*DIM_0009
  8
寸法
  6
CONTINUOUS
 10
0.0
 20
0.0
  0
INSERT
  2
*DIM_0010
  8
寸法
  6
CONTINUOUS
 10
0.0
 20
0.0
  0
INSERT
  2
*DIM_0011
  8
寸法
  6
CONTINUOUS
 10
0.0
 20
0.0
  0
INSERT
  2
*DIM_0012
  8
寸法
  6
CONTINUOUS
 10
0.0
 20
0.0
  0
INSERT
  2
*DIM_0013
  8
寸法
  6
CONTINUOUS
 10
0.0
 20
0.0
  0
INSERT
  2
*DIM_0014
  8
寸法
  6
CONTINUOUS
 10
0.0
 20
0.0
  0
INSERT
  2
*DIM_0015
  8
寸法
  6
CONTINUOUS
 10
0.0
 20
0.0
  0
INSERT
  2
*DIM_0016
  8
寸法
  6
CONTINUOUS
 10
0.0
 20
0.0
  0
INSERT
  2
*DIM_0021
  8
寸法
  6
CONTINUOUS
 10
0.0
 20
0.0
  0
INSERT
  2
*DIM_0022
  8
寸法
  6
CONTINUOUS
 10
0.0
 20
0.0
  0
INSERT
  2
*DIM_0023
  8
寸法
  6
CONTINUOUS
 10
0.0
 20
0.0
  0
LINE
  8
別途部材
  6
CONTINUOUS
 62
    47
 10
-80.176987
 20
-68.223585
 11
-80.176987
 21
-68.29025
  0
ARC
  8
別途部材
  6
CONTINUOUS
 62
    47
 10
-80.076989
 20
-68.223584
 40
0.1
 50
90.0
 51
180.0
  0
LINE
  8
別途部材
  6
CONTINUOUS
 62
    47
 10
-80.076988
 20
-68.123585
 11
-77.71032
 21
-68.123585
  0
LINE
  8
別途部材
  6
CONTINUOUS
 62
    47
 10
-80.020465
 20
-69.79025
 11
-80.020465
 21
-68.29025
  0
LINE
  8
別途部材
  6
CONTINUOUS
 62
    47
 10
6.269385
 20
-68.223585
 11
6.269385
 21
-68.29025
  0
ARC
  8
別途部材
  6
CONTINUOUS
 62
    47
 10
6.169386
 20
-68.223584
 40
0.1
 50
0.0
 51
90.0
  0
LINE
  8
別途部材
  6
CONTINUOUS
 62
    47
 10
6.169385
 20
-68.123585
 11
3.80272
 21
-68.123585
  0
LINE
  8
別途部材
  6
CONTINUOUS
 62
    47
 10
6.112865
 20
-69.79025
 11
6.112865
 21
-68.29025
  0
LINE
  8
別途部材
  6
DOT
 62
    47
 10
-80.176987
 20
-60.890253
 11
-80.176987
 21
-60.956917
  0
ARC
  8
別途部材
  6
DOT
 62
    47
 10
-80.076989
 20
-60.89025
 40
0.1
 50
90.0
 51
180.0
  0
LINE
  8
別途部材
  6
DOT
 62
    47
 10
-80.076988
 20
-60.790253
 11
-77.71032
 21
-60.790253
  0
LINE
  8
別途部材
  6
DOT
 62
    47
 10
-80.020465
 20
-62.456917
 11
-80.020465
 21
-60.956917
  0
LINE
  8
別途部材
  6
DOT
 62
    47
 10
6.269385
 20
-60.890253
 11
6.269385
 21
-60.956917
  0
ARC
  8
別途部材
  6
DOT
 62
    47
 10
6.169386
 20
-60.89025
 40
0.1
 50
0.0
 51
90.0
  0
LINE
  8
別途部材
  6
DOT
 62
    47
 10
6.169385
 20
-60.790253
 11
3.80272
 21
-60.790253
  0
LINE
  8
別途部材
  6
DOT
 62
    47
 10
6.112865
 20
-62.456917
 11
6.112865
 21
-60.956917
  0
LINE
  8
別途部材
  6
CONTINUOUS
 62
    47
 10
92.703333
 20
44.370552
 11
92.769997
 21
44.370552
  0
ARC
  8
別途部材
  6
CONTINUOUS
 62
    47
 10
92.703331
 20
44.270554
 40
0.1
 50
90.0
 51
180.0
  0
LINE
  8
別途部材
  6
CONTINUOUS
 62
    47
 10
92.603333
 20
44.270552
 11
92.603333
 21
41.903888
  0
LINE
  8
別途部材
  6
CONTINUOUS
 62
    47
 10
94.269997
 20
44.214033
 11
92.769997
 21
44.214033
  0
LINE
  8
別途部材
  6
CONTINUOUS
 62
    47
 10
92.703333
 20
21.257512
 11
92.769997
 21
21.257512
  0
ARC
  8
別途部材
  6
CONTINUOUS
 62
    47
 10
92.703331
 20
21.357512
 40
0.1
 50
180.0
 51
270.0
  0
LINE
  8
別途部材
  6
CONTINUOUS
 62
    47
 10
92.603333
 20
21.357512
 11
92.603333
 21
23.72418
  0
LINE
  8
別途部材
  6
CONTINUOUS
 62
    47
 10
94.269997
 20
21.414035
 11
92.769997
 21
21.414035
  0
LINE
  8
曲げ物
  6
CONTINUOUS
 10
99.79942
 20
-83.118728
 11
99.79942
 21
-63.785395
  0
LINE
  8
曲げ物
  6
CONTINUOUS
 10
-13.80436
 20
34.739582
 11
-17.499672
 21
31.04427
  0
LINE
  8
曲げ物
  6
CONTINUOUS
 10
-14.50783
 20
33.203472
 11
-15.96356
 21
31.747742
  0
LINE
  8
曲げ物
  6
CONTINUOUS
 10
-15.34047
 20
34.036112
 11
-16.7962
 21
32.580383
  0
LINE
  8
曲げ物
  6
CONTINUOUS
 10
-55.89622
 20
34.739582
 11
-59.591532
 21
31.04427
  0
LINE
  8
曲げ物
  6
CONTINUOUS
 10
-56.59969
 20
33.203472
 11
-58.05542
 21
31.747742
  0
LINE
  8
曲げ物
  6
CONTINUOUS
 10
-57.43233
 20
34.036112
 11
-58.88806
 21
32.580383
  0
LINE
  8
曲げ物
  6
CONTINUOUS
 10
59.04942
 20
-83.118728
 11
59.04942
 21
-63.785395
  0
LINE
  8
曲げ物
  6
CONTINUOUS
 10
99.79942
 20
-83.118728
 11
59.04942
 21
-83.118728
  0
LINE
  8
曲げ物
  6
CONTINUOUS
 10
99.79942
 20
-63.785395
 11
59.04942
 21
-63.785395
  0
ENDSEC
  0
EOF
