  0
SECTION
  2
HEADER
  9
$EXTMIN
 10
-210.0
 20
-148.5
  9
$EXTMAX
 10
210.0
 20
148.5
  9
$PDMODE
 70
    32
  9
$PDSIZE
 40
1.5
  9
$LTSCALE
 40
10.0
  0
ENDSEC
  0
SECTION
  2
TABLES
  0
TABLE
  2
LTYPE
 70
    15
  0
LTYPE
  2
CONTINUOUS
 70
    64
  3
実線
 72
    65
 73
     0
 40
0.0
  0
LTYPE
  2
DASHED
 70
    64
  3
破線A
 72
    65
 73
     2
 40
0.6
 49
0.4
 49
-0.2
  0
LTYPE
  2
DASHEDX2
 70
    64
  3
破線B
 72
    65
 73
     2
 40
1.3
 49
0.9
 49
-0.4
  0
LTYPE
  2
DASHDOT
 70
    64
  3
１点鎖線A
 72
    65
 73
     4
 40
0.5375
 49
0.375
 49
-0.05
 49
0.0625
 49
-0.05
  0
LTYPE
  2
DASHDOTX2
 70
    64
  3
１点鎖線B
 72
    65
 73
     4
 40
1.075
 49
0.75
 49
-0.1
 49
0.125
 49
-0.1
  0
LTYPE
  2
DIVIDE2
 70
    64
  3
２点鎖線A
 72
    65
 73
     6
 40
0.5125
 49
0.3
 49
-0.0375
 49
0.05
 49
-0.0375
 49
0.05
 49
-0.0375
  0
LTYPE
  2
DIVIDE
 70
    64
  3
２点鎖線B
 72
    65
 73
     6
 40
1.05
 49
0.55
 49
-0.1
 49
0.1
 49
-0.1
 49
0.1
 49
-0.1
  0
LTYPE
  2
DOT
 70
    64
  3
点線A
 72
    65
 73
     2
 40
0.1125
 49
0.0625
 49
-0.05
  0
LTYPE
  2
DOTX2
 70
    64
  3
点線B
 72
    65
 73
     2
 40
0.275
 49
0.15
 49
-0.125
  0
LTYPE
  2
CONTINUOUS
 70
    64
  3
実線
 72
    65
 73
     0
 40
0.0
  0
LTYPE
  2
CONTINUOUS
 70
    64
  3
実線
 72
    65
 73
     0
 40
0.0
  0
LTYPE
  2
CONTINUOUS
 70
    64
  3
実線
 72
    65
 73
     0
 40
0.0
  0
LTYPE
  2
CONTINUOUS
 70
    64
  3
実線
 72
    65
 73
     0
 40
0.0
  0
LTYPE
  2
CONTINUOUS
 70
    64
  3
実線
 72
    65
 73
     0
 40
0.0
  0
LTYPE
  2
CONTINUOUS
 70
    64
  3
実線
 72
    65
 73
     0
 40
0.0
  0
ENDTAB
  0
TABLE
  2
LAYER
 70
    34
  0
LAYER
  2
通り芯
 70
     0
 62
    15
  6
CONTINUOUS
  0
LAYER
  2
補助線
 70
     0
 62
    16
  6
DOT
  0
LAYER
  2
躯体
 70
     0
 62
    31
  6
CONTINUOUS
  0
LAYER
  2
型材
 70
     0
 62
    32
  6
CONTINUOUS
  0
LAYER
  2
型材断面
 70
     0
 62
    47
  6
CONTINUOUS
  0
LAYER
  2
ガラス
 70
     0
 62
    48
  6
CONTINUOUS
  0
LAYER
  2
ゴム等
 70
     0
 62
    63
  6
CONTINUOUS
  0
LAYER
  2
ボルト／ビス
 70
     0
 62
    64
  6
CONTINUOUS
  0
LAYER
  2
文字
 70
     0
 62
    79
  6
CONTINUOUS
  0
LAYER
  2
寸法
 70
     0
 62
    80
  6
CONTINUOUS
  0
LAYER
  2
ﾊｯﾁﾝｸﾞ
 70
     0
 62
    95
  6
CONTINUOUS
  0
LAYER
  2
別途部材
 70
     0
 62
    96
  6
CONTINUOUS
  0
LAYER
  2
曲げ物
 70
     0
 62
   111
  6
CONTINUOUS
  0
LAYER
  2
鉄骨等
 70
     0
 62
   112
  6
CONTINUOUS
  0
LAYER
  2
St
 70
     0
 62
   127
  6
CONTINUOUS
  0
LAYER
  2
その他部品等
 70
     0
 62
   128
  6
CONTINUOUS
  0
LAYER
  2
ｶﾞｽｹｯﾄ
 70
     0
 62
   143
  6
CONTINUOUS
  0
LAYER
  2
ｽｹｯﾁ
 70
     0
 62
    14
  6
CONTINUOUS
  0
LAYER
  2
0
 70
     0
 62
    17
  6
CONTINUOUS
  0
LAYER
  2
1
 70
     0
 62
    30
  6
CONTINUOUS
  0
LAYER
  2
4
 70
     0
 62
    33
  6
CONTINUOUS
  0
LAYER
  2
ﾚｲﾔ3
 70
     0
 62
    46
  6
CONTINUOUS
  0
LAYER
  2
外形線
 70
     0
 62
    49
  6
CONTINUOUS
  0
LAYER
  2
部品
 70
     0
 62
    14
  6
CONTINUOUS
  0
LAYER
  2
サッシ芯
 70
     0
 62
    17
  6
DASHDOTX2
  0
LAYER
  2
寸法線
 70
     0
 62
    62
  6
CONTINUOUS
  0
LAYER
  2
姿図外形線
 70
     0
 62
    65
  6
CONTINUOUS
  0
LAYER
  2
姿補助線
 70
     0
 62
    30
  6
CONTINUOUS
  0
LAYER
  2
透視線
 70
     0
 62
    78
  6
DOT
  0
LAYER
  2
用紙
 70
     0
 62
    81
  6
CONTINUOUS
  0
LAYER
  2
実線図枠
 70
     0
 62
    94
  6
CONTINUOUS
  0
LAYER
  2
補助図枠
 70
     0
 62
    97
  6
CONTINUOUS
  0
LAYER
  2
建具記号
 70
     0
 62
   110
  6
CONTINUOUS
  0
LAYER
  2
補助文字
 70
     0
 62
   113
  6
CONTINUOUS
  0
ENDTAB
  0
TABLE
  2
STYLE
 70
    10
  0
STYLE
  2
STANDARD
 70
     0
 40
1.0
 41
1.0
 42
1.0
 50
0.0
 71
     0
  3
TXT
  4
BIGFONT
  0
STYLE
  2
TATE
 70
     4
 40
1.0
 41
1.0
 42
1.0
 50
0.0
 71
     0
  3
TXT
  4
BIGFONT
  0
STYLE
  2
TextStyle03
 70
     0
 40
1.0
 41
1.0
 42
1.0
 50
0.0
 71
     0
  3
MONOTXT
  4
BIGFONT
  0
STYLE
  2
TextStyle04
 70
     0
 40
1.0
 41
1.0
 42
1.0
 50
0.0
 71
     0
  3
MONOTXT
  4
BIGFONT
  0
STYLE
  2
TextStyle05
 70
     0
 40
1.0
 41
1.0
 42
1.0
 50
0.0
 71
     0
  3
MONOTXT
  4
BIGFONT
  0
STYLE
  2
TextStyle06
 70
     0
 40
1.0
 41
1.0
 42
1.0
 50
0.0
 71
     0
  3
MONOTXT
  4
BIGFONT
  0
STYLE
  2
TextStyle07
 70
     0
 40
1.0
 41
1.0
 42
1.0
 50
0.0
 71
     0
  3
MONOTXT
  4
BIGFONT
  0
STYLE
  2
TextStyle08
 70
     0
 40
1.0
 41
1.0
 42
1.0
 50
0.0
 71
     0
  3
MONOTXT
  4
BIGFONT
  0
STYLE
  2
TextStyle09
 70
     0
 40
1.0
 41
1.0
 42
1.0
 50
0.0
 71
     0
  3
MONOTXT
  4
BIGFONT
  0
STYLE
  2
TextStyle10
 70
     0
 40
1.0
 41
1.0
 42
1.0
 50
0.0
 71
     0
  3
MONOTXT
  4
BIGFONT
  0
ENDTAB
  0
ENDSEC
  0
SECTION
  2
BLOCKS
  0
BLOCK
  2
*GRP_0001
 70
    65
 10
0.0
 20
0.0
  0
LINE
  8
型材断面
  6
CONTINUOUS
 10
195.0
 20
133.5
 11
195.0
 21
-133.5
  0
LINE
  8
型材断面
  6
CONTINUOUS
 10
195.0
 20
-133.5
 11
-185.0
 21
-133.5
  0
LINE
  8
型材断面
  6
CONTINUOUS
 10
-185.0
 20
-133.5
 11
-185.0
 21
133.5
  0
LINE
  8
型材断面
  6
CONTINUOUS
 10
195.0
 20
133.5
 11
-185.0
 21
133.5
  0
LINE
  8
型材断面
  6
CONTINUOUS
 10
145.0
 20
-133.5
 11
145.0
 21
-118.5
  0
LINE
  8
型材断面
  6
CONTINUOUS
 10
195.0
 20
-118.5
 11
145.0
 21
-118.5
  0
ENDBLK
  0
BLOCK
  2
*DIM_0002
 70
    65
 10
0.0
 20
0.0
  0
LINE
  8
寸法
  6
BYBLOCK
 62
     0
 10
100.79942
 20
-63.785395
 11
108.91095
 21
-63.785395
  0
LINE
  8
寸法
  6
BYBLOCK
 62
     0
 10
100.79942
 20
-83.118728
 11
108.91095
 21
-83.118728
  0
LINE
  8
寸法
  6
BYBLOCK
 62
     0
 10
108.91095
 20
-63.785395
 11
108.91095
 21
-83.118728
  0
POINT
  8
寸法
 62
     0
 10
108.91095
 20
-63.785395
  0
POINT
  8
寸法
 62
     0
 10
108.91095
 20
-83.118728
  0
TEXT
  7
TextStyle03
  8
寸法
  6
CONTINUOUS
 62
     0
 10
108.525
 20
-75.9125
  1
580
 40
3.0
 50
90.0
 72
     5
 11
108.525
 21
-71.0375
  0
ENDBLK
  0
BLOCK
  2
*DIM_0003
 70
    65
 10
0.0
 20
0.0
  0
LINE
  8
寸法
  6
BYBLOCK
 62
     0
 10
4.712865
 20
-13.121378
 11
-95.287135
 21
-13.121378
  0
POINT
  8
寸法
 62
     0
 10
4.712865
 20
-13.121378
  0
POINT
  8
寸法
 62
     0
 10
-95.287135
 20
-13.121378
  0
TEXT
  7
TextStyle03
  8
寸法
  6
CONTINUOUS
 62
     0
 10
-57.01875
 20
-12.75
  1
呼称寸法　3000
 40
3.0
 72
     5
 11
-33.58125
 21
-12.75
  0
ENDBLK
  0
BLOCK
  2
*DIM_0004
 70
    65
 10
0.0
 20
0.0
  0
LINE
  8
寸法
  6
BYBLOCK
 62
     0
 10
-78.620467
 20
19.183902
 11
-78.620467
 21
14.10329
  0
LINE
  8
寸法
  6
BYBLOCK
 62
     0
 10
-11.953802
 20
19.183902
 11
-11.953802
 21
14.10329
  0
LINE
  8
寸法
  6
BYBLOCK
 62
     0
 10
-78.620467
 20
14.10329
 11
-11.953802
 21
14.10329
  0
POINT
  8
寸法
 62
     0
 10
-78.620467
 20
14.10329
  0
POINT
  8
寸法
 62
     0
 10
-11.953802
 20
14.10329
  0
TEXT
  7
TextStyle03
  8
寸法
  6
CONTINUOUS
 62
     0
 10
-48.55625
 20
14.475
  1
2000
 40
3.0
 72
     5
 11
-41.99375
 21
14.475
  0
ENDBLK
  0
BLOCK
  2
*DIM_0005
 70
    65
 10
0.0
 20
0.0
  0
LINE
  8
寸法
  6
BYBLOCK
 62
     0
 10
5.712865
 20
42.814035
 11
15.437147
 21
42.814035
  0
LINE
  8
寸法
  6
BYBLOCK
 62
     0
 10
8.342995
 20
39.114035
 11
15.437147
 21
39.114035
  0
LINE
  8
寸法
  6
BYBLOCK
 62
     0
 10
15.437147
 20
42.814035
 11
15.437147
 21
39.114035
  0
POINT
  8
寸法
 62
     0
 10
15.437147
 20
42.814035
  0
POINT
  8
寸法
 62
     0
 10
15.437147
 20
39.114035
  0
TEXT
  7
TextStyle03
  8
寸法
  6
CONTINUOUS
 62
     0
 10
15.125
 20
43.8125
  1
111
 40
3.0
 50
90.0
 72
     5
 11
15.125
 21
48.6875
  0
ENDBLK
  0
BLOCK
  2
*DIM_0006
 70
    65
 10
0.0
 20
0.0
  0
LINE
  8
寸法
  6
BYBLOCK
 62
     0
 10
5.712865
 20
22.81403
 11
15.437147
 21
22.814027
  0
LINE
  8
寸法
  6
BYBLOCK
 62
     0
 10
8.342995
 20
26.51403
 11
15.437147
 21
26.514027
  0
LINE
  8
寸法
  6
BYBLOCK
 62
     0
 10
15.437147
 20
22.814027
 11
15.437147
 21
26.514027
  0
POINT
  8
寸法
 62
     0
 10
15.437147
 20
22.814027
  0
POINT
  8
寸法
 62
     0
 10
15.437147
 20
26.514027
  0
TEXT
  7
TextStyle03
  8
寸法
  6
CONTINUOUS
 62
     0
 10
15.45
 20
16.5625
  1
111
 40
3.0
 50
90.0
 72
     5
 11
15.45
 21
21.4375
  0
ENDBLK
  0
BLOCK
  2
*DIM_0007
 70
    65
 10
0.0
 20
0.0
  0
LINE
  8
寸法
  6
BYBLOCK
 62
     0
 10
38.732515
 20
22.814033
 11
38.732515
 21
42.814033
  0
POINT
  8
寸法
 62
     0
 10
38.732515
 20
22.814033
  0
POINT
  8
寸法
 62
     0
 10
38.732515
 20
42.814033
  0
TEXT
  7
TextStyle03
  8
寸法
  6
CONTINUOUS
 62
     0
 10
38.375
 20
21.925
  1
呼称寸法　600
 40
3.0
 50
90.0
 72
     5
 11
38.375
 21
43.675
  0
ENDBLK
  0
BLOCK
  2
*DIM_0008
 70
    65
 10
0.0
 20
0.0
  0
LINE
  8
寸法
  6
BYBLOCK
 62
     0
 10
92.62291
 20
44.79737
 11
38.732515
 21
44.79737
  0
LINE
  8
寸法
  6
BYBLOCK
 62
     0
 10
38.732515
 20
42.814033
 11
38.732515
 21
44.79737
  0
POINT
  8
寸法
 62
     0
 10
38.732515
 20
42.814033
  0
POINT
  8
寸法
 62
     0
 10
38.732515
 20
44.79737
  0
TEXT
  7
TextStyle03
  8
寸法
  6
CONTINUOUS
 62
     0
 10
38.35
 20
47.26875
  1
59.5
 40
3.0
 50
90.0
 72
     5
 11
38.35
 21
53.83125
  0
ENDBLK
  0
BLOCK
  2
*DIM_0009
 70
    65
 10
0.0
 20
0.0
  0
LINE
  8
寸法
  6
BYBLOCK
 62
     0
 10
92.62291
 20
20.830703
 11
38.732515
 21
20.830703
  0
LINE
  8
寸法
  6
BYBLOCK
 62
     0
 10
38.732515
 20
22.814033
 11
38.732515
 21
20.830703
  0
POINT
  8
寸法
 62
     0
 10
38.732515
 20
22.814033
  0
POINT
  8
寸法
 62
     0
 10
38.732515
 20
20.830703
  0
TEXT
  7
TextStyle03
  8
寸法
  6
CONTINUOUS
 62
     0
 10
38.35
 20
11.76875
  1
59.5
 40
3.0
 50
90.0
 72
     5
 11
38.35
 21
18.33125
  0
ENDBLK
  0
BLOCK
  2
*DIM_0010
 70
    65
 10
0.0
 20
0.0
  0
LINE
  8
寸法
  6
BYBLOCK
 62
     0
 10
6.696198
 20
-61.253063
 11
6.696198
 21
-13.121378
  0
LINE
  8
寸法
  6
BYBLOCK
 62
     0
 10
4.712865
 20
-13.121378
 11
6.696198
 21
-13.121378
  0
POINT
  8
寸法
 62
     0
 10
4.712865
 20
-13.121378
  0
POINT
  8
寸法
 62
     0
 10
6.696198
 20
-13.121378
  0
TEXT
  7
TextStyle03
  8
寸法
  6
CONTINUOUS
 62
     0
 10
9.16875
 20
-12.75
  1
59.5
 40
3.0
 72
     5
 11
15.73125
 21
-12.75
  0
ENDBLK
  0
BLOCK
  2
*DIM_0011
 70
    65
 10
0.0
 20
0.0
  0
LINE
  8
寸法
  6
BYBLOCK
 62
     0
 10
-97.270467
 20
-61.253063
 11
-97.270467
 21
-13.121378
  0
LINE
  8
寸法
  6
BYBLOCK
 62
     0
 10
-95.287135
 20
-13.121378
 11
-97.270467
 21
-13.121378
  0
POINT
  8
寸法
 62
     0
 10
-95.287135
 20
-13.121378
  0
POINT
  8
寸法
 62
     0
 10
-97.270467
 20
-13.121378
  0
TEXT
  7
TextStyle03
  8
寸法
  6
CONTINUOUS
 62
     0
 10
-106.33125
 20
-12.75
  1
59.5
 40
3.0
 72
     5
 11
-99.76875
 21
-12.75
  0
ENDBLK
  0
BLOCK
  2
*DIM_0012
 70
    65
 10
0.0
 20
0.0
  0
LINE
  8
寸法
  6
BYBLOCK
 62
     0
 10
-98.287135
 20
39.4807
 11
-111.579972
 21
39.4807
  0
LINE
  8
寸法
  6
BYBLOCK
 62
     0
 10
-98.287135
 20
26.147365
 11
-111.579972
 21
26.147365
  0
LINE
  8
寸法
  6
BYBLOCK
 62
     0
 10
-111.579972
 20
39.4807
 11
-111.579972
 21
26.147365
  0
POINT
  8
寸法
 62
     0
 10
-111.579972
 20
39.4807
  0
POINT
  8
寸法
 62
     0
 10
-111.579972
 20
26.147365
  0
TEXT
  7
TextStyle03
  8
寸法
  6
CONTINUOUS
 62
     0
 10
-112.0
 20
30.3625
  1
400
 40
3.0
 50
90.0
 72
     5
 11
-112.0
 21
35.2375
  0
ENDBLK
  0
BLOCK
  2
*DIM_0013
 70
    65
 10
0.0
 20
0.0
  0
LINE
  8
寸法
  6
BYBLOCK
 62
     0
 10
-85.287135
 20
45.814033
 11
-85.287135
 21
74.922105
  0
LINE
  8
寸法
  6
BYBLOCK
 62
     0
 10
-58.620467
 20
45.814033
 11
-58.620467
 21
74.922105
  0
LINE
  8
寸法
  6
BYBLOCK
 62
     0
 10
-85.287135
 20
74.922105
 11
-58.620467
 21
74.922105
  0
POINT
  8
寸法
 62
     0
 10
-85.287135
 20
74.922105
  0
POINT
  8
寸法
 62
     0
 10
-58.620467
 20
74.922105
  0
TEXT
  7
TextStyle03
  8
寸法
  6
CONTINUOUS
 62
     0
 10
-74.4125
 20
75.275
  1
800
 40
3.0
 72
     5
 11
-69.5375
 21
75.275
  0
ENDBLK
  0
BLOCK
  2
*DIM_0014
 70
    65
 10
0.0
 20
0.0
  0
LINE
  8
寸法
  6
BYBLOCK
 62
     0
 10
-31.953802
 20
45.814033
 11
-31.953802
 21
74.922105
  0
LINE
  8
寸法
  6
BYBLOCK
 62
     0
 10
-58.620467
 20
74.922105
 11
-31.953802
 21
74.922105
  0
POINT
  8
寸法
 62
     0
 10
-31.953802
 20
74.922105
  0
TEXT
  7
TextStyle03
  8
寸法
  6
CONTINUOUS
 62
     0
 10
-47.7375
 20
75.275
  1
800
 40
3.0
 72
     5
 11
-42.8625
 21
75.275
  0
ENDBLK
  0
BLOCK
  2
*DIM_0015
 70
    65
 10
0.0
 20
0.0
  0
LINE
  8
寸法
  6
BYBLOCK
 62
     0
 10
-5.287135
 20
45.814033
 11
-5.287135
 21
74.922105
  0
LINE
  8
寸法
  6
BYBLOCK
 62
     0
 10
-31.953802
 20
74.922105
 11
-5.287135
 21
74.922105
  0
POINT
  8
寸法
 62
     0
 10
-5.287135
 20
74.922105
  0
TEXT
  7
TextStyle03
  8
寸法
  6
CONTINUOUS
 62
     0
 10
-21.0625
 20
75.275
  1
800
 40
3.0
 72
     5
 11
-16.1875
 21
75.275
  0
ENDBLK
  0
BLOCK
  2
*DIM_0016
 70
    65
 10
0.0
 20
0.0
  0
LINE
  8
寸法
  6
CONTINUOUS
 10
92.751763
 20
56.049278
 11
100.401813
 21
56.049278
  0
POINT
  8
寸法
 10
92.751763
 20
56.049278
  0
POINT
  8
寸法
 10
100.401813
 20
56.049278
  0
TEXT
  7
TextStyle03
  8
寸法
  6
CONTINUOUS
 10
92.5
 20
56.4
  1
229.5
 40
3.0
 72
     5
 11
100.75
 21
56.4
  0
ENDBLK
  0
BLOCK
  2
*DIM_0017
 70
    65
 10
0.0
 20
0.0
  0
LINE
  8
寸法
  6
CONTINUOUS
 10
17.94811
 20
-68.050148
 11
17.94811
 21
-75.700198
  0
POINT
  8
寸法
 10
17.94811
 20
-68.050148
  0
POINT
  8
寸法
 10
17.94811
 20
-75.700198
  0
TEXT
  7
TextStyle03
  8
寸法
  6
CONTINUOUS
 10
21.8
 20
-76.15
  1
229.5
 40
3.0
 50
90.0
 72
     5
 11
21.8
 21
-67.9
  0
ENDBLK
  0
BLOCK
  2
*GRP_0018
 70
    65
 10
0.0
 20
0.0
  0
LINE
  8
補助線
  6
BYBLOCK
 62
    64
 10
-91.879335
 20
-73.589452
 11
-92.02826
 21
-73.664278
  0
LINE
  8
補助線
  6
BYBLOCK
 62
    64
 10
-91.99121
 20
-73.5524
 11
-91.916385
 21
-73.701328
  0
LINE
  8
補助線
  6
BYBLOCK
 62
    64
 10
-81.960855
 20
-68.606095
 11
-82.109782
 21
-68.68092
  0
LINE
  8
補助線
  6
BYBLOCK
 62
    64
 10
-82.072732
 20
-68.569042
 11
-81.997908
 21
-68.71797
  0
LINE
  8
補助線
  6
BYBLOCK
 62
    64
 10
-72.191305
 20
-63.697563
 11
-72.042378
 21
-63.622738
  0
LINE
  8
補助線
  6
BYBLOCK
 62
    64
 10
-72.154255
 20
-63.585685
 11
-72.07943
 21
-63.734613
  0
LINE
  8
型材断面
  6
CONTINUOUS
 10
-92.625775
 20
-73.031887
 11
-92.848078
 21
-73.70314
  0
LINE
  8
型材断面
  6
CONTINUOUS
 10
-92.848078
 20
-73.70314
 11
-92.548775
 21
-74.298845
  0
LINE
  8
型材断面
  6
CONTINUOUS
 10
-92.548775
 20
-74.298845
 11
-91.877523
 21
-74.521148
  0
LINE
  8
型材断面
  6
CONTINUOUS
 10
-72.193117
 20
-62.76587
 11
-71.521863
 21
-62.988173
  0
LINE
  8
型材断面
  6
CONTINUOUS
 10
-71.521863
 20
-62.988173
 11
-71.22256
 21
-63.583878
  0
LINE
  8
型材断面
  6
CONTINUOUS
 10
-71.22256
 20
-63.583878
 11
-71.444865
 21
-64.25513
  0
LINE
  8
型材断面
  6
CONTINUOUS
 10
-92.625775
 20
-73.031887
 11
-72.193117
 21
-62.76587
  0
LINE
  8
型材断面
  6
CONTINUOUS
 10
-91.877523
 20
-74.521148
 11
-71.444865
 21
-64.25513
  0
CIRCLE
  8
ボルト／ビス
  6
CONTINUOUS
 10
-91.953798
 20
-73.626865
 40
0.250185
  0
CIRCLE
  8
ボルト／ビス
  6
CONTINUOUS
 10
-91.953798
 20
-73.626865
 40
0.301025
  0
LINE
  8
ボルト／ビス
  6
CONTINUOUS
 62
    64
 10
-92.203563
 20
-73.612363
 11
-92.066118
 21
-73.403312
  0
LINE
  8
ボルト／ビス
  6
CONTINUOUS
 62
    64
 10
-91.816352
 20
-73.417815
 11
-92.066118
 21
-73.403312
  0
LINE
  8
ボルト／ビス
  6
CONTINUOUS
 62
    64
 10
-92.091243
 20
-73.835915
 11
-91.841478
 21
-73.850418
  0
LINE
  8
ボルト／ビス
  6
CONTINUOUS
 62
    64
 10
-91.704032
 20
-73.641367
 11
-91.841478
 21
-73.850418
  0
LINE
  8
ボルト／ビス
  6
CONTINUOUS
 62
    64
 10
-92.203563
 20
-73.612363
 11
-92.091243
 21
-73.835915
  0
LINE
  8
ボルト／ビス
  6
CONTINUOUS
 62
    64
 10
-91.816352
 20
-73.417815
 11
-91.704032
 21
-73.641367
  0
CIRCLE
  8
ボルト／ビス
  6
CONTINUOUS
 62
    64
 10
-91.953798
 20
-73.626865
 40
0.216668
  0
CIRCLE
  8
ボルト／ビス
  6
CONTINUOUS
 10
-82.03532
 20
-68.643508
 40
0.250185
  0
CIRCLE
  8
ボルト／ビス
  6
CONTINUOUS
 10
-82.03532
 20
-68.643508
 40
0.301025
  0
LINE
  8
ボルト／ビス
  6
CONTINUOUS
 62
    64
 10
-82.285085
 20
-68.629003
 11
-82.14764
 21
-68.419952
  0
LINE
  8
ボルト／ビス
  6
CONTINUOUS
 62
    64
 10
-81.897875
 20
-68.434455
 11
-82.14764
 21
-68.419952
  0
LINE
  8
ボルト／ビス
  6
CONTINUOUS
 62
    64
 10
-82.172765
 20
-68.852557
 11
-81.922998
 21
-68.867062
  0
LINE
  8
ボルト／ビス
  6
CONTINUOUS
 62
    64
 10
-81.785555
 20
-68.658013
 11
-81.922998
 21
-68.867062
  0
LINE
  8
ボルト／ビス
  6
CONTINUOUS
 62
    64
 10
-82.285085
 20
-68.629003
 11
-82.172765
 21
-68.852557
  0
LINE
  8
ボルト／ビス
  6
CONTINUOUS
 62
    64
 10
-81.897875
 20
-68.434455
 11
-81.785555
 21
-68.658013
  0
CIRCLE
  8
ボルト／ビス
  6
CONTINUOUS
 62
    64
 10
-82.03532
 20
-68.643508
 40
0.216668
  0
CIRCLE
  8
ボルト／ビス
  6
CONTINUOUS
 10
-72.116842
 20
-63.66015
 40
0.250185
  0
CIRCLE
  8
ボルト／ビス
  6
CONTINUOUS
 10
-72.116842
 20
-63.66015
 40
0.301025
  0
LINE
  8
ボルト／ビス
  6
CONTINUOUS
 62
    64
 10
-71.979397
 20
-63.4511
 11
-72.229162
 21
-63.436597
  0
LINE
  8
ボルト／ビス
  6
CONTINUOUS
 62
    64
 10
-72.366608
 20
-63.645647
 11
-72.229162
 21
-63.436597
  0
LINE
  8
ボルト／ビス
  6
CONTINUOUS
 62
    64
 10
-71.867077
 20
-63.674655
 11
-72.00452
 21
-63.883702
  0
LINE
  8
ボルト／ビス
  6
CONTINUOUS
 62
    64
 10
-72.254288
 20
-63.8692
 11
-72.00452
 21
-63.883702
  0
LINE
  8
ボルト／ビス
  6
CONTINUOUS
 62
    64
 10
-71.979397
 20
-63.4511
 11
-71.867077
 21
-63.674655
  0
LINE
  8
ボルト／ビス
  6
CONTINUOUS
 62
    64
 10
-72.366608
 20
-63.645647
 11
-72.254288
 21
-63.8692
  0
CIRCLE
  8
ボルト／ビス
  6
CONTINUOUS
 62
    64
 10
-72.116842
 20
-63.66015
 40
0.216668
  0
ENDBLK
  0
BLOCK
  2
*GRP_0019
 70
    65
 10
0.0
 20
0.0
  0
LINE
  8
補助線
  6
BYBLOCK
 62
    64
 10
-72.191305
 20
-73.589452
 11
-72.04238
 21
-73.664278
  0
LINE
  8
補助線
  6
BYBLOCK
 62
    64
 10
-72.07943
 20
-73.5524
 11
-72.154255
 21
-73.701328
  0
LINE
  8
補助線
  6
BYBLOCK
 62
    64
 10
-82.109785
 20
-68.606095
 11
-81.960858
 21
-68.68092
  0
LINE
  8
補助線
  6
BYBLOCK
 62
    64
 10
-81.997908
 20
-68.569042
 11
-82.072732
 21
-68.71797
  0
LINE
  8
補助線
  6
BYBLOCK
 62
    64
 10
-91.879335
 20
-63.697563
 11
-92.028262
 21
-63.622738
  0
LINE
  8
補助線
  6
BYBLOCK
 62
    64
 10
-91.916385
 20
-63.585685
 11
-91.99121
 21
-63.734613
  0
LINE
  8
型材断面
  6
CONTINUOUS
 10
-71.444865
 20
-73.031887
 11
-71.222563
 21
-73.70314
  0
LINE
  8
型材断面
  6
CONTINUOUS
 10
-71.222563
 20
-73.70314
 11
-71.521865
 21
-74.298845
  0
LINE
  8
型材断面
  6
CONTINUOUS
 10
-71.521865
 20
-74.298845
 11
-72.193117
 21
-74.521148
  0
LINE
  8
型材断面
  6
CONTINUOUS
 10
-91.877523
 20
-62.76587
 11
-92.548777
 21
-62.988173
  0
LINE
  8
型材断面
  6
CONTINUOUS
 10
-92.548777
 20
-62.988173
 11
-92.84808
 21
-63.583878
  0
LINE
  8
型材断面
  6
CONTINUOUS
 10
-92.84808
 20
-63.583878
 11
-92.625775
 21
-64.25513
  0
LINE
  8
型材断面
  6
CONTINUOUS
 10
-71.444865
 20
-73.031887
 11
-91.877523
 21
-62.76587
  0
LINE
  8
型材断面
  6
CONTINUOUS
 10
-72.193117
 20
-74.521148
 11
-92.625775
 21
-64.25513
  0
CIRCLE
  8
ボルト／ビス
  6
CONTINUOUS
 10
-72.116842
 20
-73.626865
 40
0.250185
  0
CIRCLE
  8
ボルト／ビス
  6
CONTINUOUS
 10
-72.116842
 20
-73.626865
 40
0.301025
  0
LINE
  8
ボルト／ビス
  6
CONTINUOUS
 62
    64
 10
-71.867077
 20
-73.612363
 11
-72.004522
 21
-73.403312
  0
LINE
  8
ボルト／ビス
  6
CONTINUOUS
 62
    64
 10
-72.254288
 20
-73.417815
 11
-72.004522
 21
-73.403312
  0
LINE
  8
ボルト／ビス
  6
CONTINUOUS
 62
    64
 10
-71.979397
 20
-73.835915
 11
-72.229162
 21
-73.850418
  0
LINE
  8
ボルト／ビス
  6
CONTINUOUS
 62
    64
 10
-72.366608
 20
-73.641367
 11
-72.229162
 21
-73.850418
  0
LINE
  8
ボルト／ビス
  6
CONTINUOUS
 62
    64
 10
-71.867077
 20
-73.612363
 11
-71.979397
 21
-73.835915
  0
LINE
  8
ボルト／ビス
  6
CONTINUOUS
 62
    64
 10
-72.254288
 20
-73.417815
 11
-72.366608
 21
-73.641367
  0
CIRCLE
  8
ボルト／ビス
  6
CONTINUOUS
 62
    64
 10
-72.116842
 20
-73.626865
 40
0.216668
  0
CIRCLE
  8
ボルト／ビス
  6
CONTINUOUS
 10
-82.03532
 20
-68.643508
 40
0.250185
  0
CIRCLE
  8
ボルト／ビス
  6
CONTINUOUS
 10
-82.03532
 20
-68.643508
 40
0.301025
  0
LINE
  8
ボルト／ビス
  6
CONTINUOUS
 62
    64
 10
-81.785555
 20
-68.629003
 11
-81.923
 21
-68.419952
  0
LINE
  8
ボルト／ビス
  6
CONTINUOUS
 62
    64
 10
-82.172765
 20
-68.434455
 11
-81.923
 21
-68.419952
  0
LINE
  8
ボルト／ビス
  6
CONTINUOUS
 62
    64
 10
-81.897875
 20
-68.852557
 11
-82.147642
 21
-68.867062
  0
LINE
  8
ボルト／ビス
  6
CONTINUOUS
 62
    64
 10
-82.285085
 20
-68.658013
 11
-82.147642
 21
-68.867062
  0
LINE
  8
ボルト／ビス
  6
CONTINUOUS
 62
    64
 10
-81.785555
 20
-68.629003
 11
-81.897875
 21
-68.852557
  0
LINE
  8
ボルト／ビス
  6
CONTINUOUS
 62
    64
 10
-82.172765
 20
-68.434455
 11
-82.285085
 21
-68.658013
  0
CIRCLE
  8
ボルト／ビス
  6
CONTINUOUS
 62
    64
 10
-82.03532
 20
-68.643508
 40
0.216668
  0
CIRCLE
  8
ボルト／ビス
  6
CONTINUOUS
 10
-91.953798
 20
-63.66015
 40
0.250185
  0
CIRCLE
  8
ボルト／ビス
  6
CONTINUOUS
 10
-91.953798
 20
-63.66015
 40
0.301025
  0
LINE
  8
ボルト／ビス
  6
CONTINUOUS
 62
    64
 10
-92.091243
 20
-63.4511
 11
-91.841478
 21
-63.436597
  0
LINE
  8
ボルト／ビス
  6
CONTINUOUS
 62
    64
 10
-91.704032
 20
-63.645647
 11
-91.841478
 21
-63.436597
  0
LINE
  8
ボルト／ビス
  6
CONTINUOUS
 62
    64
 10
-92.203563
 20
-63.674655
 11
-92.06612
 21
-63.883702
  0
LINE
  8
ボルト／ビス
  6
CONTINUOUS
 62
    64
 10
-91.816352
 20
-63.8692
 11
-92.06612
 21
-63.883702
  0
LINE
  8
ボルト／ビス
  6
CONTINUOUS
 62
    64
 10
-92.091243
 20
-63.4511
 11
-92.203563
 21
-63.674655
  0
LINE
  8
ボルト／ビス
  6
CONTINUOUS
 62
    64
 10
-91.704032
 20
-63.645647
 11
-91.816352
 21
-63.8692
  0
CIRCLE
  8
ボルト／ビス
  6
CONTINUOUS
 62
    64
 10
-91.953798
 20
-63.66015
 40
0.216668
  0
ENDBLK
  0
BLOCK
  2
*GRP_0020
 70
    65
 10
0.0
 20
0.0
  0
LINE
  8
補助線
  6
BYBLOCK
 62
    64
 10
1.305075
 20
-73.589452
 11
1.454
 21
-73.664278
  0
LINE
  8
補助線
  6
BYBLOCK
 62
    64
 10
1.41695
 20
-73.5524
 11
1.342125
 21
-73.701328
  0
LINE
  8
補助線
  6
BYBLOCK
 62
    64
 10
-8.613405
 20
-68.606095
 11
-8.464477
 21
-68.68092
  0
LINE
  8
補助線
  6
BYBLOCK
 62
    64
 10
-8.501527
 20
-68.569042
 11
-8.576353
 21
-68.71797
  0
LINE
  8
補助線
  6
BYBLOCK
 62
    64
 10
-18.382955
 20
-63.697563
 11
-18.531883
 21
-63.622738
  0
LINE
  8
補助線
  6
BYBLOCK
 62
    64
 10
-18.420005
 20
-63.585685
 11
-18.49483
 21
-63.734613
  0
LINE
  8
型材断面
  6
CONTINUOUS
 10
2.051515
 20
-73.031887
 11
2.273818
 21
-73.70314
  0
LINE
  8
型材断面
  6
CONTINUOUS
 10
2.273818
 20
-73.70314
 11
1.974515
 21
-74.298845
  0
LINE
  8
型材断面
  6
CONTINUOUS
 10
1.974515
 20
-74.298845
 11
1.303262
 21
-74.521148
  0
LINE
  8
型材断面
  6
CONTINUOUS
 10
-18.381142
 20
-62.76587
 11
-19.052398
 21
-62.988173
  0
LINE
  8
型材断面
  6
CONTINUOUS
 10
-19.052398
 20
-62.988173
 11
-19.3517
 21
-63.583878
  0
LINE
  8
型材断面
  6
CONTINUOUS
 10
-19.3517
 20
-63.583878
 11
-19.129395
 21
-64.25513
  0
LINE
  8
型材断面
  6
CONTINUOUS
 10
2.051515
 20
-73.031887
 11
-18.381142
 21
-62.76587
  0
LINE
  8
型材断面
  6
CONTINUOUS
 10
1.303262
 20
-74.521148
 11
-19.129395
 21
-64.25513
  0
CIRCLE
  8
ボルト／ビス
  6
CONTINUOUS
 10
1.379537
 20
-73.626865
 40
0.250185
  0
CIRCLE
  8
ボルト／ビス
  6
CONTINUOUS
 10
1.379537
 20
-73.626865
 40
0.301025
  0
LINE
  8
ボルト／ビス
  6
CONTINUOUS
 62
    64
 10
1.629303
 20
-73.612363
 11
1.491857
 21
-73.403312
  0
LINE
  8
ボルト／ビス
  6
CONTINUOUS
 62
    64
 10
1.242093
 20
-73.417815
 11
1.491857
 21
-73.403312
  0
LINE
  8
ボルト／ビス
  6
CONTINUOUS
 62
    64
 10
1.516983
 20
-73.835915
 11
1.267217
 21
-73.850418
  0
LINE
  8
ボルト／ビス
  6
CONTINUOUS
 62
    64
 10
1.129773
 20
-73.641367
 11
1.267217
 21
-73.850418
  0
LINE
  8
ボルト／ビス
  6
CONTINUOUS
 62
    64
 10
1.629303
 20
-73.612363
 11
1.516983
 21
-73.835915
  0
LINE
  8
ボルト／ビス
  6
CONTINUOUS
 62
    64
 10
1.242093
 20
-73.417815
 11
1.129773
 21
-73.641367
  0
CIRCLE
  8
ボルト／ビス
  6
CONTINUOUS
 62
    64
 10
1.379537
 20
-73.626865
 40
0.216668
  0
CIRCLE
  8
ボルト／ビス
  6
CONTINUOUS
 10
-8.53894
 20
-68.643508
 40
0.250185
  0
CIRCLE
  8
ボルト／ビス
  6
CONTINUOUS
 10
-8.53894
 20
-68.643508
 40
0.301025
  0
LINE
  8
ボルト／ビス
  6
CONTINUOUS
 62
    64
 10
-8.289175
 20
-68.629003
 11
-8.42662
 21
-68.419952
  0
LINE
  8
ボルト／ビス
  6
CONTINUOUS
 62
    64
 10
-8.676385
 20
-68.434455
 11
-8.42662
 21
-68.419952
  0
LINE
  8
ボルト／ビス
  6
CONTINUOUS
 62
    64
 10
-8.401495
 20
-68.852557
 11
-8.651263
 21
-68.867062
  0
LINE
  8
ボルト／ビス
  6
CONTINUOUS
 62
    64
 10
-8.788705
 20
-68.658013
 11
-8.651263
 21
-68.867062
  0
LINE
  8
ボルト／ビス
  6
CONTINUOUS
 62
    64
 10
-8.289175
 20
-68.629003
 11
-8.401495
 21
-68.852557
  0
LINE
  8
ボルト／ビス
  6
CONTINUOUS
 62
    64
 10
-8.676385
 20
-68.434455
 11
-8.788705
 21
-68.658013
  0
CIRCLE
  8
ボルト／ビス
  6
CONTINUOUS
 62
    64
 10
-8.53894
 20
-68.643508
 40
0.216668
  0
CIRCLE
  8
ボルト／ビス
  6
CONTINUOUS
 10
-18.457417
 20
-63.66015
 40
0.250185
  0
CIRCLE
  8
ボルト／ビス
  6
CONTINUOUS
 10
-18.457417
 20
-63.66015
 40
0.301025
  0
LINE
  8
ボルト／ビス
  6
CONTINUOUS
 62
    64
 10
-18.594862
 20
-63.4511
 11
-18.345097
 21
-63.436597
  0
LINE
  8
ボルト／ビス
  6
CONTINUOUS
 62
    64
 10
-18.207653
 20
-63.645647
 11
-18.345097
 21
-63.436597
  0
LINE
  8
ボルト／ビス
  6
CONTINUOUS
 62
    64
 10
-18.707182
 20
-63.674655
 11
-18.56974
 21
-63.883702
  0
LINE
  8
ボルト／ビス
  6
CONTINUOUS
 62
    64
 10
-18.319973
 20
-63.8692
 11
-18.56974
 21
-63.883702
  0
LINE
  8
ボルト／ビス
  6
CONTINUOUS
 62
    64
 10
-18.594862
 20
-63.4511
 11
-18.707182
 21
-63.674655
  0
LINE
  8
ボルト／ビス
  6
CONTINUOUS
 62
    64
 10
-18.207653
 20
-63.645647
 11
-18.319973
 21
-63.8692
  0
CIRCLE
  8
ボルト／ビス
  6
CONTINUOUS
 62
    64
 10
-18.457417
 20
-63.66015
 40
0.216668
  0
ENDBLK
  0
BLOCK
  2
*GRP_0021
 70
    65
 10
0.0
 20
0.0
  0
LINE
  8
補助線
  6
BYBLOCK
 62
    64
 10
-18.382955
 20
-73.589452
 11
-18.53188
 21
-73.664278
  0
LINE
  8
補助線
  6
BYBLOCK
 62
    64
 10
-18.49483
 20
-73.5524
 11
-18.420005
 21
-73.701328
  0
LINE
  8
補助線
  6
BYBLOCK
 62
    64
 10
-8.464475
 20
-68.606095
 11
-8.613403
 21
-68.68092
  0
LINE
  8
補助線
  6
BYBLOCK
 62
    64
 10
-8.576353
 20
-68.569042
 11
-8.501527
 21
-68.71797
  0
LINE
  8
補助線
  6
BYBLOCK
 62
    64
 10
1.305075
 20
-63.697563
 11
1.454003
 21
-63.622738
  0
LINE
  8
補助線
  6
BYBLOCK
 62
    64
 10
1.342125
 20
-63.585685
 11
1.41695
 21
-63.734613
  0
LINE
  8
型材断面
  6
CONTINUOUS
 10
-19.129395
 20
-73.031887
 11
-19.351697
 21
-73.70314
  0
LINE
  8
型材断面
  6
CONTINUOUS
 10
-19.351697
 20
-73.70314
 11
-19.052395
 21
-74.298845
  0
LINE
  8
型材断面
  6
CONTINUOUS
 10
-19.052395
 20
-74.298845
 11
-18.381142
 21
-74.521148
  0
LINE
  8
型材断面
  6
CONTINUOUS
 10
1.303262
 20
-62.76587
 11
1.974518
 21
-62.988173
  0
LINE
  8
型材断面
  6
CONTINUOUS
 10
1.974518
 20
-62.988173
 11
2.27382
 21
-63.583878
  0
LINE
  8
型材断面
  6
CONTINUOUS
 10
2.27382
 20
-63.583878
 11
2.051515
 21
-64.25513
  0
LINE
  8
型材断面
  6
CONTINUOUS
 10
-19.129395
 20
-73.031887
 11
1.303262
 21
-62.76587
  0
LINE
  8
型材断面
  6
CONTINUOUS
 10
-18.381142
 20
-74.521148
 11
2.051515
 21
-64.25513
  0
CIRCLE
  8
ボルト／ビス
  6
CONTINUOUS
 10
-18.457417
 20
-73.626865
 40
0.250185
  0
CIRCLE
  8
ボルト／ビス
  6
CONTINUOUS
 10
-18.457417
 20
-73.626865
 40
0.301025
  0
LINE
  8
ボルト／ビス
  6
CONTINUOUS
 62
    64
 10
-18.707182
 20
-73.612363
 11
-18.569737
 21
-73.403312
  0
LINE
  8
ボルト／ビス
  6
CONTINUOUS
 62
    64
 10
-18.319973
 20
-73.417815
 11
-18.569737
 21
-73.403312
  0
LINE
  8
ボルト／ビス
  6
CONTINUOUS
 62
    64
 10
-18.594862
 20
-73.835915
 11
-18.345097
 21
-73.850418
  0
LINE
  8
ボルト／ビス
  6
CONTINUOUS
 62
    64
 10
-18.207653
 20
-73.641367
 11
-18.345097
 21
-73.850418
  0
LINE
  8
ボルト／ビス
  6
CONTINUOUS
 62
    64
 10
-18.707182
 20
-73.612363
 11
-18.594862
 21
-73.835915
  0
LINE
  8
ボルト／ビス
  6
CONTINUOUS
 62
    64
 10
-18.319973
 20
-73.417815
 11
-18.207653
 21
-73.641367
  0
CIRCLE
  8
ボルト／ビス
  6
CONTINUOUS
 62
    64
 10
-18.457417
 20
-73.626865
 40
0.216668
  0
CIRCLE
  8
ボルト／ビス
  6
CONTINUOUS
 10
-8.53894
 20
-68.643508
 40
0.250185
  0
CIRCLE
  8
ボルト／ビス
  6
CONTINUOUS
 10
-8.53894
 20
-68.643508
 40
0.301025
  0
LINE
  8
ボルト／ビス
  6
CONTINUOUS
 62
    64
 10
-8.788705
 20
-68.629003
 11
-8.65126
 21
-68.419952
  0
LINE
  8
ボルト／ビス
  6
CONTINUOUS
 62
    64
 10
-8.401495
 20
-68.434455
 11
-8.65126
 21
-68.419952
  0
LINE
  8
ボルト／ビス
  6
CONTINUOUS
 62
    64
 10
-8.676385
 20
-68.852557
 11
-8.426617
 21
-68.867062
  0
LINE
  8
ボルト／ビス
  6
CONTINUOUS
 62
    64
 10
-8.289175
 20
-68.658013
 11
-8.426617
 21
-68.867062
  0
LINE
  8
ボルト／ビス
  6
CONTINUOUS
 62
    64
 10
-8.788705
 20
-68.629003
 11
-8.676385
 21
-68.852557
  0
LINE
  8
ボルト／ビス
  6
CONTINUOUS
 62
    64
 10
-8.401495
 20
-68.434455
 11
-8.289175
 21
-68.658013
  0
CIRCLE
  8
ボルト／ビス
  6
CONTINUOUS
 62
    64
 10
-8.53894
 20
-68.643508
 40
0.216668
  0
CIRCLE
  8
ボルト／ビス
  6
CONTINUOUS
 10
1.379537
 20
-63.66015
 40
0.250185
  0
CIRCLE
  8
ボルト／ビス
  6
CONTINUOUS
 10
1.379537
 20
-63.66015
 40
0.301025
  0
LINE
  8
ボルト／ビス
  6
CONTINUOUS
 62
    64
 10
1.516983
 20
-63.4511
 11
1.267217
 21
-63.436597
  0
LINE
  8
ボルト／ビス
  6
CONTINUOUS
 62
    64
 10
1.129773
 20
-63.645647
 11
1.267217
 21
-63.436597
  0
LINE
  8
ボルト／ビス
  6
CONTINUOUS
 62
    64
 10
1.629303
 20
-63.674655
 11
1.49186
 21
-63.883702
  0
LINE
  8
ボルト／ビス
  6
CONTINUOUS
 62
    64
 10
1.242093
 20
-63.8692
 11
1.49186
 21
-63.883702
  0
LINE
  8
ボルト／ビス
  6
CONTINUOUS
 62
    64
 10
1.516983
 20
-63.4511
 11
1.629303
 21
-63.674655
  0
LINE
  8
ボルト／ビス
  6
CONTINUOUS
 62
    64
 10
1.129773
 20
-63.645647
 11
1.242093
 21
-63.8692
  0
CIRCLE
  8
ボルト／ビス
  6
CONTINUOUS
 62
    64
 10
1.379537
 20
-63.66015
 40
0.216668
  0
ENDBLK
  0
BLOCK
  2
*DIM_0022
 70
    65
 10
0.0
 20
0.0
  0
LINE
  8
寸法
  6
CONTINUOUS
 10
99.79942
 20
-55.47804
 11
67.466087
 21
-55.47804
  0
POINT
  8
寸法
 10
99.79942
 20
-55.47804
  0
POINT
  8
寸法
 10
67.466087
 20
-55.47804
  0
TEXT
  7
TextStyle03
  8
寸法
  6
CONTINUOUS
 10
81.1875
 20
-55.15
  1
970
 40
3.0
 72
     5
 11
86.0625
 21
-55.15
  0
ENDBLK
  0
BLOCK
  2
*DIM_0023
 70
    65
 10
0.0
 20
0.0
  0
LINE
  8
寸法
  6
BYBLOCK
 62
     0
 10
17.94811
 20
-68.050148
 11
17.94811
 21
-60.716815
  0
POINT
  8
寸法
 62
     0
 10
17.94811
 20
-68.050148
  0
POINT
  8
寸法
 62
     0
 10
17.94811
 20
-60.716815
  0
TEXT
  7
TextStyle03
  8
寸法
  6
CONTINUOUS
 62
     0
 10
17.675
 20
-58.11875
  1
上昇187以上
 40
3.0
 50
90.0
 72
     5
 11
17.675
 21
-39.93125
  0
ENDBLK
  0
ENDSEC
  0
SECTION
  2
ENTITIES
  0
POLYLINE
  8
通り芯
  6
CONTINUOUS
 66
     1
 70
     1
  0
VERTEX
  8
通り芯
 10
-210.0
 20
-148.5
  0
VERTEX
  8
通り芯
 10
210.0
 20
-148.5
  0
VERTEX
  8
通り芯
 10
210.0
 20
148.5
  0
VERTEX
  8
通り芯
 10
-210.0
 20
148.5
  0
SEQEND
  0
INSERT
  2
*GRP_0001
  8
型材断面
  6
CONTINUOUS
 10
0.0
 20
0.0
  0
LINE
  8
型材断面
  6
DASHDOT
 10
4.712865
 20
-77.836442
 11
4.712865
 21
42.814033
  0
LINE
  8
型材断面
  6
DASHDOT
 10
-45.287135
 20
-77.836442
 11
-45.287135
 21
42.814033
  0
LINE
  8
型材断面
  6
DASHDOT
 10
-95.287135
 20
-77.836442
 11
-95.287135
 21
42.814033
  0
LINE
  8
型材断面
  6
DASHDOT
 10
102.389627
 20
42.814033
 11
-95.287135
 21
42.814033
  0
LINE
  8
型材断面
  6
DASHDOT
 10
102.389627
 20
32.814033
 11
-95.287135
 21
32.814033
  0
POLYLINE
  8
型材断面
  6
CONTINUOUS
 66
     1
 70
     1
  0
VERTEX
  8
型材断面
 10
-35.83933
 20
13.03811
  0
VERTEX
  8
型材断面
 10
-54.61126
 20
13.03811
  0
VERTEX
  8
型材断面
 10
-54.61126
 20
8.301267
  0
VERTEX
  8
型材断面
 10
-35.83933
 20
8.301267
  0
SEQEND
  0
POLYLINE
  8
型材断面
  6
CONTINUOUS
 66
     1
 70
     1
  0
VERTEX
  8
型材断面
 10
-35.83933
 20
52.589955
  0
VERTEX
  8
型材断面
 10
-54.61126
 20
52.589955
  0
VERTEX
  8
型材断面
 10
-54.61126
 20
57.326798
  0
VERTEX
  8
型材断面
 10
-35.83933
 20
57.326798
  0
SEQEND
  0
LINE
  8
型材断面
  6
CONTINUOUS
 10
-78.620467
 20
45.444162
 11
-80.116097
 21
48.03467
  0
LINE
  8
型材断面
  6
CONTINUOUS
 10
-78.620467
 20
45.444162
 11
-77.124838
 21
48.03467
  0
LINE
  8
型材断面
  6
CONTINUOUS
 10
-77.124838
 20
48.03467
 11
-80.116097
 21
48.03467
  0
LINE
  8
型材断面
  6
CONTINUOUS
 10
-136.139343
 20
80.791505
 11
-135.543288
 21
78.200998
  0
LINE
  8
型材断面
  6
CONTINUOUS
 10
-136.139343
 20
80.791505
 11
-136.7354
 21
78.200998
  0
LINE
  8
型材断面
  6
CONTINUOUS
 10
-136.7354
 20
78.200998
 11
-135.543288
 21
78.200998
  0
LINE
  8
型材断面
  6
CONTINUOUS
 10
-142.16193
 20
74.922105
 11
-95.920153
 21
74.922105
  0
LINE
  8
型材断面
  6
CONTINUOUS
 10
-136.139343
 20
87.32138
 11
-137.634973
 21
84.730873
  0
LINE
  8
型材断面
  6
CONTINUOUS
 10
-136.139343
 20
87.32138
 11
-134.643713
 21
84.730873
  0
LINE
  8
型材断面
  6
CONTINUOUS
 10
-134.643713
 20
84.730873
 11
-137.634973
 21
84.730873
  0
LINE
  8
型材断面
  6
CONTINUOUS
 10
-142.16193
 20
83.792277
 11
-95.920153
 21
83.792277
  0
LINE
  8
型材断面
  6
CONTINUOUS
 10
-142.16193
 20
69.134073
 11
-95.920153
 21
69.134073
  0
LINE
  8
型材断面
  6
CONTINUOUS
 10
-97.917265
 20
32.814033
 11
-100.507773
 21
34.309663
  0
LINE
  8
型材断面
  6
CONTINUOUS
 10
-97.917265
 20
32.814033
 11
-100.507773
 21
31.318403
  0
LINE
  8
型材断面
  6
CONTINUOUS
 10
-100.507773
 20
31.318403
 11
-100.507773
 21
34.309663
  0
LINE
  8
型材断面
  6
CONTINUOUS
 10
-78.620467
 20
20.183902
 11
-80.116097
 21
17.593395
  0
LINE
  8
型材断面
  6
CONTINUOUS
 10
-78.620467
 20
20.183902
 11
-77.124838
 21
17.593395
  0
LINE
  8
型材断面
  6
CONTINUOUS
 10
-77.124838
 20
17.593395
 11
-80.116097
 21
17.593395
  0
LINE
  8
型材断面
  6
CONTINUOUS
 10
-11.953802
 20
45.444162
 11
-10.458173
 21
48.03467
  0
LINE
  8
型材断面
  6
CONTINUOUS
 10
-11.953802
 20
45.444162
 11
-13.449432
 21
48.03467
  0
LINE
  8
型材断面
  6
CONTINUOUS
 10
-13.449432
 20
48.03467
 11
-10.458173
 21
48.03467
  0
LINE
  8
型材断面
  6
CONTINUOUS
 10
-11.953802
 20
20.183902
 11
-10.458173
 21
17.593395
  0
LINE
  8
型材断面
  6
CONTINUOUS
 10
-11.953802
 20
20.183902
 11
-13.449432
 21
17.593395
  0
LINE
  8
型材断面
  6
CONTINUOUS
 10
-13.449432
 20
17.593395
 11
-10.458173
 21
17.593395
  0
LINE
  8
型材断面
  6
CONTINUOUS
 10
7.342995
 20
32.814033
 11
9.933503
 21
34.309663
  0
LINE
  8
型材断面
  6
CONTINUOUS
 10
7.342995
 20
32.814033
 11
9.933503
 21
31.318403
  0
LINE
  8
型材断面
  6
CONTINUOUS
 10
9.933503
 20
31.318403
 11
9.933503
 21
34.309663
  0
LINE
  8
型材断面
  6
CONTINUOUS
 10
7.342995
 20
39.114035
 11
9.933505
 21
38.517982
  0
LINE
  8
型材断面
  6
CONTINUOUS
 10
7.342995
 20
39.114035
 11
9.933503
 21
39.710095
  0
LINE
  8
型材断面
  6
CONTINUOUS
 10
9.933503
 20
39.710095
 11
9.933505
 21
38.517982
  0
LINE
  8
型材断面
  6
CONTINUOUS
 10
7.342995
 20
26.51403
 11
9.933505
 21
27.110082
  0
LINE
  8
型材断面
  6
CONTINUOUS
 10
7.342995
 20
26.51403
 11
9.933503
 21
25.91797
  0
LINE
  8
型材断面
  6
CONTINUOUS
 10
9.933503
 20
25.91797
 11
9.933505
 21
27.110082
  0
LINE
  8
型材断面
  6
CONTINUOUS
 10
-97.917265
 20
39.114035
 11
-100.507775
 21
38.517982
  0
LINE
  8
型材断面
  6
CONTINUOUS
 10
-97.917265
 20
39.114035
 11
-100.507773
 21
39.710095
  0
LINE
  8
型材断面
  6
CONTINUOUS
 10
-100.507773
 20
39.710095
 11
-100.507775
 21
38.517982
  0
LINE
  8
型材断面
  6
CONTINUOUS
 10
-97.917265
 20
26.51403
 11
-100.507775
 21
27.110082
  0
LINE
  8
型材断面
  6
CONTINUOUS
 10
-97.917265
 20
26.51403
 11
-100.507773
 21
25.91797
  0
LINE
  8
型材断面
  6
CONTINUOUS
 10
-100.507773
 20
25.91797
 11
-100.507775
 21
27.110082
  0
LINE
  8
型材断面
  6
CONTINUOUS
 10
-97.27032
 20
20.830853
 11
-45.287135
 21
20.830853
  0
LINE
  8
型材断面
  6
CONTINUOUS
 10
6.69605
 20
20.830853
 11
-45.287135
 21
20.830853
  0
LINE
  8
型材断面
  6
CONTINUOUS
 10
6.69605
 20
44.797213
 11
-45.287135
 21
44.797213
  0
LINE
  8
型材断面
  6
CONTINUOUS
 10
-97.27032
 20
44.797213
 11
-45.287135
 21
44.797213
  0
LINE
  8
型材断面
  6
CONTINUOUS
 10
-142.16193
 20
63.34604
 11
-95.920153
 21
63.34604
  0
LINE
  8
型材断面
  6
CONTINUOUS
 10
92.918427
 20
44.370552
 11
92.918427
 21
32.814033
  0
LINE
  8
型材断面
  6
CONTINUOUS
 10
92.751763
 20
32.814033
 11
92.751763
 21
44.214033
  0
LINE
  8
型材断面
  6
CONTINUOUS
 10
94.418427
 20
32.814033
 11
94.418427
 21
44.214033
  0
ARC
  8
型材断面
  6
CONTINUOUS
 62
    47
 10
96.868425
 20
44.79737
 40
0.016668
 50
90.0
 51
180.000877
  0
ARC
  8
型材断面
  6
CONTINUOUS
 62
    47
 10
96.908426
 20
44.804035
 40
0.010002
 50
0.208374
 51
90.0
  0
LINE
  8
型材断面
  6
CONTINUOUS
 62
    47
 10
97.085145
 20
44.764033
 11
97.085145
 21
43.913885
  0
LINE
  8
型材断面
  6
CONTINUOUS
 10
97.085145
 20
32.814033
 11
97.085145
 21
44.797365
  0
LINE
  8
型材断面
  6
CONTINUOUS
 10
100.401813
 20
32.814033
 11
100.401813
 21
44.797365
  0
LINE
  8
型材断面
  6
CONTINUOUS
 10
100.901813
 20
32.814033
 11
100.901813
 21
44.297365
  0
LINE
  8
型材断面
  6
CONTINUOUS
 62
    47
 10
96.851757
 20
44.79737
 11
94.745097
 21
44.79737
  0
LINE
  8
型材断面
  6
CONTINUOUS
 10
94.745097
 20
32.814033
 11
94.745097
 21
44.79737
  0
LINE
  8
型材断面
  6
CONTINUOUS
 62
    47
 10
97.085145
 20
44.797365
 11
100.401813
 21
44.797365
  0
LINE
  8
型材断面
  6
CONTINUOUS
 62
    47
 10
100.901813
 20
44.297365
 11
100.401813
 21
44.297365
  0
LINE
  8
型材断面
  6
CONTINUOUS
 62
    47
 10
94.745097
 20
43.91403
 11
94.418427
 21
43.91403
  0
LINE
  8
型材断面
  6
CONTINUOUS
 10
92.918427
 20
21.257512
 11
92.918427
 21
32.814033
  0
LINE
  8
型材断面
  6
CONTINUOUS
 10
92.751763
 20
32.814033
 11
92.751763
 21
21.414035
  0
LINE
  8
型材断面
  6
CONTINUOUS
 10
94.418427
 20
32.814033
 11
94.418427
 21
21.414035
  0
ARC
  8
型材断面
  6
CONTINUOUS
 62
    47
 10
96.868425
 20
20.830697
 40
0.016668
 50
179.999123
 51
270.0
  0
ARC
  8
型材断面
  6
CONTINUOUS
 62
    47
 10
96.908426
 20
20.824031
 40
0.010002
 50
270.0
 51
359.791626
  0
LINE
  8
型材断面
  6
CONTINUOUS
 62
    47
 10
97.085145
 20
20.864035
 11
97.085145
 21
21.714183
  0
LINE
  8
型材断面
  6
CONTINUOUS
 10
97.085145
 20
32.814033
 11
97.085145
 21
20.830703
  0
LINE
  8
型材断面
  6
CONTINUOUS
 10
100.401813
 20
32.814033
 11
100.401813
 21
20.830703
  0
LINE
  8
型材断面
  6
CONTINUOUS
 10
100.901813
 20
32.814033
 11
100.901813
 21
21.330703
  0
LINE
  8
型材断面
  6
CONTINUOUS
 62
    47
 10
96.851757
 20
20.830697
 11
94.745097
 21
20.830697
  0
LINE
  8
型材断面
  6
CONTINUOUS
 10
94.745097
 20
32.814033
 11
94.745097
 21
20.830697
  0
LINE
  8
型材断面
  6
CONTINUOUS
 62
    47
 10
97.085145
 20
20.830703
 11
100.401813
 21
20.830703
  0
LINE
  8
型材断面
  6
CONTINUOUS
 62
    47
 10
100.901813
 20
21.330703
 11
100.401813
 21
21.330703
  0
LINE
  8
型材断面
  6
CONTINUOUS
 62
    47
 10
94.745097
 20
21.714038
 11
94.418427
 21
21.714038
  0
LINE
  8
型材断面
  6
CONTINUOUS
 10
96.918427
 20
32.814033
 11
96.918427
 21
44.804035
  0
LINE
  8
型材断面
  6
CONTINUOUS
 62
    47
 10
96.868423
 20
44.814033
 11
96.908082
 21
44.814033
  0
LINE
  8
型材断面
  6
CONTINUOUS
 62
    47
 10
96.868423
 20
20.814035
 11
96.908082
 21
20.814035
  0
LINE
  8
型材断面
  6
CONTINUOUS
 10
96.918427
 20
32.814033
 11
96.918427
 21
20.824033
  0
ARC
  8
型材断面
  6
CONTINUOUS
 62
    47
 10
-97.270472
 20
-72.16681
 40
0.016668
 50
89.999123
 51
180.0
  0
ARC
  8
型材断面
  6
CONTINUOUS
 62
    47
 10
-97.277138
 20
-72.206812
 40
0.010002
 50
180.0
 51
269.791626
  0
LINE
  8
型材断面
  6
CONTINUOUS
 62
    47
 10
-97.237133
 20
-72.38353
 11
-96.386988
 21
-72.38353
  0
LINE
  8
型材断面
  6
CONTINUOUS
 62
    47
 10
-97.270472
 20
-72.150143
 11
-97.270472
 21
-70.043483
  0
LINE
  8
型材断面
  6
CONTINUOUS
 62
    47
 10
-97.270467
 20
-72.38353
 11
-97.270467
 21
-75.700198
  0
LINE
  8
型材断面
  6
CONTINUOUS
 62
    47
 10
-96.770467
 20
-76.200198
 11
-96.770467
 21
-75.700198
  0
LINE
  8
型材断面
  6
CONTINUOUS
 62
    47
 10
-96.387133
 20
-70.043483
 11
-96.387133
 21
-69.716815
  0
LINE
  8
型材断面
  6
CONTINUOUS
 62
    47
 10
-97.287133
 20
-72.16681
 11
-97.287133
 21
-72.20647
  0
ARC
  8
型材断面
  6
CONTINUOUS
 62
    47
 10
6.6962
 20
-72.16681
 40
0.016668
 50
0.0
 51
90.000877
  0
ARC
  8
型材断面
  6
CONTINUOUS
 62
    47
 10
6.702866
 20
-72.206812
 40
0.010002
 50
270.208374
 51
360.0
  0
LINE
  8
型材断面
  6
CONTINUOUS
 62
    47
 10
6.662862
 20
-72.38353
 11
5.812717
 21
-72.38353
  0
LINE
  8
型材断面
  6
CONTINUOUS
 62
    47
 10
6.696203
 20
-72.150143
 11
6.696203
 21
-70.043483
  0
LINE
  8
型材断面
  6
CONTINUOUS
 62
    47
 10
6.696198
 20
-72.38353
 11
6.696198
 21
-75.700198
  0
LINE
  8
型材断面
  6
CONTINUOUS
 62
    47
 10
6.196198
 20
-76.200198
 11
6.196198
 21
-75.700198
  0
LINE
  8
型材断面
  6
CONTINUOUS
 62
    47
 10
5.812862
 20
-70.043483
 11
5.812862
 21
-69.716815
  0
LINE
  8
型材断面
  6
CONTINUOUS
 62
    47
 10
6.712862
 20
-72.16681
 11
6.712862
 21
-72.20647
  0
LINE
  8
型材断面
  6
CONTINUOUS
 10
-97.270472
 20
-70.043483
 11
-45.287135
 21
-70.043483
  0
LINE
  8
型材断面
  6
CONTINUOUS
 10
-96.687133
 20
-69.716815
 11
-45.287135
 21
-69.716815
  0
LINE
  8
型材断面
  6
CONTINUOUS
 10
-96.843655
 20
-68.216815
 11
-45.287135
 21
-68.216815
  0
LINE
  8
型材断面
  6
CONTINUOUS
 10
-96.687133
 20
-68.050148
 11
-45.287135
 21
-68.050148
  0
LINE
  8
型材断面
  6
CONTINUOUS
 10
-97.270467
 20
-72.38353
 11
-45.287135
 21
-72.38353
  0
LINE
  8
型材断面
  6
CONTINUOUS
 10
-97.277138
 20
-72.216815
 11
-45.287135
 21
-72.216815
  0
LINE
  8
型材断面
  6
CONTINUOUS
 10
-96.770467
 20
-76.200198
 11
-45.287135
 21
-76.200198
  0
LINE
  8
型材断面
  6
CONTINUOUS
 10
-97.270467
 20
-75.700198
 11
-45.287135
 21
-75.700198
  0
LINE
  8
型材断面
  6
CONTINUOUS
 10
6.196198
 20
-76.200198
 11
-45.287135
 21
-76.200198
  0
LINE
  8
型材断面
  6
CONTINUOUS
 10
6.696198
 20
-75.700198
 11
-45.287135
 21
-75.700198
  0
LINE
  8
型材断面
  6
CONTINUOUS
 10
6.696198
 20
-72.38353
 11
-45.287135
 21
-72.38353
  0
LINE
  8
型材断面
  6
CONTINUOUS
 10
6.702867
 20
-72.216815
 11
-45.287135
 21
-72.216815
  0
LINE
  8
型材断面
  6
CONTINUOUS
 10
6.696203
 20
-70.043483
 11
-45.287135
 21
-70.043483
  0
LINE
  8
型材断面
  6
CONTINUOUS
 10
6.112862
 20
-69.716815
 11
-45.287135
 21
-69.716815
  0
LINE
  8
型材断面
  6
CONTINUOUS
 10
6.269385
 20
-68.216815
 11
-45.287135
 21
-68.216815
  0
LINE
  8
型材断面
  6
CONTINUOUS
 10
6.112862
 20
-68.050148
 11
-45.287135
 21
-68.050148
  0
ARC
  8
型材断面
  6
DOT
 62
    47
 10
-97.270472
 20
-64.833477
 40
0.016668
 50
89.999123
 51
180.0
  0
ARC
  8
型材断面
  6
DOT
 62
    47
 10
-97.277138
 20
-64.873478
 40
0.010002
 50
180.0
 51
269.791626
  0
LINE
  8
型材断面
  6
DOT
 62
    47
 10
-97.270472
 20
-64.81681
 11
-97.270472
 21
-62.71015
  0
LINE
  8
型材断面
  6
DOT
 62
    47
 10
-96.387133
 20
-62.71015
 11
-96.387133
 21
-62.383482
  0
LINE
  8
型材断面
  6
DOT
 62
    47
 10
-97.287133
 20
-64.833478
 11
-97.287133
 21
-64.873138
  0
ARC
  8
型材断面
  6
DOT
 62
    47
 10
6.6962
 20
-64.833477
 40
0.016668
 50
0.0
 51
90.000877
  0
ARC
  8
型材断面
  6
DOT
 62
    47
 10
6.702866
 20
-64.873478
 40
0.010002
 50
270.208374
 51
360.0
  0
LINE
  8
型材断面
  6
DOT
 62
    47
 10
6.696203
 20
-64.81681
 11
6.696203
 21
-62.71015
  0
LINE
  8
型材断面
  6
DOT
 62
    47
 10
5.812862
 20
-62.71015
 11
5.812862
 21
-62.383482
  0
LINE
  8
型材断面
  6
DOT
 62
    47
 10
6.712862
 20
-64.833478
 11
6.712862
 21
-64.873138
  0
LINE
  8
型材断面
  6
DOT
 10
-96.687133
 20
-60.716815
 11
-45.287135
 21
-60.716815
  0
LINE
  8
型材断面
  6
DOT
 10
-96.843655
 20
-60.883482
 11
-45.287135
 21
-60.883482
  0
LINE
  8
型材断面
  6
DOT
 10
-97.270472
 20
-62.71015
 11
-45.287135
 21
-62.71015
  0
LINE
  8
型材断面
  6
DOT
 10
-96.687133
 20
-62.383482
 11
-45.287135
 21
-62.383482
  0
LINE
  8
型材断面
  6
DOT
 10
-97.277138
 20
-64.883482
 11
-45.287135
 21
-64.883482
  0
LINE
  8
型材断面
  6
DOT
 10
6.702867
 20
-64.883482
 11
-45.287135
 21
-64.883482
  0
LINE
  8
型材断面
  6
DOT
 10
6.112862
 20
-62.383482
 11
-45.287135
 21
-62.383482
  0
LINE
  8
型材断面
  6
DOT
 10
6.696203
 20
-62.71015
 11
-45.287135
 21
-62.71015
  0
LINE
  8
型材断面
  6
DOT
 10
6.269385
 20
-60.883482
 11
-45.287135
 21
-60.883482
  0
LINE
  8
型材断面
  6
DOT
 10
6.112862
 20
-60.716815
 11
-45.287135
 21
-60.716815
  0
INSERT
  2
*GRP_0018
  8
型材断面
  6
CONTINUOUS
 10
0.0
 20
0.0
  0
INSERT
  2
*GRP_0019
  8
型材断面
  6
CONTINUOUS
 10
0.0
 20
0.0
  0
INSERT
  2
*GRP_0020
  8
型材断面
  6
CONTINUOUS
 10
0.0
 20
0.0
  0
INSERT
  2
*GRP_0021
  8
型材断面
  6
CONTINUOUS
 10
0.0
 20
0.0
  0
LINE
  8
型材断面
  6
DASHDOT
 10
102.389627
 20
22.814033
 11
-95.287135
 21
22.814033
  0
LINE
  8
型材断面
  6
DASHDOT
 10
-62.037135
 20
22.814033
 11
-62.037135
 21
42.814033
  0
LINE
  8
型材断面
  6
DASHDOT
 10
-28.537135
 20
22.814033
 11
-28.537135
 21
42.814033
  0
LINE
  8
型材断面
  6
CONTINUOUS
 10
-44.870467
 20
23.757512
 11
-12.328802
 21
23.757512
  0
LINE
  8
型材断面
  6
CONTINUOUS
 10
-44.870467
 20
41.870552
 11
-12.328802
 21
41.870552
  0
LINE
  8
型材断面
  6
CONTINUOUS
 10
-78.245467
 20
41.870552
 11
-45.703802
 21
41.870552
  0
LINE
  8
型材断面
  6
CONTINUOUS
 10
-78.245467
 20
23.757512
 11
-45.703802
 21
23.757512
  0
LINE
  8
型材断面
  6
CONTINUOUS
 10
-27.287135
 20
41.03722
 11
-27.287135
 21
24.590845
  0
LINE
  8
型材断面
  6
CONTINUOUS
 10
-29.787135
 20
41.03722
 11
-29.787135
 21
24.590845
  0
LINE
  8
型材断面
  6
CONTINUOUS
 10
-63.287135
 20
41.03722
 11
-63.287135
 21
24.590845
  0
LINE
  8
型材断面
  6
CONTINUOUS
 10
-60.787135
 20
41.03722
 11
-60.787135
 21
24.590845
  0
LINE
  8
型材断面
  6
CONTINUOUS
 10
6.69605
 20
32.814033
 11
6.69605
 21
20.830853
  0
LINE
  8
型材断面
  6
CONTINUOUS
 10
6.69605
 20
32.814033
 11
6.69605
 21
44.797213
  0
LINE
  8
型材断面
  6
CONTINUOUS
 10
3.769385
 20
32.397365
 11
6.269385
 21
32.397365
  0
LINE
  8
型材断面
  6
CONTINUOUS
 10
3.769385
 20
33.2307
 11
6.269385
 21
33.2307
  0
LINE
  8
型材断面
  6
CONTINUOUS
 10
6.033688
 20
21.25751
 11
6.269385
 21
21.493217
  0
LINE
  8
型材断面
  6
CONTINUOUS
 10
6.69605
 20
20.830853
 11
6.151538
 21
21.375365
  0
LINE
  8
型材断面
  6
CONTINUOUS
 10
3.769385
 20
23.993212
 11
6.269385
 21
21.493217
  0
LINE
  8
型材断面
  6
CONTINUOUS
 10
3.533683
 20
23.75751
 11
6.033685
 21
21.257512
  0
LINE
  8
型材断面
  6
CONTINUOUS
 10
3.769385
 20
32.397365
 11
3.769385
 21
23.993212
  0
LINE
  8
型材断面
  6
CONTINUOUS
 10
3.769385
 20
32.397365
 11
3.769385
 21
23.993212
  0
LINE
  8
型材断面
  6
CONTINUOUS
 10
3.769385
 20
23.993212
 11
3.533685
 21
23.757512
  0
LINE
  8
型材断面
  6
CONTINUOUS
 10
6.033688
 20
44.370555
 11
6.269385
 21
44.134848
  0
LINE
  8
型材断面
  6
CONTINUOUS
 10
6.69605
 20
44.797213
 11
6.151538
 21
44.2527
  0
LINE
  8
型材断面
  6
CONTINUOUS
 10
3.769385
 20
33.2307
 11
3.769385
 21
41.634852
  0
LINE
  8
型材断面
  6
CONTINUOUS
 10
3.533685
 20
41.870552
 11
3.769385
 21
41.634852
  0
LINE
  8
型材断面
  6
CONTINUOUS
 10
3.769385
 20
33.2307
 11
3.769385
 21
41.634852
  0
LINE
  8
型材断面
  6
CONTINUOUS
 10
6.269385
 20
21.493217
 11
6.269385
 21
44.134848
  0
LINE
  8
型材断面
  6
CONTINUOUS
 10
3.769385
 20
41.634852
 11
6.269385
 21
44.134848
  0
LINE
  8
型材断面
  6
CONTINUOUS
 10
6.269385
 20
21.493217
 11
6.269385
 21
44.134848
  0
LINE
  8
型材断面
  6
CONTINUOUS
 10
3.533683
 20
41.870555
 11
6.033685
 21
44.370552
  0
LINE
  8
型材断面
  6
CONTINUOUS
 10
-11.495467
 20
41.870552
 11
3.53368
 21
41.870552
  0
LINE
  8
型材断面
  6
CONTINUOUS
 10
-11.495467
 20
23.757512
 11
3.53368
 21
23.757512
  0
LINE
  8
型材断面
  6
CONTINUOUS
 10
-97.27032
 20
32.814033
 11
-97.27032
 21
20.830853
  0
LINE
  8
型材断面
  6
CONTINUOUS
 10
-97.27032
 20
32.814033
 11
-97.27032
 21
44.797213
  0
LINE
  8
型材断面
  6
CONTINUOUS
 10
-94.343655
 20
32.397365
 11
-96.843655
 21
32.397365
  0
LINE
  8
型材断面
  6
CONTINUOUS
 10
-94.343655
 20
33.2307
 11
-96.843655
 21
33.2307
  0
LINE
  8
型材断面
  6
CONTINUOUS
 10
-96.607957
 20
21.25751
 11
-96.843655
 21
21.493217
  0
LINE
  8
型材断面
  6
CONTINUOUS
 10
-97.27032
 20
20.830853
 11
-96.725807
 21
21.375365
  0
LINE
  8
型材断面
  6
CONTINUOUS
 10
-94.343655
 20
23.993212
 11
-96.843655
 21
21.493217
  0
LINE
  8
型材断面
  6
CONTINUOUS
 10
-94.107953
 20
23.75751
 11
-96.607955
 21
21.257512
  0
LINE
  8
型材断面
  6
CONTINUOUS
 10
-94.343655
 20
32.397365
 11
-94.343655
 21
23.993212
  0
LINE
  8
型材断面
  6
CONTINUOUS
 10
-94.343655
 20
32.397365
 11
-94.343655
 21
23.993212
  0
LINE
  8
型材断面
  6
CONTINUOUS
 10
-94.343655
 20
23.993212
 11
-94.107955
 21
23.757512
  0
LINE
  8
型材断面
  6
CONTINUOUS
 10
-96.607957
 20
44.370555
 11
-96.843655
 21
44.134848
  0
LINE
  8
型材断面
  6
CONTINUOUS
 10
-97.27032
 20
44.797213
 11
-96.725807
 21
44.2527
  0
LINE
  8
型材断面
  6
CONTINUOUS
 10
-94.343655
 20
33.2307
 11
-94.343655
 21
41.634852
  0
LINE
  8
型材断面
  6
CONTINUOUS
 10
-94.107955
 20
41.870552
 11
-94.343655
 21
41.634852
  0
LINE
  8
型材断面
  6
CONTINUOUS
 10
-94.343655
 20
33.2307
 11
-94.343655
 21
41.634852
  0
LINE
  8
型材断面
  6
CONTINUOUS
 10
-96.843655
 20
21.493217
 11
-96.843655
 21
44.134848
  0
LINE
  8
型材断面
  6
CONTINUOUS
 10
-94.343655
 20
41.634852
 11
-96.843655
 21
44.134848
  0
LINE
  8
型材断面
  6
CONTINUOUS
 10
-96.843655
 20
21.493217
 11
-96.843655
 21
44.134848
  0
LINE
  8
型材断面
  6
CONTINUOUS
 10
-94.107953
 20
41.870555
 11
-96.607955
 21
44.370552
  0
LINE
  8
型材断面
  6
CONTINUOUS
 10
-79.078802
 20
41.870552
 11
-94.10795
 21
41.870552
  0
LINE
  8
型材断面
  6
CONTINUOUS
 10
6.033685
 20
44.370552
 11
-96.607955
 21
44.370552
  0
LINE
  8
型材断面
  6
CONTINUOUS
 10
-79.078802
 20
23.757512
 11
-94.10795
 21
23.757512
  0
LINE
  8
型材断面
  6
CONTINUOUS
 10
6.033685
 20
21.257512
 11
-96.607955
 21
21.257512
  0
TEXT
  7
TextStyle03
  8
文字
  6
CONTINUOUS
 10
81.275
 20
-76.7
  1
網入り6.8t
 40
3.0
 72
     5
 11
97.9625
 21
-76.7
  0
TEXT
  7
TextStyle03
  8
文字
  6
CONTINUOUS
 10
87.95
 20
-81.375
  1
×３枚
 40
3.0
 72
     5
 11
97.7
 21
-81.375
  0
TEXT
  7
TextStyle03
  8
文字
  6
CONTINUOUS
 10
-53.625
 20
9.325
  1
可動装置側
 40
3.0
 72
     5
 11
-37.125
 21
9.325
  0
TEXT
  7
TextStyle03
  8
文字
  6
CONTINUOUS
 10
-53.625
 20
53.3
  1
可動装置側
 40
3.0
 72
     5
 11
-37.125
 21
53.3
  0
TEXT
  7
TextStyle03
  8
文字
  6
CONTINUOUS
 10
-133.325
 20
79.425
  1
はケーシング位置を示す
 40
3.0
 72
     5
 11
-96.575
 21
79.425
  0
TEXT
  7
TextStyle03
  8
文字
  6
CONTINUOUS
 10
-133.325
 20
76.05
  1
４ヶ所中1ヶ所に設定
 40
3.0
 72
     5
 11
-101.6375
 21
76.05
  0
TEXT
  7
TextStyle03
  8
文字
  6
CONTINUOUS
 10
-133.325
 20
84.95
  1
は排水穴位置を示す
 40
3.0
 72
     5
 11
-103.325
 21
84.95
  0
TEXT
  7
TextStyle03
  8
文字
  6
CONTINUOUS
 10
-116.35
 20
11.275
  1
アンカーピッチ
 40
3.0
 50
90.0
 72
     5
 11
-116.35
 21
34.525
  0
TEXT
  7
TextStyle03
  8
文字
  6
CONTINUOUS
 10
-85.325
 20
80.2
  1
アンカーピッチ
 40
3.0
 72
     5
 11
-62.075
 21
80.2
  0
TEXT
  7
TextStyle03
  8
文字
  6
CONTINUOUS
 10
-137.05
 20
70.075
  1
アンカー数量　１２ヶ所
 40
3.0
 72
     5
 11
-100.3
 21
70.075
  0
TEXT
  7
TextStyle03
  8
文字
  6
CONTINUOUS
 10
-137.1
 20
64.3
  1
アームユニット数　４ヶ所
 40
3.0
 72
     5
 11
-96.975
 21
64.3
  0
LINE
  8
文字
  6
CONTINUOUS
 10
92.751763
 20
56.049278
 11
92.751763
 21
45.499315
  0
LINE
  8
文字
  6
CONTINUOUS
 10
100.401813
 20
56.049278
 11
100.401813
 21
45.564398
  0
LINE
  8
文字
  6
CONTINUOUS
 10
17.94811
 20
-68.050148
 11
7.398148
 21
-68.050148
  0
LINE
  8
文字
  6
CONTINUOUS
 10
17.94811
 20
-75.700198
 11
7.463227
 21
-75.700198
  0
LINE
  8
文字
  6
CONTINUOUS
 10
67.466087
 20
-62.43696
 11
67.466087
 21
-55.47804
  0
LINE
  8
文字
  6
CONTINUOUS
 10
99.79942
 20
-62.43696
 11
99.79942
 21
-55.47804
  0
LINE
  8
文字
  6
CONTINUOUS
 10
17.94811
 20
-60.716815
 11
7.398148
 21
-60.716815
  0
TEXT
  7
TextStyle03
  8
文字
  6
CONTINUOUS
 10
62.2
 20
125.25
  1
シリーズ：ＴＦ２ＦＬ
 40
5.0
 72
     5
 11
117.825
 21
125.25
  0
TEXT
  7
TextStyle03
  8
文字
  6
CONTINUOUS
 10
62.2
 20
119.625
  1
　　　　　（上下可動）600×3000タイプ
 40
5.0
 72
     5
 11
165.6375
 21
119.625
  0
TEXT
  7
TextStyle03
  8
文字
  6
CONTINUOUS
 10
62.2
 20
114.0
  1
図面名　：外観姿図
 40
5.0
 72
     5
 11
112.2
 21
114.0
  0
TEXT
  7
TextStyle03
  8
文字
  6
CONTINUOUS
 10
62.2
 20
108.375
  1
　　　　　　
 40
5.0
 72
     5
 11
95.325
 21
108.375
  0
LINE
  8
文字
  6
CONTINUOUS
 10
-11.495467
 20
23.757512
 11
-11.495467
 21
21.257512
  0
LINE
  8
文字
  6
CONTINUOUS
 10
-12.328802
 20
23.757512
 11
-12.328802
 21
21.257512
  0
LINE
  8
文字
  6
CONTINUOUS
 10
-44.870467
 20
23.757512
 11
-44.870467
 21
21.257512
  0
LINE
  8
文字
  6
CONTINUOUS
 10
-45.703802
 20
23.757512
 11
-45.703802
 21
21.257512
  0
LINE
  8
文字
  6
CONTINUOUS
 10
-79.078802
 20
23.757512
 11
-79.078802
 21
21.257512
  0
LINE
  8
文字
  6
CONTINUOUS
 10
-78.245467
 20
23.757512
 11
-78.245467
 21
21.257512
  0
LINE
  8
文字
  6
CONTINUOUS
 10
-11.495467
 20
41.870552
 11
-11.495467
 21
44.370552
  0
LINE
  8
文字
  6
CONTINUOUS
 10
-12.328802
 20
41.870552
 11
-12.328802
 21
44.370552
  0
LINE
  8
文字
  6
CONTINUOUS
 10
-44.870467
 20
41.870552
 11
-44.870467
 21
44.370552
  0
LINE
  8
文字
  6
CONTINUOUS
 10
-45.703802
 20
41.870552
 11
-45.703802
 21
44.370552
  0
LINE
  8
文字
  6
CONTINUOUS
 10
-79.078802
 20
41.870552
 11
-79.078802
 21
44.370552
  0
LINE
  8
文字
  6
CONTINUOUS
 10
-78.245467
 20
41.870552
 11
-78.245467
 21
44.370552
  0
LINE
  8
文字
  6
CONTINUOUS
 10
-27.287135
 20
41.03722
 11
-29.787135
 21
41.03722
  0
LINE
  8
文字
  6
CONTINUOUS
 10
-27.287135
 20
24.590845
 11
-29.787135
 21
24.590845
  0
LINE
  8
文字
  6
CONTINUOUS
 10
-63.287135
 20
41.03722
 11
-60.787135
 21
41.03722
  0
LINE
  8
文字
  6
CONTINUOUS
 10
-63.287135
 20
24.590845
 11
-60.787135
 21
24.590845
  0
TEXT
  7
TextStyle03
  8
文字
  6
CONTINUOUS
 10
62.35
 20
104.525
  1
ＮＳコード：ＮＳＦＺＬ
 40
5.0
 72
     5
 11
123.6
 21
104.525
  0
INSERT
  2
*DIM_0002
  8
寸法
  6
CONTINUOUS
 10
0.0
 20
0.0
  0
INSERT
  2
*DIM_0003
  8
寸法
  6
CONTINUOUS
 10
0.0
 20
0.0
  0
INSERT
  2
*DIM_0004
  8
寸法
  6
CONTINUOUS
 10
0.0
 20
0.0
  0
INSERT
  2
*DIM_0005
  8
寸法
  6
CONTINUOUS
 10
0.0
 20
0.0
  0
INSERT
  2
*DIM_0006
  8
寸法
  6
CONTINUOUS
 10
0.0
 20
0.0
  0
INSERT
  2
*DIM_0007
  8
寸法
  6
CONTINUOUS
 10
0.0
 20
0.0
  0
INSERT
  2
*DIM_0008
  8
寸法
  6
CONTINUOUS
 10
0.0
 20
0.0
  0
INSERT
  2
*DIM_0009
  8
寸法
  6
CONTINUOUS
 10
0.0
 20
0.0
  0
INSERT
  2
*DIM_0010
  8
寸法
  6
CONTINUOUS
 10
0.0
 20
0.0
  0
INSERT
  2
*DIM_0011
  8
寸法
  6
CONTINUOUS
 10
0.0
 20
0.0
  0
INSERT
  2
*DIM_0012
  8
寸法
  6
CONTINUOUS
 10
0.0
 20
0.0
  0
INSERT
  2
*DIM_0013
  8
寸法
  6
CONTINUOUS
 10
0.0
 20
0.0
  0
INSERT
  2
*DIM_0014
  8
寸法
  6
CONTINUOUS
 10
0.0
 20
0.0
  0
INSERT
  2
*DIM_0015
  8
寸法
  6
CONTINUOUS
 10
0.0
 20
0.0
  0
INSERT
  2
*DIM_0016
  8
寸法
  6
CONTINUOUS
 10
0.0
 20
0.0
  0
INSERT
  2
*DIM_0017
  8
寸法
  6
CONTINUOUS
 10
0.0
 20
0.0
  0
INSERT
  2
*DIM_0022
  8
寸法
  6
CONTINUOUS
 10
0.0
 20
0.0
  0
INSERT
  2
*DIM_0023
  8
寸法
  6
CONTINUOUS
 10
0.0
 20
0.0
  0
LINE
  8
別途部材
  6
CONTINUOUS
 62
    47
 10
92.851763
 20
44.370552
 11
92.918427
 21
44.370552
  0
ARC
  8
別途部材
  6
CONTINUOUS
 62
    47
 10
92.851762
 20
44.270554
 40
0.1
 50
90.0
 51
180.0
  0
LINE
  8
別途部材
  6
CONTINUOUS
 62
    47
 10
92.751763
 20
44.270552
 11
92.751763
 21
41.903888
  0
LINE
  8
別途部材
  6
CONTINUOUS
 62
    47
 10
94.418427
 20
44.214033
 11
92.918427
 21
44.214033
  0
LINE
  8
別途部材
  6
CONTINUOUS
 62
    47
 10
92.851763
 20
21.257512
 11
92.918427
 21
21.257512
  0
ARC
  8
別途部材
  6
CONTINUOUS
 62
    47
 10
92.851762
 20
21.357512
 40
0.1
 50
180.0
 51
270.0
  0
LINE
  8
別途部材
  6
CONTINUOUS
 62
    47
 10
92.751763
 20
21.357512
 11
92.751763
 21
23.72418
  0
LINE
  8
別途部材
  6
CONTINUOUS
 62
    47
 10
94.418427
 20
21.414035
 11
92.918427
 21
21.414035
  0
LINE
  8
別途部材
  6
CONTINUOUS
 62
    47
 10
-96.843655
 20
-68.150148
 11
-96.843655
 21
-68.216815
  0
ARC
  8
別途部材
  6
CONTINUOUS
 62
    47
 10
-96.743657
 20
-68.150148
 40
0.1
 50
90.0
 51
180.0
  0
LINE
  8
別途部材
  6
CONTINUOUS
 62
    47
 10
-96.743655
 20
-68.050148
 11
-94.376987
 21
-68.050148
  0
LINE
  8
別途部材
  6
CONTINUOUS
 62
    47
 10
-96.687133
 20
-69.716815
 11
-96.687133
 21
-68.216815
  0
LINE
  8
別途部材
  6
CONTINUOUS
 62
    47
 10
6.269385
 20
-68.150148
 11
6.269385
 21
-68.216815
  0
ARC
  8
別途部材
  6
CONTINUOUS
 62
    47
 10
6.169385
 20
-68.150148
 40
0.1
 50
0.0
 51
90.0
  0
LINE
  8
別途部材
  6
CONTINUOUS
 62
    47
 10
6.169385
 20
-68.050148
 11
3.802717
 21
-68.050148
  0
LINE
  8
別途部材
  6
CONTINUOUS
 62
    47
 10
6.112862
 20
-69.716815
 11
6.112862
 21
-68.216815
  0
LINE
  8
別途部材
  6
DOT
 62
    47
 10
-96.843655
 20
-60.816815
 11
-96.843655
 21
-60.883482
  0
ARC
  8
別途部材
  6
DOT
 62
    47
 10
-96.743657
 20
-60.816814
 40
0.1
 50
90.0
 51
180.0
  0
LINE
  8
別途部材
  6
DOT
 62
    47
 10
-96.743655
 20
-60.716815
 11
-94.376987
 21
-60.716815
  0
LINE
  8
別途部材
  6
DOT
 62
    47
 10
-96.687133
 20
-62.383482
 11
-96.687133
 21
-60.883482
  0
LINE
  8
別途部材
  6
DOT
 62
    47
 10
6.269385
 20
-60.816815
 11
6.269385
 21
-60.883482
  0
ARC
  8
別途部材
  6
DOT
 62
    47
 10
6.169385
 20
-60.816814
 40
0.1
 50
0.0
 51
90.0
  0
LINE
  8
別途部材
  6
DOT
 62
    47
 10
6.169385
 20
-60.716815
 11
3.802717
 21
-60.716815
  0
LINE
  8
別途部材
  6
DOT
 62
    47
 10
6.112862
 20
-62.383482
 11
6.112862
 21
-60.883482
  0
LINE
  8
曲げ物
  6
CONTINUOUS
 10
99.79942
 20
-83.118728
 11
99.79942
 21
-63.785395
  0
LINE
  8
曲げ物
  6
CONTINUOUS
 10
-10.646095
 20
34.739582
 11
-14.341407
 21
31.04427
  0
LINE
  8
曲げ物
  6
CONTINUOUS
 10
-11.349565
 20
33.203472
 11
-12.805295
 21
31.747742
  0
LINE
  8
曲げ物
  6
CONTINUOUS
 10
-12.182205
 20
34.036112
 11
-13.637935
 21
32.580383
  0
LINE
  8
曲げ物
  6
CONTINUOUS
 10
-43.64297
 20
34.739582
 11
-47.338282
 21
31.04427
  0
LINE
  8
曲げ物
  6
CONTINUOUS
 10
-44.34644
 20
33.203472
 11
-45.80217
 21
31.747742
  0
LINE
  8
曲げ物
  6
CONTINUOUS
 10
-45.17908
 20
34.036112
 11
-46.63481
 21
32.580383
  0
LINE
  8
曲げ物
  6
CONTINUOUS
 10
-78.00547
 20
34.739582
 11
-81.700782
 21
31.04427
  0
LINE
  8
曲げ物
  6
CONTINUOUS
 10
-78.70894
 20
33.203472
 11
-80.16467
 21
31.747742
  0
LINE
  8
曲げ物
  6
CONTINUOUS
 10
-79.54158
 20
34.036112
 11
-80.99731
 21
32.580383
  0
LINE
  8
曲げ物
  6
CONTINUOUS
 10
67.466087
 20
-83.118728
 11
67.466087
 21
-63.785395
  0
LINE
  8
曲げ物
  6
CONTINUOUS
 10
99.79942
 20
-63.785395
 11
67.466087
 21
-63.785395
  0
LINE
  8
曲げ物
  6
CONTINUOUS
 10
99.79942
 20
-83.118728
 11
67.466087
 21
-83.118728
  0
ENDSEC
  0
EOF
