  0
SECTION
  2
HEADER
  9
$EXTMIN
 10
-210.0
 20
-148.5
  9
$EXTMAX
 10
210.0
 20
148.5
  9
$PDMODE
 70
    32
  9
$PDSIZE
 40
1.5
  9
$LTSCALE
 40
10.0
  0
ENDSEC
  0
SECTION
  2
TABLES
  0
TABLE
  2
LTYPE
 70
    15
  0
LTYPE
  2
CONTINUOUS
 70
    64
  3
実線
 72
    65
 73
     0
 40
0.0
  0
LTYPE
  2
DASHED
 70
    64
  3
破線A
 72
    65
 73
     2
 40
0.6
 49
0.4
 49
-0.2
  0
LTYPE
  2
DASHEDX2
 70
    64
  3
破線B
 72
    65
 73
     2
 40
1.3
 49
0.9
 49
-0.4
  0
LTYPE
  2
DASHDOT
 70
    64
  3
１点鎖線A
 72
    65
 73
     4
 40
0.5375
 49
0.375
 49
-0.05
 49
0.0625
 49
-0.05
  0
LTYPE
  2
DASHDOTX2
 70
    64
  3
１点鎖線B
 72
    65
 73
     4
 40
1.075
 49
0.75
 49
-0.1
 49
0.125
 49
-0.1
  0
LTYPE
  2
DIVIDE2
 70
    64
  3
２点鎖線A
 72
    65
 73
     6
 40
0.5125
 49
0.3
 49
-0.0375
 49
0.05
 49
-0.0375
 49
0.05
 49
-0.0375
  0
LTYPE
  2
DIVIDE
 70
    64
  3
２点鎖線B
 72
    65
 73
     6
 40
1.05
 49
0.55
 49
-0.1
 49
0.1
 49
-0.1
 49
0.1
 49
-0.1
  0
LTYPE
  2
DOT
 70
    64
  3
点線A
 72
    65
 73
     2
 40
0.1125
 49
0.0625
 49
-0.05
  0
LTYPE
  2
DOTX2
 70
    64
  3
点線B
 72
    65
 73
     2
 40
0.275
 49
0.15
 49
-0.125
  0
LTYPE
  2
CONTINUOUS
 70
    64
  3
実線
 72
    65
 73
     0
 40
0.0
  0
LTYPE
  2
CONTINUOUS
 70
    64
  3
実線
 72
    65
 73
     0
 40
0.0
  0
LTYPE
  2
CONTINUOUS
 70
    64
  3
実線
 72
    65
 73
     0
 40
0.0
  0
LTYPE
  2
CONTINUOUS
 70
    64
  3
実線
 72
    65
 73
     0
 40
0.0
  0
LTYPE
  2
CONTINUOUS
 70
    64
  3
実線
 72
    65
 73
     0
 40
0.0
  0
LTYPE
  2
CONTINUOUS
 70
    64
  3
実線
 72
    65
 73
     0
 40
0.0
  0
ENDTAB
  0
TABLE
  2
LAYER
 70
    34
  0
LAYER
  2
通り芯
 70
     0
 62
    15
  6
CONTINUOUS
  0
LAYER
  2
補助線
 70
     0
 62
    16
  6
DOT
  0
LAYER
  2
躯体
 70
     0
 62
    31
  6
CONTINUOUS
  0
LAYER
  2
型材
 70
     0
 62
    32
  6
CONTINUOUS
  0
LAYER
  2
型材断面
 70
     0
 62
    47
  6
CONTINUOUS
  0
LAYER
  2
ガラス
 70
     0
 62
    48
  6
CONTINUOUS
  0
LAYER
  2
ゴム等
 70
     0
 62
    63
  6
CONTINUOUS
  0
LAYER
  2
ボルト／ビス
 70
     0
 62
    64
  6
CONTINUOUS
  0
LAYER
  2
文字
 70
     0
 62
    79
  6
CONTINUOUS
  0
LAYER
  2
寸法
 70
     0
 62
    80
  6
CONTINUOUS
  0
LAYER
  2
ﾊｯﾁﾝｸﾞ
 70
     0
 62
    95
  6
CONTINUOUS
  0
LAYER
  2
別途部材
 70
     0
 62
    96
  6
CONTINUOUS
  0
LAYER
  2
曲げ物
 70
     0
 62
   111
  6
CONTINUOUS
  0
LAYER
  2
鉄骨等
 70
     0
 62
   112
  6
CONTINUOUS
  0
LAYER
  2
St
 70
     0
 62
   127
  6
CONTINUOUS
  0
LAYER
  2
その他部品等
 70
     0
 62
   128
  6
CONTINUOUS
  0
LAYER
  2
ｶﾞｽｹｯﾄ
 70
     0
 62
   143
  6
CONTINUOUS
  0
LAYER
  2
ｽｹｯﾁ
 70
     0
 62
    14
  6
CONTINUOUS
  0
LAYER
  2
0
 70
     0
 62
    17
  6
CONTINUOUS
  0
LAYER
  2
1
 70
     0
 62
    30
  6
CONTINUOUS
  0
LAYER
  2
4
 70
     0
 62
    33
  6
CONTINUOUS
  0
LAYER
  2
ﾚｲﾔ3
 70
     0
 62
    46
  6
CONTINUOUS
  0
LAYER
  2
外形線
 70
     0
 62
    49
  6
CONTINUOUS
  0
LAYER
  2
部品
 70
     0
 62
    14
  6
CONTINUOUS
  0
LAYER
  2
サッシ芯
 70
     0
 62
    17
  6
DASHDOTX2
  0
LAYER
  2
寸法線
 70
     0
 62
    62
  6
CONTINUOUS
  0
LAYER
  2
姿図外形線
 70
     0
 62
    65
  6
CONTINUOUS
  0
LAYER
  2
姿補助線
 70
     0
 62
    30
  6
CONTINUOUS
  0
LAYER
  2
透視線
 70
     0
 62
    78
  6
DOT
  0
LAYER
  2
用紙
 70
     0
 62
    81
  6
CONTINUOUS
  0
LAYER
  2
実線図枠
 70
     0
 62
    94
  6
CONTINUOUS
  0
LAYER
  2
補助図枠
 70
     0
 62
    97
  6
CONTINUOUS
  0
LAYER
  2
建具記号
 70
     0
 62
   110
  6
CONTINUOUS
  0
LAYER
  2
補助文字
 70
     0
 62
   113
  6
CONTINUOUS
  0
ENDTAB
  0
TABLE
  2
STYLE
 70
    10
  0
STYLE
  2
STANDARD
 70
     0
 40
1.0
 41
1.0
 42
1.0
 50
0.0
 71
     0
  3
TXT
  4
BIGFONT
  0
STYLE
  2
TATE
 70
     4
 40
1.0
 41
1.0
 42
1.0
 50
0.0
 71
     0
  3
TXT
  4
BIGFONT
  0
STYLE
  2
TextStyle03
 70
     0
 40
1.0
 41
1.0
 42
1.0
 50
0.0
 71
     0
  3
MONOTXT
  4
BIGFONT
  0
STYLE
  2
TextStyle04
 70
     0
 40
1.0
 41
1.0
 42
1.0
 50
0.0
 71
     0
  3
MONOTXT
  4
BIGFONT
  0
STYLE
  2
TextStyle05
 70
     0
 40
1.0
 41
1.0
 42
1.0
 50
0.0
 71
     0
  3
MONOTXT
  4
BIGFONT
  0
STYLE
  2
TextStyle06
 70
     0
 40
1.0
 41
1.0
 42
1.0
 50
0.0
 71
     0
  3
MONOTXT
  4
BIGFONT
  0
STYLE
  2
TextStyle07
 70
     0
 40
1.0
 41
1.0
 42
1.0
 50
0.0
 71
     0
  3
MONOTXT
  4
BIGFONT
  0
STYLE
  2
TextStyle08
 70
     0
 40
1.0
 41
1.0
 42
1.0
 50
0.0
 71
     0
  3
MONOTXT
  4
BIGFONT
  0
STYLE
  2
TextStyle09
 70
     0
 40
1.0
 41
1.0
 42
1.0
 50
0.0
 71
     0
  3
MONOTXT
  4
BIGFONT
  0
STYLE
  2
TextStyle10
 70
     0
 40
1.0
 41
1.0
 42
1.0
 50
0.0
 71
     0
  3
MONOTXT
  4
BIGFONT
  0
ENDTAB
  0
ENDSEC
  0
SECTION
  2
BLOCKS
  0
BLOCK
  2
*GRP_0001
 70
    65
 10
0.0
 20
0.0
  0
LINE
  8
型材断面
  6
CONTINUOUS
 10
195.0
 20
133.5
 11
195.0
 21
-133.5
  0
LINE
  8
型材断面
  6
CONTINUOUS
 10
195.0
 20
-133.5
 11
-185.0
 21
-133.5
  0
LINE
  8
型材断面
  6
CONTINUOUS
 10
-185.0
 20
-133.5
 11
-185.0
 21
133.5
  0
LINE
  8
型材断面
  6
CONTINUOUS
 10
195.0
 20
133.5
 11
-185.0
 21
133.5
  0
LINE
  8
型材断面
  6
CONTINUOUS
 10
145.0
 20
-133.5
 11
145.0
 21
-118.5
  0
LINE
  8
型材断面
  6
CONTINUOUS
 10
195.0
 20
-118.5
 11
145.0
 21
-118.5
  0
ENDBLK
  0
BLOCK
  2
*DIM_0002
 70
    65
 10
0.0
 20
0.0
  0
LINE
  8
寸法
  6
BYBLOCK
 62
     0
 10
142.310947
 20
-63.785395
 11
150.422478
 21
-63.785395
  0
LINE
  8
寸法
  6
BYBLOCK
 62
     0
 10
142.310947
 20
-83.118728
 11
150.422478
 21
-83.118728
  0
LINE
  8
寸法
  6
BYBLOCK
 62
     0
 10
150.422478
 20
-63.785395
 11
150.422478
 21
-83.118728
  0
POINT
  8
寸法
 62
     0
 10
150.422478
 20
-63.785395
  0
POINT
  8
寸法
 62
     0
 10
150.422478
 20
-83.118728
  0
TEXT
  7
TextStyle03
  8
寸法
  6
CONTINUOUS
 62
     0
 10
150.025
 20
-75.9125
  1
580
 40
3.0
 50
90.0
 72
     5
 11
150.025
 21
-71.0375
  0
ENDBLK
  0
BLOCK
  2
*DIM_0003
 70
    65
 10
0.0
 20
0.0
  0
LINE
  8
寸法
  6
BYBLOCK
 62
     0
 10
-70.442275
 20
-16.511205
 11
-70.442275
 21
-13.121378
  0
LINE
  8
寸法
  6
BYBLOCK
 62
     0
 10
46.224393
 20
-13.121378
 11
-70.442275
 21
-13.121378
  0
POINT
  8
寸法
 62
     0
 10
46.224393
 20
-13.121378
  0
POINT
  8
寸法
 62
     0
 10
-70.442275
 20
-13.121378
  0
TEXT
  7
TextStyle03
  8
寸法
  6
CONTINUOUS
 62
     0
 10
-23.84375
 20
-12.75
  1
呼称寸法　3500
 40
3.0
 72
     5
 11
-0.40625
 21
-12.75
  0
ENDBLK
  0
BLOCK
  2
*DIM_0004
 70
    65
 10
0.0
 20
0.0
  0
LINE
  8
寸法
  6
BYBLOCK
 62
     0
 10
-53.775608
 20
19.183902
 11
-53.775608
 21
14.042105
  0
LINE
  8
寸法
  6
BYBLOCK
 62
     0
 10
29.557727
 20
19.183902
 11
29.557727
 21
14.042105
  0
LINE
  8
寸法
  6
BYBLOCK
 62
     0
 10
-53.775608
 20
14.042105
 11
29.557727
 21
14.042105
  0
POINT
  8
寸法
 62
     0
 10
-53.775608
 20
14.042105
  0
POINT
  8
寸法
 62
     0
 10
29.557727
 20
14.042105
  0
TEXT
  7
TextStyle03
  8
寸法
  6
CONTINUOUS
 62
     0
 10
-15.40625
 20
14.4
  1
2500
 40
3.0
 72
     5
 11
-8.84375
 21
14.4
  0
ENDBLK
  0
BLOCK
  2
*DIM_0005
 70
    65
 10
0.0
 20
0.0
  0
LINE
  8
寸法
  6
BYBLOCK
 62
     0
 10
47.224393
 20
42.814035
 11
56.948675
 21
42.814035
  0
LINE
  8
寸法
  6
BYBLOCK
 62
     0
 10
49.854522
 20
39.114035
 11
56.948675
 21
39.114035
  0
LINE
  8
寸法
  6
BYBLOCK
 62
     0
 10
56.948675
 20
42.814035
 11
56.948675
 21
39.114035
  0
POINT
  8
寸法
 62
     0
 10
56.948675
 20
42.814035
  0
POINT
  8
寸法
 62
     0
 10
56.948675
 20
39.114035
  0
TEXT
  7
TextStyle03
  8
寸法
  6
CONTINUOUS
 62
     0
 10
56.625
 20
43.8125
  1
111
 40
3.0
 50
90.0
 72
     5
 11
56.625
 21
48.6875
  0
ENDBLK
  0
BLOCK
  2
*DIM_0006
 70
    65
 10
0.0
 20
0.0
  0
LINE
  8
寸法
  6
BYBLOCK
 62
     0
 10
47.224393
 20
22.81403
 11
56.948675
 21
22.814027
  0
LINE
  8
寸法
  6
BYBLOCK
 62
     0
 10
49.854522
 20
26.51403
 11
56.948675
 21
26.514027
  0
LINE
  8
寸法
  6
BYBLOCK
 62
     0
 10
56.948675
 20
22.814027
 11
56.948675
 21
26.514027
  0
POINT
  8
寸法
 62
     0
 10
56.948675
 20
22.814027
  0
POINT
  8
寸法
 62
     0
 10
56.948675
 20
26.514027
  0
TEXT
  7
TextStyle03
  8
寸法
  6
CONTINUOUS
 62
     0
 10
56.95
 20
16.5625
  1
111
 40
3.0
 50
90.0
 72
     5
 11
56.95
 21
21.4375
  0
ENDBLK
  0
BLOCK
  2
*DIM_0007
 70
    65
 10
0.0
 20
0.0
  0
LINE
  8
寸法
  6
BYBLOCK
 62
     0
 10
80.244043
 20
22.814033
 11
80.244043
 21
42.814033
  0
POINT
  8
寸法
 62
     0
 10
80.244043
 20
22.814033
  0
POINT
  8
寸法
 62
     0
 10
80.244043
 20
42.814033
  0
TEXT
  7
TextStyle03
  8
寸法
  6
CONTINUOUS
 62
     0
 10
79.875
 20
21.925
  1
呼称寸法　600
 40
3.0
 50
90.0
 72
     5
 11
79.875
 21
43.675
  0
ENDBLK
  0
BLOCK
  2
*DIM_0008
 70
    65
 10
0.0
 20
0.0
  0
LINE
  8
寸法
  6
BYBLOCK
 62
     0
 10
134.134438
 20
44.79737
 11
80.244043
 21
44.79737
  0
LINE
  8
寸法
  6
BYBLOCK
 62
     0
 10
80.244043
 20
42.814033
 11
80.244043
 21
44.79737
  0
POINT
  8
寸法
 62
     0
 10
80.244043
 20
42.814033
  0
POINT
  8
寸法
 62
     0
 10
80.244043
 20
44.79737
  0
TEXT
  7
TextStyle03
  8
寸法
  6
CONTINUOUS
 62
     0
 10
79.85
 20
47.26875
  1
59.5
 40
3.0
 50
90.0
 72
     5
 11
79.85
 21
53.83125
  0
ENDBLK
  0
BLOCK
  2
*DIM_0009
 70
    65
 10
0.0
 20
0.0
  0
LINE
  8
寸法
  6
BYBLOCK
 62
     0
 10
134.134438
 20
20.830703
 11
80.244043
 21
20.830703
  0
LINE
  8
寸法
  6
BYBLOCK
 62
     0
 10
80.244043
 20
22.814033
 11
80.244043
 21
20.830703
  0
POINT
  8
寸法
 62
     0
 10
80.244043
 20
22.814033
  0
POINT
  8
寸法
 62
     0
 10
80.244043
 20
20.830703
  0
TEXT
  7
TextStyle03
  8
寸法
  6
CONTINUOUS
 62
     0
 10
79.85
 20
11.76875
  1
59.5
 40
3.0
 50
90.0
 72
     5
 11
79.85
 21
18.33125
  0
ENDBLK
  0
BLOCK
  2
*DIM_0010
 70
    65
 10
0.0
 20
0.0
  0
LINE
  8
寸法
  6
BYBLOCK
 62
     0
 10
48.207727
 20
-61.253063
 11
48.207727
 21
-13.121378
  0
LINE
  8
寸法
  6
BYBLOCK
 62
     0
 10
46.224393
 20
-13.121378
 11
48.207727
 21
-13.121378
  0
POINT
  8
寸法
 62
     0
 10
46.224393
 20
-13.121378
  0
POINT
  8
寸法
 62
     0
 10
48.207727
 20
-13.121378
  0
TEXT
  7
TextStyle03
  8
寸法
  6
CONTINUOUS
 62
     0
 10
50.66875
 20
-12.75
  1
59.5
 40
3.0
 72
     5
 11
57.23125
 21
-12.75
  0
ENDBLK
  0
BLOCK
  2
*DIM_0011
 70
    65
 10
0.0
 20
0.0
  0
LINE
  8
寸法
  6
BYBLOCK
 62
     0
 10
-72.425608
 20
-61.253063
 11
-72.425608
 21
-13.121378
  0
LINE
  8
寸法
  6
BYBLOCK
 62
     0
 10
-70.442275
 20
-13.121378
 11
-72.425608
 21
-13.121378
  0
POINT
  8
寸法
 62
     0
 10
-70.442275
 20
-13.121378
  0
POINT
  8
寸法
 62
     0
 10
-72.425608
 20
-13.121378
  0
TEXT
  7
TextStyle03
  8
寸法
  6
CONTINUOUS
 62
     0
 10
-81.48125
 20
-12.75
  1
59.5
 40
3.0
 72
     5
 11
-74.91875
 21
-12.75
  0
ENDBLK
  0
BLOCK
  2
*DIM_0012
 70
    65
 10
0.0
 20
0.0
  0
LINE
  8
寸法
  6
BYBLOCK
 62
     0
 10
-73.442275
 20
39.4807
 11
-86.735113
 21
39.4807
  0
LINE
  8
寸法
  6
BYBLOCK
 62
     0
 10
-73.442275
 20
26.147365
 11
-86.735113
 21
26.147365
  0
LINE
  8
寸法
  6
BYBLOCK
 62
     0
 10
-86.735113
 20
39.4807
 11
-86.735113
 21
26.147365
  0
POINT
  8
寸法
 62
     0
 10
-86.735113
 20
39.4807
  0
POINT
  8
寸法
 62
     0
 10
-86.735113
 20
26.147365
  0
TEXT
  7
TextStyle03
  8
寸法
  6
CONTINUOUS
 62
     0
 10
-87.175
 20
30.3625
  1
400
 40
3.0
 50
90.0
 72
     5
 11
-87.175
 21
35.2375
  0
ENDBLK
  0
BLOCK
  2
*DIM_0013
 70
    65
 10
0.0
 20
0.0
  0
LINE
  8
寸法
  6
BYBLOCK
 62
     0
 10
-65.442273
 20
45.814033
 11
-65.442273
 21
74.922105
  0
LINE
  8
寸法
  6
BYBLOCK
 62
     0
 10
-38.775608
 20
45.814033
 11
-38.775608
 21
74.922105
  0
LINE
  8
寸法
  6
BYBLOCK
 62
     0
 10
-65.442273
 20
74.922105
 11
-38.775608
 21
74.922105
  0
POINT
  8
寸法
 62
     0
 10
-65.442273
 20
74.922105
  0
POINT
  8
寸法
 62
     0
 10
-38.775608
 20
74.922105
  0
TEXT
  7
TextStyle03
  8
寸法
  6
CONTINUOUS
 62
     0
 10
-54.5625
 20
75.3
  1
800
 40
3.0
 72
     5
 11
-49.6875
 21
75.3
  0
ENDBLK
  0
BLOCK
  2
*DIM_0014
 70
    65
 10
0.0
 20
0.0
  0
LINE
  8
寸法
  6
BYBLOCK
 62
     0
 10
-12.10894
 20
45.814033
 11
-12.10894
 21
74.922105
  0
LINE
  8
寸法
  6
BYBLOCK
 62
     0
 10
-38.775608
 20
74.922105
 11
-12.10894
 21
74.922105
  0
POINT
  8
寸法
 62
     0
 10
-12.10894
 20
74.922105
  0
TEXT
  7
TextStyle03
  8
寸法
  6
CONTINUOUS
 62
     0
 10
-27.9125
 20
75.3
  1
800
 40
3.0
 72
     5
 11
-23.0375
 21
75.3
  0
ENDBLK
  0
BLOCK
  2
*DIM_0015
 70
    65
 10
0.0
 20
0.0
  0
LINE
  8
寸法
  6
BYBLOCK
 62
     0
 10
14.557727
 20
45.814033
 11
14.557727
 21
74.922105
  0
LINE
  8
寸法
  6
BYBLOCK
 62
     0
 10
-12.10894
 20
74.922105
 11
14.557727
 21
74.922105
  0
POINT
  8
寸法
 62
     0
 10
14.557727
 20
74.922105
  0
TEXT
  7
TextStyle03
  8
寸法
  6
CONTINUOUS
 62
     0
 10
-1.2375
 20
75.3
  1
800
 40
3.0
 72
     5
 11
3.6375
 21
75.3
  0
ENDBLK
  0
BLOCK
  2
*DIM_0016
 70
    65
 10
0.0
 20
0.0
  0
LINE
  8
寸法
  6
BYBLOCK
 62
     0
 10
41.224393
 20
45.814033
 11
41.224393
 21
74.922105
  0
LINE
  8
寸法
  6
BYBLOCK
 62
     0
 10
14.557727
 20
74.922105
 11
41.224393
 21
74.922105
  0
POINT
  8
寸法
 62
     0
 10
41.224393
 20
74.922105
  0
TEXT
  7
TextStyle03
  8
寸法
  6
CONTINUOUS
 62
     0
 10
25.4375
 20
75.3
  1
800
 40
3.0
 72
     5
 11
30.3125
 21
75.3
  0
ENDBLK
  0
BLOCK
  2
*GRP_0017
 70
    65
 10
0.0
 20
0.0
  0
LINE
  8
補助線
  6
BYBLOCK
 62
    64
 10
-58.701142
 20
-73.785513
 11
-58.850068
 21
-73.860337
  0
LINE
  8
補助線
  6
BYBLOCK
 62
    64
 10
-58.813018
 20
-73.74846
 11
-58.738192
 21
-73.897387
  0
LINE
  8
補助線
  6
BYBLOCK
 62
    64
 10
-48.782662
 20
-68.802155
 11
-48.93159
 21
-68.87698
  0
LINE
  8
補助線
  6
BYBLOCK
 62
    64
 10
-48.89454
 20
-68.765103
 11
-48.819715
 21
-68.91403
  0
LINE
  8
補助線
  6
BYBLOCK
 62
    64
 10
-39.013112
 20
-63.893623
 11
-38.864185
 21
-63.818797
  0
LINE
  8
補助線
  6
BYBLOCK
 62
    64
 10
-38.976062
 20
-63.781745
 11
-38.901238
 21
-63.930673
  0
LINE
  8
型材断面
  6
CONTINUOUS
 10
-59.447583
 20
-73.227948
 11
-59.669885
 21
-73.8992
  0
LINE
  8
型材断面
  6
CONTINUOUS
 10
-59.669885
 20
-73.8992
 11
-59.370582
 21
-74.494905
  0
LINE
  8
型材断面
  6
CONTINUOUS
 10
-59.370582
 20
-74.494905
 11
-58.69933
 21
-74.717208
  0
LINE
  8
型材断面
  6
CONTINUOUS
 10
-39.014925
 20
-62.96193
 11
-38.34367
 21
-63.184232
  0
LINE
  8
型材断面
  6
CONTINUOUS
 10
-38.34367
 20
-63.184232
 11
-38.044368
 21
-63.779937
  0
LINE
  8
型材断面
  6
CONTINUOUS
 10
-38.044368
 20
-63.779937
 11
-38.266673
 21
-64.45119
  0
LINE
  8
型材断面
  6
CONTINUOUS
 10
-59.447583
 20
-73.227948
 11
-39.014925
 21
-62.96193
  0
LINE
  8
型材断面
  6
CONTINUOUS
 10
-58.69933
 20
-74.717208
 11
-38.266673
 21
-64.45119
  0
CIRCLE
  8
ボルト／ビス
  6
CONTINUOUS
 10
-58.775605
 20
-73.822925
 40
0.250185
  0
CIRCLE
  8
ボルト／ビス
  6
CONTINUOUS
 10
-58.775605
 20
-73.822925
 40
0.301025
  0
LINE
  8
ボルト／ビス
  6
CONTINUOUS
 62
    64
 10
-59.02537
 20
-73.808422
 11
-58.887925
 21
-73.599373
  0
LINE
  8
ボルト／ビス
  6
CONTINUOUS
 62
    64
 10
-58.63816
 20
-73.613875
 11
-58.887925
 21
-73.599373
  0
LINE
  8
ボルト／ビス
  6
CONTINUOUS
 62
    64
 10
-58.91305
 20
-74.031975
 11
-58.663285
 21
-74.046478
  0
LINE
  8
ボルト／ビス
  6
CONTINUOUS
 62
    64
 10
-58.52584
 20
-73.837428
 11
-58.663285
 21
-74.046478
  0
LINE
  8
ボルト／ビス
  6
CONTINUOUS
 62
    64
 10
-59.02537
 20
-73.808422
 11
-58.91305
 21
-74.031975
  0
LINE
  8
ボルト／ビス
  6
CONTINUOUS
 62
    64
 10
-58.63816
 20
-73.613875
 11
-58.52584
 21
-73.837428
  0
CIRCLE
  8
ボルト／ビス
  6
CONTINUOUS
 62
    64
 10
-58.775605
 20
-73.822925
 40
0.216668
  0
CIRCLE
  8
ボルト／ビス
  6
CONTINUOUS
 10
-48.857128
 20
-68.839567
 40
0.250185
  0
CIRCLE
  8
ボルト／ビス
  6
CONTINUOUS
 10
-48.857128
 20
-68.839567
 40
0.301025
  0
LINE
  8
ボルト／ビス
  6
CONTINUOUS
 62
    64
 10
-49.106892
 20
-68.825062
 11
-48.969448
 21
-68.616013
  0
LINE
  8
ボルト／ビス
  6
CONTINUOUS
 62
    64
 10
-48.719682
 20
-68.630515
 11
-48.969448
 21
-68.616013
  0
LINE
  8
ボルト／ビス
  6
CONTINUOUS
 62
    64
 10
-48.994572
 20
-69.048618
 11
-48.744805
 21
-69.063123
  0
LINE
  8
ボルト／ビス
  6
CONTINUOUS
 62
    64
 10
-48.607363
 20
-68.854072
 11
-48.744805
 21
-69.063123
  0
LINE
  8
ボルト／ビス
  6
CONTINUOUS
 62
    64
 10
-49.106892
 20
-68.825062
 11
-48.994572
 21
-69.048618
  0
LINE
  8
ボルト／ビス
  6
CONTINUOUS
 62
    64
 10
-48.719682
 20
-68.630515
 11
-48.607363
 21
-68.854072
  0
CIRCLE
  8
ボルト／ビス
  6
CONTINUOUS
 62
    64
 10
-48.857128
 20
-68.839567
 40
0.216668
  0
CIRCLE
  8
ボルト／ビス
  6
CONTINUOUS
 10
-38.93865
 20
-63.85621
 40
0.250185
  0
CIRCLE
  8
ボルト／ビス
  6
CONTINUOUS
 10
-38.93865
 20
-63.85621
 40
0.301025
  0
LINE
  8
ボルト／ビス
  6
CONTINUOUS
 62
    64
 10
-38.801205
 20
-63.64716
 11
-39.05097
 21
-63.632658
  0
LINE
  8
ボルト／ビス
  6
CONTINUOUS
 62
    64
 10
-39.188415
 20
-63.841708
 11
-39.05097
 21
-63.632658
  0
LINE
  8
ボルト／ビス
  6
CONTINUOUS
 62
    64
 10
-38.688885
 20
-63.870715
 11
-38.826328
 21
-64.079763
  0
LINE
  8
ボルト／ビス
  6
CONTINUOUS
 62
    64
 10
-39.076095
 20
-64.06526
 11
-38.826328
 21
-64.079763
  0
LINE
  8
ボルト／ビス
  6
CONTINUOUS
 62
    64
 10
-38.801205
 20
-63.64716
 11
-38.688885
 21
-63.870715
  0
LINE
  8
ボルト／ビス
  6
CONTINUOUS
 62
    64
 10
-39.188415
 20
-63.841708
 11
-39.076095
 21
-64.06526
  0
CIRCLE
  8
ボルト／ビス
  6
CONTINUOUS
 62
    64
 10
-38.93865
 20
-63.85621
 40
0.216668
  0
ENDBLK
  0
BLOCK
  2
*GRP_0018
 70
    65
 10
0.0
 20
0.0
  0
LINE
  8
補助線
  6
BYBLOCK
 62
    64
 10
-39.013112
 20
-73.785513
 11
-38.864188
 21
-73.860337
  0
LINE
  8
補助線
  6
BYBLOCK
 62
    64
 10
-38.901238
 20
-73.74846
 11
-38.976062
 21
-73.897387
  0
LINE
  8
補助線
  6
BYBLOCK
 62
    64
 10
-48.931592
 20
-68.802155
 11
-48.782665
 21
-68.87698
  0
LINE
  8
補助線
  6
BYBLOCK
 62
    64
 10
-48.819715
 20
-68.765103
 11
-48.89454
 21
-68.91403
  0
LINE
  8
補助線
  6
BYBLOCK
 62
    64
 10
-58.701142
 20
-63.893623
 11
-58.85007
 21
-63.818797
  0
LINE
  8
補助線
  6
BYBLOCK
 62
    64
 10
-58.738192
 20
-63.781745
 11
-58.813018
 21
-63.930673
  0
LINE
  8
型材断面
  6
CONTINUOUS
 10
-38.266673
 20
-73.227948
 11
-38.04437
 21
-73.8992
  0
LINE
  8
型材断面
  6
CONTINUOUS
 10
-38.04437
 20
-73.8992
 11
-38.343672
 21
-74.494905
  0
LINE
  8
型材断面
  6
CONTINUOUS
 10
-38.343672
 20
-74.494905
 11
-39.014925
 21
-74.717208
  0
LINE
  8
型材断面
  6
CONTINUOUS
 10
-58.69933
 20
-62.96193
 11
-59.370585
 21
-63.184232
  0
LINE
  8
型材断面
  6
CONTINUOUS
 10
-59.370585
 20
-63.184232
 11
-59.669888
 21
-63.779937
  0
LINE
  8
型材断面
  6
CONTINUOUS
 10
-59.669888
 20
-63.779937
 11
-59.447583
 21
-64.45119
  0
LINE
  8
型材断面
  6
CONTINUOUS
 10
-38.266673
 20
-73.227948
 11
-58.69933
 21
-62.96193
  0
LINE
  8
型材断面
  6
CONTINUOUS
 10
-39.014925
 20
-74.717208
 11
-59.447583
 21
-64.45119
  0
CIRCLE
  8
ボルト／ビス
  6
CONTINUOUS
 10
-38.93865
 20
-73.822925
 40
0.250185
  0
CIRCLE
  8
ボルト／ビス
  6
CONTINUOUS
 10
-38.93865
 20
-73.822925
 40
0.301025
  0
LINE
  8
ボルト／ビス
  6
CONTINUOUS
 62
    64
 10
-38.688885
 20
-73.808422
 11
-38.82633
 21
-73.599373
  0
LINE
  8
ボルト／ビス
  6
CONTINUOUS
 62
    64
 10
-39.076095
 20
-73.613875
 11
-38.82633
 21
-73.599373
  0
LINE
  8
ボルト／ビス
  6
CONTINUOUS
 62
    64
 10
-38.801205
 20
-74.031975
 11
-39.05097
 21
-74.046478
  0
LINE
  8
ボルト／ビス
  6
CONTINUOUS
 62
    64
 10
-39.188415
 20
-73.837428
 11
-39.05097
 21
-74.046478
  0
LINE
  8
ボルト／ビス
  6
CONTINUOUS
 62
    64
 10
-38.688885
 20
-73.808422
 11
-38.801205
 21
-74.031975
  0
LINE
  8
ボルト／ビス
  6
CONTINUOUS
 62
    64
 10
-39.076095
 20
-73.613875
 11
-39.188415
 21
-73.837428
  0
CIRCLE
  8
ボルト／ビス
  6
CONTINUOUS
 62
    64
 10
-38.93865
 20
-73.822925
 40
0.216668
  0
CIRCLE
  8
ボルト／ビス
  6
CONTINUOUS
 10
-48.857128
 20
-68.839567
 40
0.250185
  0
CIRCLE
  8
ボルト／ビス
  6
CONTINUOUS
 10
-48.857128
 20
-68.839567
 40
0.301025
  0
LINE
  8
ボルト／ビス
  6
CONTINUOUS
 62
    64
 10
-48.607363
 20
-68.825062
 11
-48.744808
 21
-68.616013
  0
LINE
  8
ボルト／ビス
  6
CONTINUOUS
 62
    64
 10
-48.994572
 20
-68.630515
 11
-48.744808
 21
-68.616013
  0
LINE
  8
ボルト／ビス
  6
CONTINUOUS
 62
    64
 10
-48.719682
 20
-69.048618
 11
-48.96945
 21
-69.063123
  0
LINE
  8
ボルト／ビス
  6
CONTINUOUS
 62
    64
 10
-49.106892
 20
-68.854072
 11
-48.96945
 21
-69.063123
  0
LINE
  8
ボルト／ビス
  6
CONTINUOUS
 62
    64
 10
-48.607363
 20
-68.825062
 11
-48.719682
 21
-69.048618
  0
LINE
  8
ボルト／ビス
  6
CONTINUOUS
 62
    64
 10
-48.994572
 20
-68.630515
 11
-49.106892
 21
-68.854072
  0
CIRCLE
  8
ボルト／ビス
  6
CONTINUOUS
 62
    64
 10
-48.857128
 20
-68.839567
 40
0.216668
  0
CIRCLE
  8
ボルト／ビス
  6
CONTINUOUS
 10
-58.775605
 20
-63.85621
 40
0.250185
  0
CIRCLE
  8
ボルト／ビス
  6
CONTINUOUS
 10
-58.775605
 20
-63.85621
 40
0.301025
  0
LINE
  8
ボルト／ビス
  6
CONTINUOUS
 62
    64
 10
-58.91305
 20
-63.64716
 11
-58.663285
 21
-63.632658
  0
LINE
  8
ボルト／ビス
  6
CONTINUOUS
 62
    64
 10
-58.52584
 20
-63.841708
 11
-58.663285
 21
-63.632658
  0
LINE
  8
ボルト／ビス
  6
CONTINUOUS
 62
    64
 10
-59.02537
 20
-63.870715
 11
-58.887928
 21
-64.079763
  0
LINE
  8
ボルト／ビス
  6
CONTINUOUS
 62
    64
 10
-58.63816
 20
-64.06526
 11
-58.887928
 21
-64.079763
  0
LINE
  8
ボルト／ビス
  6
CONTINUOUS
 62
    64
 10
-58.91305
 20
-63.64716
 11
-59.02537
 21
-63.870715
  0
LINE
  8
ボルト／ビス
  6
CONTINUOUS
 62
    64
 10
-58.52584
 20
-63.841708
 11
-58.63816
 21
-64.06526
  0
CIRCLE
  8
ボルト／ビス
  6
CONTINUOUS
 62
    64
 10
-58.775605
 20
-63.85621
 40
0.216668
  0
ENDBLK
  0
BLOCK
  2
*GRP_0019
 70
    65
 10
0.0
 20
0.0
  0
LINE
  8
補助線
  6
BYBLOCK
 62
    64
 10
34.483267
 20
-73.785513
 11
34.632193
 21
-73.860337
  0
LINE
  8
補助線
  6
BYBLOCK
 62
    64
 10
34.595142
 20
-73.74846
 11
34.520318
 21
-73.897387
  0
LINE
  8
補助線
  6
BYBLOCK
 62
    64
 10
24.564788
 20
-68.802155
 11
24.713715
 21
-68.87698
  0
LINE
  8
補助線
  6
BYBLOCK
 62
    64
 10
24.676665
 20
-68.765103
 11
24.60184
 21
-68.91403
  0
LINE
  8
補助線
  6
BYBLOCK
 62
    64
 10
14.795238
 20
-63.893623
 11
14.64631
 21
-63.818797
  0
LINE
  8
補助線
  6
BYBLOCK
 62
    64
 10
14.758187
 20
-63.781745
 11
14.683362
 21
-63.930673
  0
LINE
  8
型材断面
  6
CONTINUOUS
 10
35.229708
 20
-73.227948
 11
35.45201
 21
-73.8992
  0
LINE
  8
型材断面
  6
CONTINUOUS
 10
35.45201
 20
-73.8992
 11
35.152707
 21
-74.494905
  0
LINE
  8
型材断面
  6
CONTINUOUS
 10
35.152707
 20
-74.494905
 11
34.481455
 21
-74.717208
  0
LINE
  8
型材断面
  6
CONTINUOUS
 10
14.79705
 20
-62.96193
 11
14.125795
 21
-63.184232
  0
LINE
  8
型材断面
  6
CONTINUOUS
 10
14.125795
 20
-63.184232
 11
13.826492
 21
-63.779937
  0
LINE
  8
型材断面
  6
CONTINUOUS
 10
13.826492
 20
-63.779937
 11
14.048798
 21
-64.45119
  0
LINE
  8
型材断面
  6
CONTINUOUS
 10
35.229708
 20
-73.227948
 11
14.79705
 21
-62.96193
  0
LINE
  8
型材断面
  6
CONTINUOUS
 10
34.481455
 20
-74.717208
 11
14.048798
 21
-64.45119
  0
CIRCLE
  8
ボルト／ビス
  6
CONTINUOUS
 10
34.55773
 20
-73.822925
 40
0.250185
  0
CIRCLE
  8
ボルト／ビス
  6
CONTINUOUS
 10
34.55773
 20
-73.822925
 40
0.301025
  0
LINE
  8
ボルト／ビス
  6
CONTINUOUS
 62
    64
 10
34.807495
 20
-73.808422
 11
34.67005
 21
-73.599373
  0
LINE
  8
ボルト／ビス
  6
CONTINUOUS
 62
    64
 10
34.420285
 20
-73.613875
 11
34.67005
 21
-73.599373
  0
LINE
  8
ボルト／ビス
  6
CONTINUOUS
 62
    64
 10
34.695175
 20
-74.031975
 11
34.44541
 21
-74.046478
  0
LINE
  8
ボルト／ビス
  6
CONTINUOUS
 62
    64
 10
34.307965
 20
-73.837428
 11
34.44541
 21
-74.046478
  0
LINE
  8
ボルト／ビス
  6
CONTINUOUS
 62
    64
 10
34.807495
 20
-73.808422
 11
34.695175
 21
-74.031975
  0
LINE
  8
ボルト／ビス
  6
CONTINUOUS
 62
    64
 10
34.420285
 20
-73.613875
 11
34.307965
 21
-73.837428
  0
CIRCLE
  8
ボルト／ビス
  6
CONTINUOUS
 62
    64
 10
34.55773
 20
-73.822925
 40
0.216668
  0
CIRCLE
  8
ボルト／ビス
  6
CONTINUOUS
 10
24.639252
 20
-68.839567
 40
0.250185
  0
CIRCLE
  8
ボルト／ビス
  6
CONTINUOUS
 10
24.639252
 20
-68.839567
 40
0.301025
  0
LINE
  8
ボルト／ビス
  6
CONTINUOUS
 62
    64
 10
24.889018
 20
-68.825062
 11
24.751572
 21
-68.616013
  0
LINE
  8
ボルト／ビス
  6
CONTINUOUS
 62
    64
 10
24.501807
 20
-68.630515
 11
24.751572
 21
-68.616013
  0
LINE
  8
ボルト／ビス
  6
CONTINUOUS
 62
    64
 10
24.776698
 20
-69.048618
 11
24.52693
 21
-69.063123
  0
LINE
  8
ボルト／ビス
  6
CONTINUOUS
 62
    64
 10
24.389487
 20
-68.854072
 11
24.52693
 21
-69.063123
  0
LINE
  8
ボルト／ビス
  6
CONTINUOUS
 62
    64
 10
24.889018
 20
-68.825062
 11
24.776698
 21
-69.048618
  0
LINE
  8
ボルト／ビス
  6
CONTINUOUS
 62
    64
 10
24.501807
 20
-68.630515
 11
24.389487
 21
-68.854072
  0
CIRCLE
  8
ボルト／ビス
  6
CONTINUOUS
 62
    64
 10
24.639252
 20
-68.839567
 40
0.216668
  0
CIRCLE
  8
ボルト／ビス
  6
CONTINUOUS
 10
14.720775
 20
-63.85621
 40
0.250185
  0
CIRCLE
  8
ボルト／ビス
  6
CONTINUOUS
 10
14.720775
 20
-63.85621
 40
0.301025
  0
LINE
  8
ボルト／ビス
  6
CONTINUOUS
 62
    64
 10
14.58333
 20
-63.64716
 11
14.833095
 21
-63.632658
  0
LINE
  8
ボルト／ビス
  6
CONTINUOUS
 62
    64
 10
14.97054
 20
-63.841708
 11
14.833095
 21
-63.632658
  0
LINE
  8
ボルト／ビス
  6
CONTINUOUS
 62
    64
 10
14.47101
 20
-63.870715
 11
14.608453
 21
-64.079763
  0
LINE
  8
ボルト／ビス
  6
CONTINUOUS
 62
    64
 10
14.85822
 20
-64.06526
 11
14.608453
 21
-64.079763
  0
LINE
  8
ボルト／ビス
  6
CONTINUOUS
 62
    64
 10
14.58333
 20
-63.64716
 11
14.47101
 21
-63.870715
  0
LINE
  8
ボルト／ビス
  6
CONTINUOUS
 62
    64
 10
14.97054
 20
-63.841708
 11
14.85822
 21
-64.06526
  0
CIRCLE
  8
ボルト／ビス
  6
CONTINUOUS
 62
    64
 10
14.720775
 20
-63.85621
 40
0.216668
  0
ENDBLK
  0
BLOCK
  2
*GRP_0020
 70
    65
 10
0.0
 20
0.0
  0
LINE
  8
補助線
  6
BYBLOCK
 62
    64
 10
14.795238
 20
-73.785513
 11
14.646313
 21
-73.860337
  0
LINE
  8
補助線
  6
BYBLOCK
 62
    64
 10
14.683362
 20
-73.74846
 11
14.758187
 21
-73.897387
  0
LINE
  8
補助線
  6
BYBLOCK
 62
    64
 10
24.713717
 20
-68.802155
 11
24.56479
 21
-68.87698
  0
LINE
  8
補助線
  6
BYBLOCK
 62
    64
 10
24.60184
 20
-68.765103
 11
24.676665
 21
-68.91403
  0
LINE
  8
補助線
  6
BYBLOCK
 62
    64
 10
34.483267
 20
-63.893623
 11
34.632195
 21
-63.818797
  0
LINE
  8
補助線
  6
BYBLOCK
 62
    64
 10
34.520318
 20
-63.781745
 11
34.595142
 21
-63.930673
  0
LINE
  8
型材断面
  6
CONTINUOUS
 10
14.048798
 20
-73.227948
 11
13.826495
 21
-73.8992
  0
LINE
  8
型材断面
  6
CONTINUOUS
 10
13.826495
 20
-73.8992
 11
14.125798
 21
-74.494905
  0
LINE
  8
型材断面
  6
CONTINUOUS
 10
14.125798
 20
-74.494905
 11
14.79705
 21
-74.717208
  0
LINE
  8
型材断面
  6
CONTINUOUS
 10
34.481455
 20
-62.96193
 11
35.15271
 21
-63.184232
  0
LINE
  8
型材断面
  6
CONTINUOUS
 10
35.15271
 20
-63.184232
 11
35.452012
 21
-63.779937
  0
LINE
  8
型材断面
  6
CONTINUOUS
 10
35.452012
 20
-63.779937
 11
35.229708
 21
-64.45119
  0
LINE
  8
型材断面
  6
CONTINUOUS
 10
14.048798
 20
-73.227948
 11
34.481455
 21
-62.96193
  0
LINE
  8
型材断面
  6
CONTINUOUS
 10
14.79705
 20
-74.717208
 11
35.229708
 21
-64.45119
  0
CIRCLE
  8
ボルト／ビス
  6
CONTINUOUS
 10
14.720775
 20
-73.822925
 40
0.250185
  0
CIRCLE
  8
ボルト／ビス
  6
CONTINUOUS
 10
14.720775
 20
-73.822925
 40
0.301025
  0
LINE
  8
ボルト／ビス
  6
CONTINUOUS
 62
    64
 10
14.47101
 20
-73.808422
 11
14.608455
 21
-73.599373
  0
LINE
  8
ボルト／ビス
  6
CONTINUOUS
 62
    64
 10
14.85822
 20
-73.613875
 11
14.608455
 21
-73.599373
  0
LINE
  8
ボルト／ビス
  6
CONTINUOUS
 62
    64
 10
14.58333
 20
-74.031975
 11
14.833095
 21
-74.046478
  0
LINE
  8
ボルト／ビス
  6
CONTINUOUS
 62
    64
 10
14.97054
 20
-73.837428
 11
14.833095
 21
-74.046478
  0
LINE
  8
ボルト／ビス
  6
CONTINUOUS
 62
    64
 10
14.47101
 20
-73.808422
 11
14.58333
 21
-74.031975
  0
LINE
  8
ボルト／ビス
  6
CONTINUOUS
 62
    64
 10
14.85822
 20
-73.613875
 11
14.97054
 21
-73.837428
  0
CIRCLE
  8
ボルト／ビス
  6
CONTINUOUS
 62
    64
 10
14.720775
 20
-73.822925
 40
0.216668
  0
CIRCLE
  8
ボルト／ビス
  6
CONTINUOUS
 10
24.639252
 20
-68.839567
 40
0.250185
  0
CIRCLE
  8
ボルト／ビス
  6
CONTINUOUS
 10
24.639252
 20
-68.839567
 40
0.301025
  0
LINE
  8
ボルト／ビス
  6
CONTINUOUS
 62
    64
 10
24.389487
 20
-68.825062
 11
24.526932
 21
-68.616013
  0
LINE
  8
ボルト／ビス
  6
CONTINUOUS
 62
    64
 10
24.776698
 20
-68.630515
 11
24.526932
 21
-68.616013
  0
LINE
  8
ボルト／ビス
  6
CONTINUOUS
 62
    64
 10
24.501807
 20
-69.048618
 11
24.751575
 21
-69.063123
  0
LINE
  8
ボルト／ビス
  6
CONTINUOUS
 62
    64
 10
24.889018
 20
-68.854072
 11
24.751575
 21
-69.063123
  0
LINE
  8
ボルト／ビス
  6
CONTINUOUS
 62
    64
 10
24.389487
 20
-68.825062
 11
24.501807
 21
-69.048618
  0
LINE
  8
ボルト／ビス
  6
CONTINUOUS
 62
    64
 10
24.776698
 20
-68.630515
 11
24.889018
 21
-68.854072
  0
CIRCLE
  8
ボルト／ビス
  6
CONTINUOUS
 62
    64
 10
24.639252
 20
-68.839567
 40
0.216668
  0
CIRCLE
  8
ボルト／ビス
  6
CONTINUOUS
 10
34.55773
 20
-63.85621
 40
0.250185
  0
CIRCLE
  8
ボルト／ビス
  6
CONTINUOUS
 10
34.55773
 20
-63.85621
 40
0.301025
  0
LINE
  8
ボルト／ビス
  6
CONTINUOUS
 62
    64
 10
34.695175
 20
-63.64716
 11
34.44541
 21
-63.632658
  0
LINE
  8
ボルト／ビス
  6
CONTINUOUS
 62
    64
 10
34.307965
 20
-63.841708
 11
34.44541
 21
-63.632658
  0
LINE
  8
ボルト／ビス
  6
CONTINUOUS
 62
    64
 10
34.807495
 20
-63.870715
 11
34.670053
 21
-64.079763
  0
LINE
  8
ボルト／ビス
  6
CONTINUOUS
 62
    64
 10
34.420285
 20
-64.06526
 11
34.670053
 21
-64.079763
  0
LINE
  8
ボルト／ビス
  6
CONTINUOUS
 62
    64
 10
34.695175
 20
-63.64716
 11
34.807495
 21
-63.870715
  0
LINE
  8
ボルト／ビス
  6
CONTINUOUS
 62
    64
 10
34.307965
 20
-63.841708
 11
34.420285
 21
-64.06526
  0
CIRCLE
  8
ボルト／ビス
  6
CONTINUOUS
 62
    64
 10
34.55773
 20
-63.85621
 40
0.216668
  0
ENDBLK
  0
BLOCK
  2
*DIM_0021
 70
    65
 10
0.0
 20
0.0
  0
LINE
  8
寸法
  6
CONTINUOUS
 10
134.788222
 20
56.049278
 11
142.438272
 21
56.049278
  0
POINT
  8
寸法
 10
134.788222
 20
56.049278
  0
POINT
  8
寸法
 10
142.438272
 20
56.049278
  0
TEXT
  7
TextStyle03
  8
寸法
  6
CONTINUOUS
 10
134.5
 20
56.4
  1
229.5
 40
3.0
 72
     5
 11
142.75
 21
56.4
  0
ENDBLK
  0
BLOCK
  2
*DIM_0022
 70
    65
 10
0.0
 20
0.0
  0
LINE
  8
寸法
  6
CONTINUOUS
 10
59.459637
 20
-68.246208
 11
59.459637
 21
-75.896257
  0
POINT
  8
寸法
 10
59.459637
 20
-68.246208
  0
POINT
  8
寸法
 10
59.459637
 20
-75.896257
  0
TEXT
  7
TextStyle03
  8
寸法
  6
CONTINUOUS
 10
64.05
 20
-76.125
  1
229.5
 40
3.0
 50
90.0
 72
     5
 11
64.05
 21
-67.875
  0
ENDBLK
  0
BLOCK
  2
*DIM_0023
 70
    65
 10
0.0
 20
0.0
  0
LINE
  8
寸法
  6
CONTINUOUS
 10
141.310947
 20
-55.426295
 11
103.420947
 21
-55.426295
  0
POINT
  8
寸法
 10
141.310947
 20
-55.426295
  0
POINT
  8
寸法
 10
103.420947
 20
-55.426295
  0
TEXT
  7
TextStyle03
  8
寸法
  6
CONTINUOUS
 10
117.38125
 20
-55.075
  1
1136.7
 40
3.0
 72
     5
 11
127.31875
 21
-55.075
  0
ENDBLK
  0
BLOCK
  2
*DIM_0024
 70
    65
 10
0.0
 20
0.0
  0
LINE
  8
寸法
  6
BYBLOCK
 62
     0
 10
59.459637
 20
-68.246208
 11
59.459637
 21
-60.912875
  0
POINT
  8
寸法
 62
     0
 10
59.459637
 20
-68.246208
  0
POINT
  8
寸法
 62
     0
 10
59.459637
 20
-60.912875
  0
TEXT
  7
TextStyle03
  8
寸法
  6
CONTINUOUS
 62
     0
 10
59.25
 20
-59.44375
  1
上昇195以上
 40
3.0
 50
90.0
 72
     5
 11
59.25
 21
-41.25625
  0
ENDBLK
  0
ENDSEC
  0
SECTION
  2
ENTITIES
  0
POLYLINE
  8
通り芯
  6
CONTINUOUS
 66
     1
 70
     1
  0
VERTEX
  8
通り芯
 10
-210.0
 20
-148.5
  0
VERTEX
  8
通り芯
 10
210.0
 20
-148.5
  0
VERTEX
  8
通り芯
 10
210.0
 20
148.5
  0
VERTEX
  8
通り芯
 10
-210.0
 20
148.5
  0
SEQEND
  0
INSERT
  2
*GRP_0001
  8
型材断面
  6
CONTINUOUS
 10
0.0
 20
0.0
  0
LINE
  8
型材断面
  6
DASHDOT
 10
46.224393
 20
-77.836442
 11
46.224393
 21
42.814033
  0
LINE
  8
型材断面
  6
DASHDOT
 10
-12.10894
 20
-77.836442
 11
-12.10894
 21
42.814033
  0
LINE
  8
型材断面
  6
DASHDOT
 10
-70.442275
 20
-77.836442
 11
-70.442275
 21
42.814033
  0
LINE
  8
型材断面
  6
DASHDOT
 10
143.901155
 20
42.814033
 11
-70.442275
 21
42.814033
  0
LINE
  8
型材断面
  6
DASHDOT
 10
143.901155
 20
32.814033
 11
-70.442275
 21
32.814033
  0
LINE
  8
型材断面
  6
DASHDOT
 10
143.901155
 20
22.814033
 11
-70.442275
 21
22.814033
  0
POLYLINE
  8
型材断面
  6
CONTINUOUS
 66
     1
 70
     1
  0
VERTEX
  8
型材断面
 10
-2.750177
 20
13.03811
  0
VERTEX
  8
型材断面
 10
-21.522108
 20
13.03811
  0
VERTEX
  8
型材断面
 10
-21.522108
 20
8.301267
  0
VERTEX
  8
型材断面
 10
-2.750177
 20
8.301267
  0
SEQEND
  0
POLYLINE
  8
型材断面
  6
CONTINUOUS
 66
     1
 70
     1
  0
VERTEX
  8
型材断面
 10
-2.750177
 20
52.589955
  0
VERTEX
  8
型材断面
 10
-21.522108
 20
52.589955
  0
VERTEX
  8
型材断面
 10
-21.522108
 20
57.326798
  0
VERTEX
  8
型材断面
 10
-2.750177
 20
57.326798
  0
SEQEND
  0
LINE
  8
型材断面
  6
CONTINUOUS
 10
-53.775608
 20
45.444162
 11
-55.271238
 21
48.03467
  0
LINE
  8
型材断面
  6
CONTINUOUS
 10
-53.775608
 20
45.444162
 11
-52.279978
 21
48.03467
  0
LINE
  8
型材断面
  6
CONTINUOUS
 10
-52.279978
 20
48.03467
 11
-55.271238
 21
48.03467
  0
LINE
  8
型材断面
  6
CONTINUOUS
 10
-111.294482
 20
80.791505
 11
-110.698427
 21
78.200998
  0
LINE
  8
型材断面
  6
CONTINUOUS
 10
-111.294482
 20
80.791505
 11
-111.89054
 21
78.200998
  0
LINE
  8
型材断面
  6
CONTINUOUS
 10
-111.89054
 20
78.200998
 11
-110.698427
 21
78.200998
  0
LINE
  8
型材断面
  6
CONTINUOUS
 10
-117.31707
 20
74.922105
 11
-71.075292
 21
74.922105
  0
LINE
  8
型材断面
  6
CONTINUOUS
 10
-111.294482
 20
87.32138
 11
-112.790113
 21
84.730873
  0
LINE
  8
型材断面
  6
CONTINUOUS
 10
-111.294482
 20
87.32138
 11
-109.798852
 21
84.730873
  0
LINE
  8
型材断面
  6
CONTINUOUS
 10
-109.798852
 20
84.730873
 11
-112.790113
 21
84.730873
  0
LINE
  8
型材断面
  6
CONTINUOUS
 10
-117.31707
 20
83.792277
 11
-71.075292
 21
83.792277
  0
LINE
  8
型材断面
  6
CONTINUOUS
 10
-117.31707
 20
69.134073
 11
-71.075292
 21
69.134073
  0
LINE
  8
型材断面
  6
CONTINUOUS
 10
-73.072405
 20
32.814033
 11
-75.662913
 21
34.309663
  0
LINE
  8
型材断面
  6
CONTINUOUS
 10
-73.072405
 20
32.814033
 11
-75.662913
 21
31.318403
  0
LINE
  8
型材断面
  6
CONTINUOUS
 10
-75.662913
 20
31.318403
 11
-75.662913
 21
34.309663
  0
LINE
  8
型材断面
  6
CONTINUOUS
 10
-53.775608
 20
20.183902
 11
-55.271238
 21
17.593395
  0
LINE
  8
型材断面
  6
CONTINUOUS
 10
-53.775608
 20
20.183902
 11
-52.279978
 21
17.593395
  0
LINE
  8
型材断面
  6
CONTINUOUS
 10
-52.279978
 20
17.593395
 11
-55.271238
 21
17.593395
  0
LINE
  8
型材断面
  6
CONTINUOUS
 10
29.557727
 20
45.444162
 11
31.053357
 21
48.03467
  0
LINE
  8
型材断面
  6
CONTINUOUS
 10
29.557727
 20
45.444162
 11
28.062097
 21
48.03467
  0
LINE
  8
型材断面
  6
CONTINUOUS
 10
28.062097
 20
48.03467
 11
31.053357
 21
48.03467
  0
LINE
  8
型材断面
  6
CONTINUOUS
 10
48.854525
 20
32.814033
 11
51.445032
 21
34.309663
  0
LINE
  8
型材断面
  6
CONTINUOUS
 10
48.854525
 20
32.814033
 11
51.445032
 21
31.318403
  0
LINE
  8
型材断面
  6
CONTINUOUS
 10
51.445032
 20
31.318403
 11
51.445032
 21
34.309663
  0
LINE
  8
型材断面
  6
CONTINUOUS
 10
29.557727
 20
20.183902
 11
31.053357
 21
17.593395
  0
LINE
  8
型材断面
  6
CONTINUOUS
 10
29.557727
 20
20.183902
 11
28.062097
 21
17.593395
  0
LINE
  8
型材断面
  6
CONTINUOUS
 10
28.062097
 20
17.593395
 11
31.053357
 21
17.593395
  0
LINE
  8
型材断面
  6
CONTINUOUS
 10
48.854522
 20
39.114035
 11
51.445032
 21
38.517982
  0
LINE
  8
型材断面
  6
CONTINUOUS
 10
48.854522
 20
39.114035
 11
51.44503
 21
39.710095
  0
LINE
  8
型材断面
  6
CONTINUOUS
 10
51.44503
 20
39.710095
 11
51.445032
 21
38.517982
  0
LINE
  8
型材断面
  6
CONTINUOUS
 10
48.854522
 20
26.51403
 11
51.445032
 21
27.110082
  0
LINE
  8
型材断面
  6
CONTINUOUS
 10
48.854522
 20
26.51403
 11
51.44503
 21
25.91797
  0
LINE
  8
型材断面
  6
CONTINUOUS
 10
51.44503
 20
25.91797
 11
51.445032
 21
27.110082
  0
LINE
  8
型材断面
  6
CONTINUOUS
 10
-73.072403
 20
39.114035
 11
-75.662913
 21
38.517982
  0
LINE
  8
型材断面
  6
CONTINUOUS
 10
-73.072403
 20
39.114035
 11
-75.66291
 21
39.710095
  0
LINE
  8
型材断面
  6
CONTINUOUS
 10
-75.66291
 20
39.710095
 11
-75.662913
 21
38.517982
  0
LINE
  8
型材断面
  6
CONTINUOUS
 10
-73.072403
 20
26.51403
 11
-75.662913
 21
27.110082
  0
LINE
  8
型材断面
  6
CONTINUOUS
 10
-73.072403
 20
26.51403
 11
-75.66291
 21
25.91797
  0
LINE
  8
型材断面
  6
CONTINUOUS
 10
-75.66291
 20
25.91797
 11
-75.662913
 21
27.110082
  0
LINE
  8
型材断面
  6
CONTINUOUS
 10
-72.42546
 20
20.830853
 11
-12.10894
 21
20.830853
  0
LINE
  8
型材断面
  6
CONTINUOUS
 10
-72.42546
 20
44.797213
 11
-12.10894
 21
44.797213
  0
LINE
  8
型材断面
  6
CONTINUOUS
 10
48.20758
 20
44.797213
 11
-12.10894
 21
44.797213
  0
LINE
  8
型材断面
  6
CONTINUOUS
 10
48.20758
 20
20.830853
 11
-12.10894
 21
20.830853
  0
LINE
  8
型材断面
  6
CONTINUOUS
 10
-117.31707
 20
63.34604
 11
-71.075292
 21
63.34604
  0
ARC
  8
型材断面
  6
CONTINUOUS
 62
    47
 10
-72.425611
 20
-72.36287
 40
0.016668
 50
89.999123
 51
180.0
  0
ARC
  8
型材断面
  6
CONTINUOUS
 62
    47
 10
-72.432277
 20
-72.402871
 40
0.010002
 50
180.0
 51
269.791626
  0
LINE
  8
型材断面
  6
CONTINUOUS
 62
    47
 10
-72.392273
 20
-72.57959
 11
-71.542125
 21
-72.57959
  0
LINE
  8
型材断面
  6
CONTINUOUS
 62
    47
 10
-72.42561
 20
-72.346202
 11
-72.42561
 21
-70.239542
  0
LINE
  8
型材断面
  6
CONTINUOUS
 62
    47
 10
-72.425605
 20
-72.57959
 11
-72.425605
 21
-75.896257
  0
LINE
  8
型材断面
  6
CONTINUOUS
 62
    47
 10
-71.925605
 20
-76.396257
 11
-71.925605
 21
-75.896257
  0
LINE
  8
型材断面
  6
CONTINUOUS
 62
    47
 10
-71.54227
 20
-70.239542
 11
-71.54227
 21
-69.912872
  0
LINE
  8
型材断面
  6
CONTINUOUS
 62
    47
 10
-72.442273
 20
-72.362867
 11
-72.442273
 21
-72.402527
  0
ARC
  8
型材断面
  6
CONTINUOUS
 62
    47
 10
48.207728
 20
-72.36287
 40
0.016668
 50
0.0
 51
90.000877
  0
ARC
  8
型材断面
  6
CONTINUOUS
 62
    47
 10
48.214394
 20
-72.402871
 40
0.010002
 50
270.208374
 51
360.0
  0
LINE
  8
型材断面
  6
CONTINUOUS
 62
    47
 10
48.17439
 20
-72.57959
 11
47.324245
 21
-72.57959
  0
LINE
  8
型材断面
  6
CONTINUOUS
 62
    47
 10
48.20773
 20
-72.346202
 11
48.20773
 21
-70.239542
  0
LINE
  8
型材断面
  6
CONTINUOUS
 62
    47
 10
48.207725
 20
-72.57959
 11
48.207725
 21
-75.896257
  0
LINE
  8
型材断面
  6
CONTINUOUS
 62
    47
 10
47.707725
 20
-76.396257
 11
47.707725
 21
-75.896257
  0
LINE
  8
型材断面
  6
CONTINUOUS
 62
    47
 10
47.32439
 20
-70.239542
 11
47.32439
 21
-69.912872
  0
LINE
  8
型材断面
  6
CONTINUOUS
 62
    47
 10
48.22439
 20
-72.362867
 11
48.22439
 21
-72.402527
  0
LINE
  8
型材断面
  6
CONTINUOUS
 10
-72.42561
 20
-70.239542
 11
-12.10894
 21
-70.239542
  0
LINE
  8
型材断面
  6
CONTINUOUS
 10
-71.842273
 20
-69.912872
 11
-12.10894
 21
-69.912872
  0
LINE
  8
型材断面
  6
CONTINUOUS
 10
-71.842273
 20
-68.246208
 11
-12.10894
 21
-68.246208
  0
LINE
  8
型材断面
  6
CONTINUOUS
 10
-71.998795
 20
-68.412872
 11
-12.10894
 21
-68.412872
  0
LINE
  8
型材断面
  6
CONTINUOUS
 10
-72.432275
 20
-72.412872
 11
-12.10894
 21
-72.412872
  0
LINE
  8
型材断面
  6
CONTINUOUS
 10
-72.425605
 20
-72.57959
 11
-12.10894
 21
-72.57959
  0
LINE
  8
型材断面
  6
CONTINUOUS
 10
-71.925605
 20
-76.396257
 11
-12.10894
 21
-76.396257
  0
LINE
  8
型材断面
  6
CONTINUOUS
 10
-72.425605
 20
-75.896257
 11
-12.10894
 21
-75.896257
  0
LINE
  8
型材断面
  6
CONTINUOUS
 10
48.207725
 20
-75.896257
 11
-12.10894
 21
-75.896257
  0
LINE
  8
型材断面
  6
CONTINUOUS
 10
47.707725
 20
-76.396257
 11
-12.10894
 21
-76.396257
  0
LINE
  8
型材断面
  6
CONTINUOUS
 10
48.214395
 20
-72.412872
 11
-12.10894
 21
-72.412872
  0
LINE
  8
型材断面
  6
CONTINUOUS
 10
48.207725
 20
-72.57959
 11
-12.10894
 21
-72.57959
  0
LINE
  8
型材断面
  6
CONTINUOUS
 10
47.62439
 20
-69.912872
 11
-12.10894
 21
-69.912872
  0
LINE
  8
型材断面
  6
CONTINUOUS
 10
48.20773
 20
-70.239542
 11
-12.10894
 21
-70.239542
  0
LINE
  8
型材断面
  6
CONTINUOUS
 10
47.780912
 20
-68.412872
 11
-12.10894
 21
-68.412872
  0
LINE
  8
型材断面
  6
CONTINUOUS
 10
47.62439
 20
-68.246208
 11
-12.10894
 21
-68.246208
  0
ARC
  8
型材断面
  6
DOT
 62
    47
 10
-72.425611
 20
-65.029536
 40
0.016668
 50
89.999123
 51
180.0
  0
ARC
  8
型材断面
  6
DOT
 62
    47
 10
-72.432277
 20
-65.069538
 40
0.010002
 50
180.0
 51
269.791626
  0
LINE
  8
型材断面
  6
DOT
 62
    47
 10
-72.42561
 20
-65.01287
 11
-72.42561
 21
-62.90621
  0
LINE
  8
型材断面
  6
DOT
 62
    47
 10
-71.54227
 20
-62.90621
 11
-71.54227
 21
-62.57954
  0
LINE
  8
型材断面
  6
DOT
 62
    47
 10
-72.442273
 20
-65.029535
 11
-72.442273
 21
-65.069195
  0
ARC
  8
型材断面
  6
DOT
 62
    47
 10
48.207728
 20
-65.029536
 40
0.016668
 50
0.0
 51
90.000877
  0
ARC
  8
型材断面
  6
DOT
 62
    47
 10
48.214394
 20
-65.069538
 40
0.010002
 50
270.208374
 51
360.0
  0
LINE
  8
型材断面
  6
DOT
 62
    47
 10
48.20773
 20
-65.01287
 11
48.20773
 21
-62.90621
  0
LINE
  8
型材断面
  6
DOT
 62
    47
 10
47.32439
 20
-62.90621
 11
47.32439
 21
-62.57954
  0
LINE
  8
型材断面
  6
DOT
 62
    47
 10
48.22439
 20
-65.029535
 11
48.22439
 21
-65.069195
  0
LINE
  8
型材断面
  6
DOT
 10
-72.42561
 20
-62.90621
 11
-12.10894
 21
-62.90621
  0
LINE
  8
型材断面
  6
DOT
 10
-71.998795
 20
-61.07954
 11
-12.10894
 21
-61.07954
  0
LINE
  8
型材断面
  6
DOT
 10
-71.842273
 20
-60.912875
 11
-12.10894
 21
-60.912875
  0
LINE
  8
型材断面
  6
DOT
 10
-71.842273
 20
-62.57954
 11
-12.10894
 21
-62.57954
  0
LINE
  8
型材断面
  6
DOT
 10
-72.432275
 20
-65.07954
 11
-12.10894
 21
-65.07954
  0
LINE
  8
型材断面
  6
DOT
 10
48.214395
 20
-65.07954
 11
-12.10894
 21
-65.07954
  0
LINE
  8
型材断面
  6
DOT
 10
48.20773
 20
-62.90621
 11
-12.10894
 21
-62.90621
  0
LINE
  8
型材断面
  6
DOT
 10
47.62439
 20
-62.57954
 11
-12.10894
 21
-62.57954
  0
LINE
  8
型材断面
  6
DOT
 10
47.780912
 20
-61.07954
 11
-12.10894
 21
-61.07954
  0
LINE
  8
型材断面
  6
DOT
 10
47.62439
 20
-60.912875
 11
-12.10894
 21
-60.912875
  0
INSERT
  2
*GRP_0017
  8
型材断面
  6
CONTINUOUS
 10
0.0
 20
0.0
  0
INSERT
  2
*GRP_0018
  8
型材断面
  6
CONTINUOUS
 10
0.0
 20
0.0
  0
INSERT
  2
*GRP_0019
  8
型材断面
  6
CONTINUOUS
 10
0.0
 20
0.0
  0
INSERT
  2
*GRP_0020
  8
型材断面
  6
CONTINUOUS
 10
0.0
 20
0.0
  0
LINE
  8
型材断面
  6
CONTINUOUS
 10
134.954888
 20
44.370552
 11
134.954888
 21
32.814033
  0
LINE
  8
型材断面
  6
CONTINUOUS
 10
134.788222
 20
32.814033
 11
134.788222
 21
44.214033
  0
LINE
  8
型材断面
  6
CONTINUOUS
 10
136.454888
 20
32.814033
 11
136.454888
 21
44.214033
  0
ARC
  8
型材断面
  6
CONTINUOUS
 62
    47
 10
138.904885
 20
44.79737
 40
0.016668
 50
90.0
 51
180.000877
  0
ARC
  8
型材断面
  6
CONTINUOUS
 62
    47
 10
138.944886
 20
44.804035
 40
0.010002
 50
0.208374
 51
90.0
  0
LINE
  8
型材断面
  6
CONTINUOUS
 62
    47
 10
139.121605
 20
44.764033
 11
139.121605
 21
43.913885
  0
LINE
  8
型材断面
  6
CONTINUOUS
 10
139.121605
 20
32.814033
 11
139.121605
 21
44.797365
  0
LINE
  8
型材断面
  6
CONTINUOUS
 10
142.438272
 20
32.814033
 11
142.438272
 21
44.797365
  0
LINE
  8
型材断面
  6
CONTINUOUS
 10
142.938272
 20
32.814033
 11
142.938272
 21
44.297365
  0
LINE
  8
型材断面
  6
CONTINUOUS
 62
    47
 10
138.888218
 20
44.79737
 11
136.781558
 21
44.79737
  0
LINE
  8
型材断面
  6
CONTINUOUS
 10
136.781558
 20
32.814033
 11
136.781558
 21
44.79737
  0
LINE
  8
型材断面
  6
CONTINUOUS
 62
    47
 10
139.121605
 20
44.797365
 11
142.438272
 21
44.797365
  0
LINE
  8
型材断面
  6
CONTINUOUS
 62
    47
 10
142.938272
 20
44.297365
 11
142.438272
 21
44.297365
  0
LINE
  8
型材断面
  6
CONTINUOUS
 62
    47
 10
136.781558
 20
43.91403
 11
136.454888
 21
43.91403
  0
LINE
  8
型材断面
  6
CONTINUOUS
 10
134.954888
 20
21.257512
 11
134.954888
 21
32.814033
  0
LINE
  8
型材断面
  6
CONTINUOUS
 10
134.788222
 20
32.814033
 11
134.788222
 21
21.414035
  0
LINE
  8
型材断面
  6
CONTINUOUS
 10
136.454888
 20
32.814033
 11
136.454888
 21
21.414035
  0
ARC
  8
型材断面
  6
CONTINUOUS
 62
    47
 10
138.904885
 20
20.830697
 40
0.016668
 50
179.999123
 51
270.0
  0
ARC
  8
型材断面
  6
CONTINUOUS
 62
    47
 10
138.944886
 20
20.824031
 40
0.010002
 50
270.0
 51
359.791626
  0
LINE
  8
型材断面
  6
CONTINUOUS
 62
    47
 10
139.121605
 20
20.864035
 11
139.121605
 21
21.714183
  0
LINE
  8
型材断面
  6
CONTINUOUS
 10
139.121605
 20
32.814033
 11
139.121605
 21
20.830703
  0
LINE
  8
型材断面
  6
CONTINUOUS
 10
142.438272
 20
32.814033
 11
142.438272
 21
20.830703
  0
LINE
  8
型材断面
  6
CONTINUOUS
 10
142.938272
 20
32.814033
 11
142.938272
 21
21.330703
  0
LINE
  8
型材断面
  6
CONTINUOUS
 62
    47
 10
138.888218
 20
20.830697
 11
136.781558
 21
20.830697
  0
LINE
  8
型材断面
  6
CONTINUOUS
 10
136.781558
 20
32.814033
 11
136.781558
 21
20.830697
  0
LINE
  8
型材断面
  6
CONTINUOUS
 62
    47
 10
139.121605
 20
20.830703
 11
142.438272
 21
20.830703
  0
LINE
  8
型材断面
  6
CONTINUOUS
 62
    47
 10
142.938272
 20
21.330703
 11
142.438272
 21
21.330703
  0
LINE
  8
型材断面
  6
CONTINUOUS
 62
    47
 10
136.781558
 20
21.714038
 11
136.454888
 21
21.714038
  0
LINE
  8
型材断面
  6
CONTINUOUS
 10
138.954888
 20
32.814033
 11
138.954888
 21
44.804035
  0
LINE
  8
型材断面
  6
CONTINUOUS
 62
    47
 10
138.904882
 20
44.814033
 11
138.944542
 21
44.814033
  0
LINE
  8
型材断面
  6
CONTINUOUS
 62
    47
 10
138.904882
 20
20.814035
 11
138.944542
 21
20.814035
  0
LINE
  8
型材断面
  6
CONTINUOUS
 10
138.954888
 20
32.814033
 11
138.954888
 21
20.824033
  0
LINE
  8
型材断面
  6
DASHDOT
 10
-31.635607
 20
22.814033
 11
-31.635607
 21
42.814033
  0
LINE
  8
型材断面
  6
DASHDOT
 10
7.417728
 20
22.814033
 11
7.417728
 21
42.814033
  0
LINE
  8
型材断面
  6
CONTINUOUS
 10
-11.692273
 20
41.870552
 11
26.404392
 21
41.870552
  0
LINE
  8
型材断面
  6
CONTINUOUS
 10
-11.692273
 20
23.757512
 11
26.404392
 21
23.757512
  0
LINE
  8
型材断面
  6
CONTINUOUS
 10
-50.622272
 20
23.757512
 11
-12.525608
 21
23.757512
  0
LINE
  8
型材断面
  6
CONTINUOUS
 10
-50.622272
 20
41.870552
 11
-12.525608
 21
41.870552
  0
LINE
  8
型材断面
  6
CONTINUOUS
 10
8.667728
 20
41.03722
 11
8.667728
 21
24.590845
  0
LINE
  8
型材断面
  6
CONTINUOUS
 10
6.167728
 20
41.03722
 11
6.167728
 21
24.590845
  0
LINE
  8
型材断面
  6
CONTINUOUS
 10
-32.885607
 20
41.03722
 11
-32.885607
 21
24.590845
  0
LINE
  8
型材断面
  6
CONTINUOUS
 10
-30.385607
 20
41.03722
 11
-30.385607
 21
24.590845
  0
LINE
  8
型材断面
  6
CONTINUOUS
 10
48.207577
 20
32.814033
 11
48.207577
 21
20.830853
  0
LINE
  8
型材断面
  6
CONTINUOUS
 10
48.207577
 20
32.814033
 11
48.207577
 21
44.797213
  0
LINE
  8
型材断面
  6
CONTINUOUS
 10
45.280912
 20
32.397365
 11
47.780912
 21
32.397365
  0
LINE
  8
型材断面
  6
CONTINUOUS
 10
45.280912
 20
33.2307
 11
47.780912
 21
33.2307
  0
LINE
  8
型材断面
  6
CONTINUOUS
 10
47.545215
 20
21.25751
 11
47.780912
 21
21.493217
  0
LINE
  8
型材断面
  6
CONTINUOUS
 10
48.207577
 20
20.830853
 11
47.663065
 21
21.375365
  0
LINE
  8
型材断面
  6
CONTINUOUS
 10
45.280912
 20
23.993212
 11
47.780912
 21
21.493217
  0
LINE
  8
型材断面
  6
CONTINUOUS
 10
45.04521
 20
23.75751
 11
47.545212
 21
21.257512
  0
LINE
  8
型材断面
  6
CONTINUOUS
 10
45.280912
 20
32.397365
 11
45.280912
 21
23.993212
  0
LINE
  8
型材断面
  6
CONTINUOUS
 10
45.280912
 20
32.397365
 11
45.280912
 21
23.993212
  0
LINE
  8
型材断面
  6
CONTINUOUS
 10
45.280912
 20
23.993212
 11
45.045212
 21
23.757512
  0
LINE
  8
型材断面
  6
CONTINUOUS
 10
47.545215
 20
44.370555
 11
47.780912
 21
44.134848
  0
LINE
  8
型材断面
  6
CONTINUOUS
 10
48.207577
 20
44.797213
 11
47.663065
 21
44.2527
  0
LINE
  8
型材断面
  6
CONTINUOUS
 10
45.280912
 20
33.2307
 11
45.280912
 21
41.634852
  0
LINE
  8
型材断面
  6
CONTINUOUS
 10
45.045212
 20
41.870552
 11
45.280912
 21
41.634852
  0
LINE
  8
型材断面
  6
CONTINUOUS
 10
45.280912
 20
33.2307
 11
45.280912
 21
41.634852
  0
LINE
  8
型材断面
  6
CONTINUOUS
 10
47.780912
 20
21.493217
 11
47.780912
 21
44.134848
  0
LINE
  8
型材断面
  6
CONTINUOUS
 10
45.280912
 20
41.634852
 11
47.780912
 21
44.134848
  0
LINE
  8
型材断面
  6
CONTINUOUS
 10
47.780912
 20
21.493217
 11
47.780912
 21
44.134848
  0
LINE
  8
型材断面
  6
CONTINUOUS
 10
45.04521
 20
41.870555
 11
47.545212
 21
44.370552
  0
LINE
  8
型材断面
  6
CONTINUOUS
 10
-72.425457
 20
32.814033
 11
-72.425457
 21
20.830853
  0
LINE
  8
型材断面
  6
CONTINUOUS
 10
-72.425457
 20
32.814033
 11
-72.425457
 21
44.797213
  0
LINE
  8
型材断面
  6
CONTINUOUS
 10
-69.498793
 20
32.397365
 11
-71.998793
 21
32.397365
  0
LINE
  8
型材断面
  6
CONTINUOUS
 10
-69.498793
 20
33.2307
 11
-71.998793
 21
33.2307
  0
LINE
  8
型材断面
  6
CONTINUOUS
 10
-71.763095
 20
21.25751
 11
-71.998793
 21
21.493217
  0
LINE
  8
型材断面
  6
CONTINUOUS
 10
-72.425457
 20
20.830853
 11
-71.880945
 21
21.375365
  0
LINE
  8
型材断面
  6
CONTINUOUS
 10
-69.498793
 20
23.993212
 11
-71.998793
 21
21.493217
  0
LINE
  8
型材断面
  6
CONTINUOUS
 10
-69.26309
 20
23.75751
 11
-71.763093
 21
21.257512
  0
LINE
  8
型材断面
  6
CONTINUOUS
 10
-69.498793
 20
32.397365
 11
-69.498793
 21
23.993212
  0
LINE
  8
型材断面
  6
CONTINUOUS
 10
-69.498793
 20
32.397365
 11
-69.498793
 21
23.993212
  0
LINE
  8
型材断面
  6
CONTINUOUS
 10
-69.498793
 20
23.993212
 11
-69.263093
 21
23.757512
  0
LINE
  8
型材断面
  6
CONTINUOUS
 10
-71.763095
 20
44.370555
 11
-71.998793
 21
44.134848
  0
LINE
  8
型材断面
  6
CONTINUOUS
 10
-72.425457
 20
44.797213
 11
-71.880945
 21
44.2527
  0
LINE
  8
型材断面
  6
CONTINUOUS
 10
-69.498793
 20
33.2307
 11
-69.498793
 21
41.634852
  0
LINE
  8
型材断面
  6
CONTINUOUS
 10
-69.263093
 20
41.870552
 11
-69.498793
 21
41.634852
  0
LINE
  8
型材断面
  6
CONTINUOUS
 10
-69.498793
 20
33.2307
 11
-69.498793
 21
41.634852
  0
LINE
  8
型材断面
  6
CONTINUOUS
 10
-71.998793
 20
21.493217
 11
-71.998793
 21
44.134848
  0
LINE
  8
型材断面
  6
CONTINUOUS
 10
-69.498793
 20
41.634852
 11
-71.998793
 21
44.134848
  0
LINE
  8
型材断面
  6
CONTINUOUS
 10
-71.998793
 20
21.493217
 11
-71.998793
 21
44.134848
  0
LINE
  8
型材断面
  6
CONTINUOUS
 10
-69.26309
 20
41.870555
 11
-71.763093
 21
44.370552
  0
LINE
  8
型材断面
  6
CONTINUOUS
 10
27.237728
 20
23.757512
 11
45.045207
 21
23.757512
  0
LINE
  8
型材断面
  6
CONTINUOUS
 10
27.237728
 20
41.870552
 11
45.045207
 21
41.870552
  0
LINE
  8
型材断面
  6
CONTINUOUS
 10
-51.455608
 20
41.870552
 11
-69.263087
 21
41.870552
  0
LINE
  8
型材断面
  6
CONTINUOUS
 10
47.545212
 20
44.370552
 11
-71.763093
 21
44.370552
  0
LINE
  8
型材断面
  6
CONTINUOUS
 10
-51.455608
 20
23.757512
 11
-69.263087
 21
23.757512
  0
LINE
  8
型材断面
  6
CONTINUOUS
 10
47.545212
 20
21.257512
 11
-71.763093
 21
21.257512
  0
TEXT
  7
TextStyle03
  8
文字
  6
CONTINUOUS
 10
122.775
 20
-76.7
  1
網入り6.8t
 40
3.0
 72
     5
 11
139.4625
 21
-76.7
  0
TEXT
  7
TextStyle03
  8
文字
  6
CONTINUOUS
 10
-20.525
 20
9.325
  1
可動装置側
 40
3.0
 72
     5
 11
-4.025
 21
9.325
  0
TEXT
  7
TextStyle03
  8
文字
  6
CONTINUOUS
 10
-20.525
 20
53.3
  1
可動装置側
 40
3.0
 72
     5
 11
-4.025
 21
53.3
  0
TEXT
  7
TextStyle03
  8
文字
  6
CONTINUOUS
 10
129.45
 20
-81.375
  1
×３枚
 40
3.0
 72
     5
 11
139.2
 21
-81.375
  0
TEXT
  7
TextStyle03
  8
文字
  6
CONTINUOUS
 10
-108.5
 20
79.425
  1
はケーシング位置を示す
 40
3.0
 72
     5
 11
-71.75
 21
79.425
  0
TEXT
  7
TextStyle03
  8
文字
  6
CONTINUOUS
 10
-108.5
 20
76.05
  1
４ヶ所中1ヶ所に設定
 40
3.0
 72
     5
 11
-76.8125
 21
76.05
  0
TEXT
  7
TextStyle03
  8
文字
  6
CONTINUOUS
 10
-108.5
 20
84.95
  1
は排水穴位置を示す
 40
3.0
 72
     5
 11
-78.5
 21
84.95
  0
TEXT
  7
TextStyle03
  8
文字
  6
CONTINUOUS
 10
-91.525
 20
11.275
  1
アンカーピッチ
 40
3.0
 50
90.0
 72
     5
 11
-91.525
 21
34.525
  0
TEXT
  7
TextStyle03
  8
文字
  6
CONTINUOUS
 10
-59.3
 20
79.775
  1
アンカーピッチ
 40
3.0
 72
     5
 11
-36.05
 21
79.775
  0
TEXT
  7
TextStyle03
  8
文字
  6
CONTINUOUS
 10
-112.225
 20
70.075
  1
アンカー数量　１４ヶ所
 40
3.0
 72
     5
 11
-75.475
 21
70.075
  0
TEXT
  7
TextStyle03
  8
文字
  6
CONTINUOUS
 10
-112.275
 20
64.3
  1
アームユニット数　４ヶ所
 40
3.0
 72
     5
 11
-72.15
 21
64.3
  0
LINE
  8
文字
  6
CONTINUOUS
 10
59.459637
 20
-68.246208
 11
48.909675
 21
-68.246208
  0
LINE
  8
文字
  6
CONTINUOUS
 10
59.459637
 20
-75.896257
 11
48.974755
 21
-75.896257
  0
LINE
  8
文字
  6
CONTINUOUS
 10
134.788222
 20
56.049278
 11
134.788222
 21
45.499315
  0
LINE
  8
文字
  6
CONTINUOUS
 10
142.438272
 20
56.049278
 11
142.438272
 21
45.564398
  0
LINE
  8
文字
  6
CONTINUOUS
 10
59.459637
 20
-60.912875
 11
48.909675
 21
-60.912875
  0
LINE
  8
文字
  6
CONTINUOUS
 10
141.310947
 20
-55.426295
 11
141.310947
 21
-61.94287
  0
LINE
  8
文字
  6
CONTINUOUS
 10
103.420947
 20
-55.426295
 11
103.420947
 21
-61.94287
  0
TEXT
  7
TextStyle03
  8
文字
  6
CONTINUOUS
 10
61.925
 20
125.25
  1
シリーズ：ＴＦ２ＦＬ
 40
5.0
 72
     5
 11
117.55
 21
125.25
  0
TEXT
  7
TextStyle03
  8
文字
  6
CONTINUOUS
 10
61.925
 20
119.625
  1
　　　　　（上下可動）600×3500タイプ
 40
5.0
 72
     5
 11
165.3625
 21
119.625
  0
TEXT
  7
TextStyle03
  8
文字
  6
CONTINUOUS
 10
61.925
 20
114.0
  1
図面名　：外観姿図
 40
5.0
 72
     5
 11
111.925
 21
114.0
  0
TEXT
  7
TextStyle03
  8
文字
  6
CONTINUOUS
 10
61.925
 20
108.375
  1
　　　　　　
 40
5.0
 72
     5
 11
95.05
 21
108.375
  0
LINE
  8
文字
  6
CONTINUOUS
 10
27.237728
 20
23.757512
 11
27.237728
 21
21.257512
  0
LINE
  8
文字
  6
CONTINUOUS
 10
26.404392
 20
23.757512
 11
26.404392
 21
21.257512
  0
LINE
  8
文字
  6
CONTINUOUS
 10
-11.692273
 20
23.757512
 11
-11.692273
 21
21.257512
  0
LINE
  8
文字
  6
CONTINUOUS
 10
-12.525608
 20
23.757512
 11
-12.525608
 21
21.257512
  0
LINE
  8
文字
  6
CONTINUOUS
 10
-51.455608
 20
23.757512
 11
-51.455608
 21
21.257512
  0
LINE
  8
文字
  6
CONTINUOUS
 10
-50.622272
 20
23.757512
 11
-50.622272
 21
21.257512
  0
LINE
  8
文字
  6
CONTINUOUS
 10
27.237728
 20
41.870552
 11
27.237728
 21
44.370552
  0
LINE
  8
文字
  6
CONTINUOUS
 10
26.404392
 20
41.870552
 11
26.404392
 21
44.370552
  0
LINE
  8
文字
  6
CONTINUOUS
 10
-11.692273
 20
41.870552
 11
-11.692273
 21
44.370552
  0
LINE
  8
文字
  6
CONTINUOUS
 10
-12.525608
 20
41.870552
 11
-12.525608
 21
44.370552
  0
LINE
  8
文字
  6
CONTINUOUS
 10
-51.455608
 20
41.870552
 11
-51.455608
 21
44.370552
  0
LINE
  8
文字
  6
CONTINUOUS
 10
-50.622272
 20
41.870552
 11
-50.622272
 21
44.370552
  0
LINE
  8
文字
  6
CONTINUOUS
 10
8.667728
 20
41.03722
 11
6.167728
 21
41.03722
  0
LINE
  8
文字
  6
CONTINUOUS
 10
8.667728
 20
24.590845
 11
6.167728
 21
24.590845
  0
LINE
  8
文字
  6
CONTINUOUS
 10
-32.885607
 20
41.03722
 11
-30.385607
 21
41.03722
  0
LINE
  8
文字
  6
CONTINUOUS
 10
-32.885607
 20
24.590845
 11
-30.385607
 21
24.590845
  0
TEXT
  7
TextStyle03
  8
文字
  6
CONTINUOUS
 10
62.075
 20
104.525
  1
ＮＳコード：ＮＳＦＺＬ
 40
5.0
 72
     5
 11
123.325
 21
104.525
  0
INSERT
  2
*DIM_0002
  8
寸法
  6
CONTINUOUS
 10
0.0
 20
0.0
  0
INSERT
  2
*DIM_0003
  8
寸法
  6
CONTINUOUS
 10
0.0
 20
0.0
  0
INSERT
  2
*DIM_0004
  8
寸法
  6
CONTINUOUS
 10
0.0
 20
0.0
  0
INSERT
  2
*DIM_0005
  8
寸法
  6
CONTINUOUS
 10
0.0
 20
0.0
  0
INSERT
  2
*DIM_0006
  8
寸法
  6
CONTINUOUS
 10
0.0
 20
0.0
  0
INSERT
  2
*DIM_0007
  8
寸法
  6
CONTINUOUS
 10
0.0
 20
0.0
  0
INSERT
  2
*DIM_0008
  8
寸法
  6
CONTINUOUS
 10
0.0
 20
0.0
  0
INSERT
  2
*DIM_0009
  8
寸法
  6
CONTINUOUS
 10
0.0
 20
0.0
  0
INSERT
  2
*DIM_0010
  8
寸法
  6
CONTINUOUS
 10
0.0
 20
0.0
  0
INSERT
  2
*DIM_0011
  8
寸法
  6
CONTINUOUS
 10
0.0
 20
0.0
  0
INSERT
  2
*DIM_0012
  8
寸法
  6
CONTINUOUS
 10
0.0
 20
0.0
  0
INSERT
  2
*DIM_0013
  8
寸法
  6
CONTINUOUS
 10
0.0
 20
0.0
  0
INSERT
  2
*DIM_0014
  8
寸法
  6
CONTINUOUS
 10
0.0
 20
0.0
  0
INSERT
  2
*DIM_0015
  8
寸法
  6
CONTINUOUS
 10
0.0
 20
0.0
  0
INSERT
  2
*DIM_0016
  8
寸法
  6
CONTINUOUS
 10
0.0
 20
0.0
  0
INSERT
  2
*DIM_0021
  8
寸法
  6
CONTINUOUS
 10
0.0
 20
0.0
  0
INSERT
  2
*DIM_0022
  8
寸法
  6
CONTINUOUS
 10
0.0
 20
0.0
  0
INSERT
  2
*DIM_0023
  8
寸法
  6
CONTINUOUS
 10
0.0
 20
0.0
  0
INSERT
  2
*DIM_0024
  8
寸法
  6
CONTINUOUS
 10
0.0
 20
0.0
  0
LINE
  8
別途部材
  6
CONTINUOUS
 62
    47
 10
-71.998795
 20
-68.346208
 11
-71.998795
 21
-68.412872
  0
ARC
  8
別途部材
  6
CONTINUOUS
 62
    47
 10
-71.898795
 20
-68.346207
 40
0.1
 50
90.0
 51
180.0
  0
LINE
  8
別途部材
  6
CONTINUOUS
 62
    47
 10
-71.898795
 20
-68.246208
 11
-69.532128
 21
-68.246208
  0
LINE
  8
別途部材
  6
CONTINUOUS
 62
    47
 10
-71.842273
 20
-69.912872
 11
-71.842273
 21
-68.412872
  0
LINE
  8
別途部材
  6
CONTINUOUS
 62
    47
 10
47.780912
 20
-68.346208
 11
47.780912
 21
-68.412872
  0
ARC
  8
別途部材
  6
CONTINUOUS
 62
    47
 10
47.680913
 20
-68.346207
 40
0.1
 50
0.0
 51
90.0
  0
LINE
  8
別途部材
  6
CONTINUOUS
 62
    47
 10
47.680912
 20
-68.246208
 11
45.314245
 21
-68.246208
  0
LINE
  8
別途部材
  6
CONTINUOUS
 62
    47
 10
47.62439
 20
-69.912872
 11
47.62439
 21
-68.412872
  0
LINE
  8
別途部材
  6
DOT
 62
    47
 10
-71.998795
 20
-61.012875
 11
-71.998795
 21
-61.07954
  0
ARC
  8
別途部材
  6
DOT
 62
    47
 10
-71.898795
 20
-61.012874
 40
0.1
 50
90.0
 51
180.0
  0
LINE
  8
別途部材
  6
DOT
 62
    47
 10
-71.898795
 20
-60.912875
 11
-69.532128
 21
-60.912875
  0
LINE
  8
別途部材
  6
DOT
 62
    47
 10
-71.842273
 20
-62.57954
 11
-71.842273
 21
-61.07954
  0
LINE
  8
別途部材
  6
DOT
 62
    47
 10
47.780912
 20
-61.012875
 11
47.780912
 21
-61.07954
  0
ARC
  8
別途部材
  6
DOT
 62
    47
 10
47.680913
 20
-61.012874
 40
0.1
 50
0.0
 51
90.0
  0
LINE
  8
別途部材
  6
DOT
 62
    47
 10
47.680912
 20
-60.912875
 11
45.314245
 21
-60.912875
  0
LINE
  8
別途部材
  6
DOT
 62
    47
 10
47.62439
 20
-62.57954
 11
47.62439
 21
-61.07954
  0
LINE
  8
別途部材
  6
CONTINUOUS
 62
    47
 10
134.888222
 20
44.370552
 11
134.954888
 21
44.370552
  0
ARC
  8
別途部材
  6
CONTINUOUS
 62
    47
 10
134.888222
 20
44.270554
 40
0.1
 50
90.0
 51
180.0
  0
LINE
  8
別途部材
  6
CONTINUOUS
 62
    47
 10
134.788222
 20
44.270552
 11
134.788222
 21
41.903888
  0
LINE
  8
別途部材
  6
CONTINUOUS
 62
    47
 10
136.454888
 20
44.214033
 11
134.954888
 21
44.214033
  0
LINE
  8
別途部材
  6
CONTINUOUS
 62
    47
 10
134.888222
 20
21.257512
 11
134.954888
 21
21.257512
  0
ARC
  8
別途部材
  6
CONTINUOUS
 62
    47
 10
134.888222
 20
21.357512
 40
0.1
 50
180.0
 51
270.0
  0
LINE
  8
別途部材
  6
CONTINUOUS
 62
    47
 10
134.788222
 20
21.357512
 11
134.788222
 21
23.72418
  0
LINE
  8
別途部材
  6
CONTINUOUS
 62
    47
 10
136.454888
 20
21.414035
 11
134.954888
 21
21.414035
  0
LINE
  8
曲げ物
  6
CONTINUOUS
 10
141.310947
 20
-83.118728
 11
141.310947
 21
-63.785395
  0
LINE
  8
曲げ物
  6
CONTINUOUS
 10
28.944153
 20
34.739582
 11
25.24884
 21
31.04427
  0
LINE
  8
曲げ物
  6
CONTINUOUS
 10
28.240683
 20
33.203472
 11
26.784952
 21
31.747742
  0
LINE
  8
曲げ物
  6
CONTINUOUS
 10
27.408043
 20
34.036112
 11
25.952312
 21
32.580383
  0
LINE
  8
曲げ物
  6
CONTINUOUS
 10
-10.21441
 20
34.739582
 11
-13.909723
 21
31.04427
  0
LINE
  8
曲げ物
  6
CONTINUOUS
 10
-10.91788
 20
33.203472
 11
-12.37361
 21
31.747742
  0
LINE
  8
曲げ物
  6
CONTINUOUS
 10
-11.75052
 20
34.036112
 11
-13.20625
 21
32.580383
  0
LINE
  8
曲げ物
  6
CONTINUOUS
 10
-49.553438
 20
34.739582
 11
-53.24875
 21
31.04427
  0
LINE
  8
曲げ物
  6
CONTINUOUS
 10
-50.256908
 20
33.203472
 11
-51.712637
 21
31.747742
  0
LINE
  8
曲げ物
  6
CONTINUOUS
 10
-51.089548
 20
34.036112
 11
-52.545277
 21
32.580383
  0
LINE
  8
曲げ物
  6
CONTINUOUS
 10
103.420947
 20
-83.118728
 11
103.420947
 21
-63.785395
  0
LINE
  8
曲げ物
  6
CONTINUOUS
 10
141.310947
 20
-63.785395
 11
103.420947
 21
-63.785395
  0
LINE
  8
曲げ物
  6
CONTINUOUS
 10
141.310947
 20
-83.118728
 11
103.420947
 21
-83.118728
  0
ENDSEC
  0
EOF
