  0
SECTION
  2
HEADER
  9
$EXTMIN
 10
-210.0
 20
-148.5
  9
$EXTMAX
 10
210.0
 20
148.5
  9
$PDMODE
 70
    32
  9
$PDSIZE
 40
1.5
  9
$LTSCALE
 40
10.0
  0
ENDSEC
  0
SECTION
  2
TABLES
  0
TABLE
  2
LTYPE
 70
    15
  0
LTYPE
  2
CONTINUOUS
 70
    64
  3
実線
 72
    65
 73
     0
 40
0.0
  0
LTYPE
  2
DASHED
 70
    64
  3
破線A
 72
    65
 73
     2
 40
0.6
 49
0.4
 49
-0.2
  0
LTYPE
  2
DASHEDX2
 70
    64
  3
破線B
 72
    65
 73
     2
 40
1.3
 49
0.9
 49
-0.4
  0
LTYPE
  2
DASHDOT
 70
    64
  3
１点鎖線A
 72
    65
 73
     4
 40
0.5375
 49
0.375
 49
-0.05
 49
0.0625
 49
-0.05
  0
LTYPE
  2
DASHDOTX2
 70
    64
  3
１点鎖線B
 72
    65
 73
     4
 40
1.075
 49
0.75
 49
-0.1
 49
0.125
 49
-0.1
  0
LTYPE
  2
DIVIDE2
 70
    64
  3
２点鎖線A
 72
    65
 73
     6
 40
0.5125
 49
0.3
 49
-0.0375
 49
0.05
 49
-0.0375
 49
0.05
 49
-0.0375
  0
LTYPE
  2
DIVIDE
 70
    64
  3
２点鎖線B
 72
    65
 73
     6
 40
1.05
 49
0.55
 49
-0.1
 49
0.1
 49
-0.1
 49
0.1
 49
-0.1
  0
LTYPE
  2
DOT
 70
    64
  3
点線A
 72
    65
 73
     2
 40
0.1125
 49
0.0625
 49
-0.05
  0
LTYPE
  2
DOTX2
 70
    64
  3
点線B
 72
    65
 73
     2
 40
0.275
 49
0.15
 49
-0.125
  0
LTYPE
  2
CONTINUOUS
 70
    64
  3
実線
 72
    65
 73
     0
 40
0.0
  0
LTYPE
  2
CONTINUOUS
 70
    64
  3
実線
 72
    65
 73
     0
 40
0.0
  0
LTYPE
  2
CONTINUOUS
 70
    64
  3
実線
 72
    65
 73
     0
 40
0.0
  0
LTYPE
  2
CONTINUOUS
 70
    64
  3
実線
 72
    65
 73
     0
 40
0.0
  0
LTYPE
  2
CONTINUOUS
 70
    64
  3
実線
 72
    65
 73
     0
 40
0.0
  0
LTYPE
  2
CONTINUOUS
 70
    64
  3
実線
 72
    65
 73
     0
 40
0.0
  0
ENDTAB
  0
TABLE
  2
LAYER
 70
    34
  0
LAYER
  2
通り芯
 70
     0
 62
    15
  6
CONTINUOUS
  0
LAYER
  2
補助線
 70
     0
 62
    16
  6
DOT
  0
LAYER
  2
躯体
 70
     0
 62
    31
  6
CONTINUOUS
  0
LAYER
  2
型材
 70
     0
 62
    32
  6
CONTINUOUS
  0
LAYER
  2
型材断面
 70
     0
 62
    47
  6
CONTINUOUS
  0
LAYER
  2
ガラス
 70
     0
 62
    48
  6
CONTINUOUS
  0
LAYER
  2
ゴム等
 70
     0
 62
    63
  6
CONTINUOUS
  0
LAYER
  2
ボルト／ビス
 70
     0
 62
    64
  6
CONTINUOUS
  0
LAYER
  2
文字
 70
     0
 62
    79
  6
CONTINUOUS
  0
LAYER
  2
寸法
 70
     0
 62
    80
  6
CONTINUOUS
  0
LAYER
  2
ﾊｯﾁﾝｸﾞ
 70
     0
 62
    95
  6
CONTINUOUS
  0
LAYER
  2
別途部材
 70
     0
 62
    96
  6
CONTINUOUS
  0
LAYER
  2
曲げ物
 70
     0
 62
   111
  6
CONTINUOUS
  0
LAYER
  2
鉄骨等
 70
     0
 62
   112
  6
CONTINUOUS
  0
LAYER
  2
St
 70
     0
 62
   127
  6
CONTINUOUS
  0
LAYER
  2
その他部品等
 70
     0
 62
   128
  6
CONTINUOUS
  0
LAYER
  2
ｶﾞｽｹｯﾄ
 70
     0
 62
   143
  6
CONTINUOUS
  0
LAYER
  2
ｽｹｯﾁ
 70
     0
 62
    14
  6
CONTINUOUS
  0
LAYER
  2
0
 70
     0
 62
    17
  6
CONTINUOUS
  0
LAYER
  2
1
 70
     0
 62
    30
  6
CONTINUOUS
  0
LAYER
  2
4
 70
     0
 62
    33
  6
CONTINUOUS
  0
LAYER
  2
ﾚｲﾔ3
 70
     0
 62
    46
  6
CONTINUOUS
  0
LAYER
  2
外形線
 70
     0
 62
    49
  6
CONTINUOUS
  0
LAYER
  2
部品
 70
     0
 62
    14
  6
CONTINUOUS
  0
LAYER
  2
サッシ芯
 70
     0
 62
    17
  6
DASHDOTX2
  0
LAYER
  2
寸法線
 70
     0
 62
    62
  6
CONTINUOUS
  0
LAYER
  2
姿図外形線
 70
     0
 62
    65
  6
CONTINUOUS
  0
LAYER
  2
姿補助線
 70
     0
 62
    30
  6
CONTINUOUS
  0
LAYER
  2
透視線
 70
     0
 62
    78
  6
DOT
  0
LAYER
  2
用紙
 70
     0
 62
    81
  6
CONTINUOUS
  0
LAYER
  2
実線図枠
 70
     0
 62
    94
  6
CONTINUOUS
  0
LAYER
  2
補助図枠
 70
     0
 62
    97
  6
CONTINUOUS
  0
LAYER
  2
建具記号
 70
     0
 62
   110
  6
CONTINUOUS
  0
LAYER
  2
補助文字
 70
     0
 62
   113
  6
CONTINUOUS
  0
ENDTAB
  0
TABLE
  2
STYLE
 70
    10
  0
STYLE
  2
STANDARD
 70
     0
 40
1.0
 41
1.0
 42
1.0
 50
0.0
 71
     0
  3
TXT
  4
BIGFONT
  0
STYLE
  2
TATE
 70
     4
 40
1.0
 41
1.0
 42
1.0
 50
0.0
 71
     0
  3
TXT
  4
BIGFONT
  0
STYLE
  2
TextStyle03
 70
     0
 40
1.0
 41
1.0
 42
1.0
 50
0.0
 71
     0
  3
MONOTXT
  4
BIGFONT
  0
STYLE
  2
TextStyle04
 70
     0
 40
1.0
 41
1.0
 42
1.0
 50
0.0
 71
     0
  3
MONOTXT
  4
BIGFONT
  0
STYLE
  2
TextStyle05
 70
     0
 40
1.0
 41
1.0
 42
1.0
 50
0.0
 71
     0
  3
MONOTXT
  4
BIGFONT
  0
STYLE
  2
TextStyle06
 70
     0
 40
1.0
 41
1.0
 42
1.0
 50
0.0
 71
     0
  3
MONOTXT
  4
BIGFONT
  0
STYLE
  2
TextStyle07
 70
     0
 40
1.0
 41
1.0
 42
1.0
 50
0.0
 71
     0
  3
MONOTXT
  4
BIGFONT
  0
STYLE
  2
TextStyle08
 70
     0
 40
1.0
 41
1.0
 42
1.0
 50
0.0
 71
     0
  3
MONOTXT
  4
BIGFONT
  0
STYLE
  2
TextStyle09
 70
     0
 40
1.0
 41
1.0
 42
1.0
 50
0.0
 71
     0
  3
MONOTXT
  4
BIGFONT
  0
STYLE
  2
TextStyle10
 70
     0
 40
1.0
 41
1.0
 42
1.0
 50
0.0
 71
     0
  3
MONOTXT
  4
BIGFONT
  0
ENDTAB
  0
ENDSEC
  0
SECTION
  2
BLOCKS
  0
BLOCK
  2
*GRP_0001
 70
    65
 10
0.0
 20
0.0
  0
LINE
  8
型材断面
  6
CONTINUOUS
 10
195.0
 20
133.5
 11
195.0
 21
-133.5
  0
LINE
  8
型材断面
  6
CONTINUOUS
 10
195.0
 20
-133.5
 11
-185.0
 21
-133.5
  0
LINE
  8
型材断面
  6
CONTINUOUS
 10
-185.0
 20
-133.5
 11
-185.0
 21
133.5
  0
LINE
  8
型材断面
  6
CONTINUOUS
 10
195.0
 20
133.5
 11
-185.0
 21
133.5
  0
LINE
  8
型材断面
  6
CONTINUOUS
 10
145.0
 20
-133.5
 11
145.0
 21
-118.5
  0
LINE
  8
型材断面
  6
CONTINUOUS
 10
195.0
 20
-118.5
 11
145.0
 21
-118.5
  0
ENDBLK
  0
BLOCK
  2
*DIM_0002
 70
    65
 10
0.0
 20
0.0
  0
LINE
  8
寸法
  6
BYBLOCK
 62
     0
 10
142.310947
 20
-63.785395
 11
150.422478
 21
-63.785395
  0
LINE
  8
寸法
  6
BYBLOCK
 62
     0
 10
142.310947
 20
-83.118728
 11
150.422478
 21
-83.118728
  0
LINE
  8
寸法
  6
BYBLOCK
 62
     0
 10
150.422478
 20
-63.785395
 11
150.422478
 21
-83.118728
  0
POINT
  8
寸法
 62
     0
 10
150.422478
 20
-63.785395
  0
POINT
  8
寸法
 62
     0
 10
150.422478
 20
-83.118728
  0
TEXT
  7
TextStyle03
  8
寸法
  6
CONTINUOUS
 62
     0
 10
150.025
 20
-75.9125
  1
580
 40
3.0
 50
90.0
 72
     5
 11
150.025
 21
-71.0375
  0
ENDBLK
  0
BLOCK
  2
*DIM_0003
 70
    65
 10
0.0
 20
0.0
  0
LINE
  8
寸法
  6
BYBLOCK
 62
     0
 10
46.224393
 20
-13.121378
 11
-87.10894
 21
-13.121378
  0
POINT
  8
寸法
 62
     0
 10
46.224393
 20
-13.121378
  0
POINT
  8
寸法
 62
     0
 10
-87.10894
 20
-13.121378
  0
TEXT
  7
TextStyle03
  8
寸法
  6
CONTINUOUS
 62
     0
 10
-32.16875
 20
-12.75
  1
呼称寸法　4000
 40
3.0
 72
     5
 11
-8.73125
 21
-12.75
  0
ENDBLK
  0
BLOCK
  2
*DIM_0004
 70
    65
 10
0.0
 20
0.0
  0
LINE
  8
寸法
  6
BYBLOCK
 62
     0
 10
-70.442273
 20
19.183902
 11
-70.442273
 21
14.13158
  0
LINE
  8
寸法
  6
BYBLOCK
 62
     0
 10
29.557723
 20
19.183902
 11
29.557723
 21
14.13158
  0
LINE
  8
寸法
  6
BYBLOCK
 62
     0
 10
-70.442273
 20
14.13158
 11
29.557723
 21
14.13158
  0
POINT
  8
寸法
 62
     0
 10
-70.442273
 20
14.13158
  0
POINT
  8
寸法
 62
     0
 10
29.557723
 20
14.13158
  0
TEXT
  7
TextStyle03
  8
寸法
  6
CONTINUOUS
 62
     0
 10
-23.73125
 20
14.5
  1
3000
 40
3.0
 72
     5
 11
-17.16875
 21
14.5
  0
ENDBLK
  0
BLOCK
  2
*DIM_0005
 70
    65
 10
0.0
 20
0.0
  0
LINE
  8
寸法
  6
BYBLOCK
 62
     0
 10
47.224393
 20
42.814035
 11
56.948675
 21
42.814035
  0
LINE
  8
寸法
  6
BYBLOCK
 62
     0
 10
49.854522
 20
39.114035
 11
56.948675
 21
39.114035
  0
LINE
  8
寸法
  6
BYBLOCK
 62
     0
 10
56.948675
 20
42.814035
 11
56.948675
 21
39.114035
  0
POINT
  8
寸法
 62
     0
 10
56.948675
 20
42.814035
  0
POINT
  8
寸法
 62
     0
 10
56.948675
 20
39.114035
  0
TEXT
  7
TextStyle03
  8
寸法
  6
CONTINUOUS
 62
     0
 10
56.625
 20
43.8125
  1
111
 40
3.0
 50
90.0
 72
     5
 11
56.625
 21
48.6875
  0
ENDBLK
  0
BLOCK
  2
*DIM_0006
 70
    65
 10
0.0
 20
0.0
  0
LINE
  8
寸法
  6
BYBLOCK
 62
     0
 10
47.224393
 20
22.81403
 11
56.948675
 21
22.814027
  0
LINE
  8
寸法
  6
BYBLOCK
 62
     0
 10
49.854522
 20
26.51403
 11
56.948675
 21
26.514027
  0
LINE
  8
寸法
  6
BYBLOCK
 62
     0
 10
56.948675
 20
22.814027
 11
56.948675
 21
26.514027
  0
POINT
  8
寸法
 62
     0
 10
56.948675
 20
22.814027
  0
POINT
  8
寸法
 62
     0
 10
56.948675
 20
26.514027
  0
TEXT
  7
TextStyle03
  8
寸法
  6
CONTINUOUS
 62
     0
 10
56.95
 20
16.5625
  1
111
 40
3.0
 50
90.0
 72
     5
 11
56.95
 21
21.4375
  0
ENDBLK
  0
BLOCK
  2
*DIM_0007
 70
    65
 10
0.0
 20
0.0
  0
LINE
  8
寸法
  6
BYBLOCK
 62
     0
 10
80.244043
 20
22.814033
 11
80.244043
 21
42.814033
  0
POINT
  8
寸法
 62
     0
 10
80.244043
 20
22.814033
  0
POINT
  8
寸法
 62
     0
 10
80.244043
 20
42.814033
  0
TEXT
  7
TextStyle03
  8
寸法
  6
CONTINUOUS
 62
     0
 10
79.875
 20
21.925
  1
呼称寸法　600
 40
3.0
 50
90.0
 72
     5
 11
79.875
 21
43.675
  0
ENDBLK
  0
BLOCK
  2
*DIM_0008
 70
    65
 10
0.0
 20
0.0
  0
LINE
  8
寸法
  6
BYBLOCK
 62
     0
 10
134.134438
 20
44.79737
 11
80.244043
 21
44.79737
  0
LINE
  8
寸法
  6
BYBLOCK
 62
     0
 10
80.244043
 20
42.814033
 11
80.244043
 21
44.79737
  0
POINT
  8
寸法
 62
     0
 10
80.244043
 20
42.814033
  0
POINT
  8
寸法
 62
     0
 10
80.244043
 20
44.79737
  0
TEXT
  7
TextStyle03
  8
寸法
  6
CONTINUOUS
 62
     0
 10
79.85
 20
47.26875
  1
59.5
 40
3.0
 50
90.0
 72
     5
 11
79.85
 21
53.83125
  0
ENDBLK
  0
BLOCK
  2
*DIM_0009
 70
    65
 10
0.0
 20
0.0
  0
LINE
  8
寸法
  6
BYBLOCK
 62
     0
 10
134.134438
 20
20.830703
 11
80.244043
 21
20.830703
  0
LINE
  8
寸法
  6
BYBLOCK
 62
     0
 10
80.244043
 20
22.814033
 11
80.244043
 21
20.830703
  0
POINT
  8
寸法
 62
     0
 10
80.244043
 20
22.814033
  0
POINT
  8
寸法
 62
     0
 10
80.244043
 20
20.830703
  0
TEXT
  7
TextStyle03
  8
寸法
  6
CONTINUOUS
 62
     0
 10
79.85
 20
11.76875
  1
59.5
 40
3.0
 50
90.0
 72
     5
 11
79.85
 21
18.33125
  0
ENDBLK
  0
BLOCK
  2
*DIM_0010
 70
    65
 10
0.0
 20
0.0
  0
LINE
  8
寸法
  6
BYBLOCK
 62
     0
 10
48.207723
 20
-61.253063
 11
48.207723
 21
-13.121378
  0
LINE
  8
寸法
  6
BYBLOCK
 62
     0
 10
46.224393
 20
-13.121378
 11
48.207723
 21
-13.121378
  0
POINT
  8
寸法
 62
     0
 10
46.224393
 20
-13.121378
  0
POINT
  8
寸法
 62
     0
 10
48.207723
 20
-13.121378
  0
TEXT
  7
TextStyle03
  8
寸法
  6
CONTINUOUS
 62
     0
 10
50.66875
 20
-12.75
  1
59.5
 40
3.0
 72
     5
 11
57.23125
 21
-12.75
  0
ENDBLK
  0
BLOCK
  2
*DIM_0011
 70
    65
 10
0.0
 20
0.0
  0
LINE
  8
寸法
  6
BYBLOCK
 62
     0
 10
-89.092273
 20
-61.253063
 11
-89.092273
 21
-13.121378
  0
LINE
  8
寸法
  6
BYBLOCK
 62
     0
 10
-87.10894
 20
-13.121378
 11
-89.092273
 21
-13.121378
  0
POINT
  8
寸法
 62
     0
 10
-87.10894
 20
-13.121378
  0
POINT
  8
寸法
 62
     0
 10
-89.092273
 20
-13.121378
  0
TEXT
  7
TextStyle03
  8
寸法
  6
CONTINUOUS
 62
     0
 10
-98.15625
 20
-12.75
  1
59.5
 40
3.0
 72
     5
 11
-91.59375
 21
-12.75
  0
ENDBLK
  0
BLOCK
  2
*DIM_0012
 70
    65
 10
0.0
 20
0.0
  0
LINE
  8
寸法
  6
BYBLOCK
 62
     0
 10
-90.10894
 20
39.4807
 11
-103.401778
 21
39.4807
  0
LINE
  8
寸法
  6
BYBLOCK
 62
     0
 10
-90.10894
 20
26.147365
 11
-103.401778
 21
26.147365
  0
LINE
  8
寸法
  6
BYBLOCK
 62
     0
 10
-103.401778
 20
39.4807
 11
-103.401778
 21
26.147365
  0
POINT
  8
寸法
 62
     0
 10
-103.401778
 20
39.4807
  0
POINT
  8
寸法
 62
     0
 10
-103.401778
 20
26.147365
  0
TEXT
  7
TextStyle03
  8
寸法
  6
CONTINUOUS
 62
     0
 10
-103.825
 20
30.3625
  1
400
 40
3.0
 50
90.0
 72
     5
 11
-103.825
 21
35.2375
  0
ENDBLK
  0
BLOCK
  2
*DIM_0013
 70
    65
 10
0.0
 20
0.0
  0
LINE
  8
寸法
  6
BYBLOCK
 62
     0
 10
-78.775608
 20
45.814033
 11
-78.775608
 21
74.922105
  0
LINE
  8
寸法
  6
BYBLOCK
 62
     0
 10
-55.442275
 20
45.814033
 11
-55.442275
 21
74.922105
  0
LINE
  8
寸法
  6
BYBLOCK
 62
     0
 10
-78.775608
 20
74.922105
 11
-55.442275
 21
74.922105
  0
POINT
  8
寸法
 62
     0
 10
-78.775608
 20
74.922105
  0
POINT
  8
寸法
 62
     0
 10
-55.442275
 20
74.922105
  0
TEXT
  7
TextStyle03
  8
寸法
  6
CONTINUOUS
 62
     0
 10
-69.5625
 20
75.275
  1
700
 40
3.0
 72
     5
 11
-64.6875
 21
75.275
  0
ENDBLK
  0
BLOCK
  2
*DIM_0014
 70
    65
 10
0.0
 20
0.0
  0
LINE
  8
寸法
  6
BYBLOCK
 62
     0
 10
-32.108943
 20
45.814033
 11
-32.108943
 21
74.922105
  0
LINE
  8
寸法
  6
BYBLOCK
 62
     0
 10
-55.442275
 20
74.922105
 11
-32.108943
 21
74.922105
  0
POINT
  8
寸法
 62
     0
 10
-32.108943
 20
74.922105
  0
TEXT
  7
TextStyle03
  8
寸法
  6
CONTINUOUS
 62
     0
 10
-46.2375
 20
75.275
  1
700
 40
3.0
 72
     5
 11
-41.3625
 21
75.275
  0
ENDBLK
  0
BLOCK
  2
*DIM_0015
 70
    65
 10
0.0
 20
0.0
  0
LINE
  8
寸法
  6
BYBLOCK
 62
     0
 10
-8.775608
 20
45.814033
 11
-8.775608
 21
74.922105
  0
LINE
  8
寸法
  6
BYBLOCK
 62
     0
 10
-32.108943
 20
74.922105
 11
-8.775608
 21
74.922105
  0
POINT
  8
寸法
 62
     0
 10
-8.775608
 20
74.922105
  0
TEXT
  7
TextStyle03
  8
寸法
  6
CONTINUOUS
 62
     0
 10
-22.9125
 20
75.275
  1
700
 40
3.0
 72
     5
 11
-18.0375
 21
75.275
  0
ENDBLK
  0
BLOCK
  2
*DIM_0016
 70
    65
 10
0.0
 20
0.0
  0
LINE
  8
寸法
  6
BYBLOCK
 62
     0
 10
14.557725
 20
45.814033
 11
14.557725
 21
74.922105
  0
LINE
  8
寸法
  6
BYBLOCK
 62
     0
 10
-8.775608
 20
74.922105
 11
14.557725
 21
74.922105
  0
POINT
  8
寸法
 62
     0
 10
14.557725
 20
74.922105
  0
TEXT
  7
TextStyle03
  8
寸法
  6
CONTINUOUS
 62
     0
 10
0.4375
 20
75.275
  1
700
 40
3.0
 72
     5
 11
5.3125
 21
75.275
  0
ENDBLK
  0
BLOCK
  2
*DIM_0017
 70
    65
 10
0.0
 20
0.0
  0
LINE
  8
寸法
  6
BYBLOCK
 62
     0
 10
37.891057
 20
45.814033
 11
37.891057
 21
74.922105
  0
LINE
  8
寸法
  6
BYBLOCK
 62
     0
 10
14.557725
 20
74.922105
 11
37.891057
 21
74.922105
  0
POINT
  8
寸法
 62
     0
 10
37.891057
 20
74.922105
  0
TEXT
  7
TextStyle03
  8
寸法
  6
CONTINUOUS
 62
     0
 10
23.7625
 20
75.275
  1
700
 40
3.0
 72
     5
 11
28.6375
 21
75.275
  0
ENDBLK
  0
BLOCK
  2
*DIM_0018
 70
    65
 10
0.0
 20
0.0
  0
LINE
  8
寸法
  6
CONTINUOUS
 10
134.572333
 20
56.049278
 11
142.222382
 21
56.049278
  0
POINT
  8
寸法
 10
134.572333
 20
56.049278
  0
POINT
  8
寸法
 10
142.222382
 20
56.049278
  0
TEXT
  7
TextStyle03
  8
寸法
  6
CONTINUOUS
 10
134.3
 20
56.4
  1
229.5
 40
3.0
 72
     5
 11
142.55
 21
56.4
  0
ENDBLK
  0
BLOCK
  2
*GRP_0019
 70
    65
 10
0.0
 20
0.0
  0
LINE
  8
補助線
  6
BYBLOCK
 62
    64
 10
-75.367805
 20
-74.177632
 11
-75.51673
 21
-74.252458
  0
LINE
  8
補助線
  6
BYBLOCK
 62
    64
 10
-75.47968
 20
-74.14058
 11
-75.404855
 21
-74.289508
  0
LINE
  8
補助線
  6
BYBLOCK
 62
    64
 10
-65.449325
 20
-69.194275
 11
-65.598253
 21
-69.2691
  0
LINE
  8
補助線
  6
BYBLOCK
 62
    64
 10
-65.561203
 20
-69.157222
 11
-65.486377
 21
-69.30615
  0
LINE
  8
補助線
  6
BYBLOCK
 62
    64
 10
-55.679775
 20
-64.285743
 11
-55.530847
 21
-64.210917
  0
LINE
  8
補助線
  6
BYBLOCK
 62
    64
 10
-55.642725
 20
-64.173865
 11
-55.5679
 21
-64.322793
  0
LINE
  8
型材断面
  6
CONTINUOUS
 10
-76.114245
 20
-73.620068
 11
-76.336547
 21
-74.29132
  0
LINE
  8
型材断面
  6
CONTINUOUS
 10
-76.336547
 20
-74.29132
 11
-76.037245
 21
-74.887025
  0
LINE
  8
型材断面
  6
CONTINUOUS
 10
-76.037245
 20
-74.887025
 11
-75.365992
 21
-75.109328
  0
LINE
  8
型材断面
  6
CONTINUOUS
 10
-55.681588
 20
-63.35405
 11
-55.010333
 21
-63.576353
  0
LINE
  8
型材断面
  6
CONTINUOUS
 10
-55.010333
 20
-63.576353
 11
-54.71103
 21
-64.172058
  0
LINE
  8
型材断面
  6
CONTINUOUS
 10
-54.71103
 20
-64.172058
 11
-54.933335
 21
-64.84331
  0
LINE
  8
型材断面
  6
CONTINUOUS
 10
-76.114245
 20
-73.620068
 11
-55.681588
 21
-63.35405
  0
LINE
  8
型材断面
  6
CONTINUOUS
 10
-75.365992
 20
-75.109328
 11
-54.933335
 21
-64.84331
  0
CIRCLE
  8
ボルト／ビス
  6
CONTINUOUS
 10
-75.442267
 20
-74.215045
 40
0.250185
  0
CIRCLE
  8
ボルト／ビス
  6
CONTINUOUS
 10
-75.442267
 20
-74.215045
 40
0.301025
  0
LINE
  8
ボルト／ビス
  6
CONTINUOUS
 62
    64
 10
-75.692033
 20
-74.200543
 11
-75.554587
 21
-73.991493
  0
LINE
  8
ボルト／ビス
  6
CONTINUOUS
 62
    64
 10
-75.304822
 20
-74.005995
 11
-75.554587
 21
-73.991493
  0
LINE
  8
ボルト／ビス
  6
CONTINUOUS
 62
    64
 10
-75.579712
 20
-74.424095
 11
-75.329947
 21
-74.438598
  0
LINE
  8
ボルト／ビス
  6
CONTINUOUS
 62
    64
 10
-75.192502
 20
-74.229547
 11
-75.329947
 21
-74.438598
  0
LINE
  8
ボルト／ビス
  6
CONTINUOUS
 62
    64
 10
-75.692033
 20
-74.200543
 11
-75.579712
 21
-74.424095
  0
LINE
  8
ボルト／ビス
  6
CONTINUOUS
 62
    64
 10
-75.304822
 20
-74.005995
 11
-75.192502
 21
-74.229547
  0
CIRCLE
  8
ボルト／ビス
  6
CONTINUOUS
 62
    64
 10
-75.442267
 20
-74.215045
 40
0.216668
  0
CIRCLE
  8
ボルト／ビス
  6
CONTINUOUS
 10
-65.52379
 20
-69.231688
 40
0.250185
  0
CIRCLE
  8
ボルト／ビス
  6
CONTINUOUS
 10
-65.52379
 20
-69.231688
 40
0.301025
  0
LINE
  8
ボルト／ビス
  6
CONTINUOUS
 62
    64
 10
-65.773555
 20
-69.217183
 11
-65.63611
 21
-69.008133
  0
LINE
  8
ボルト／ビス
  6
CONTINUOUS
 62
    64
 10
-65.386345
 20
-69.022635
 11
-65.63611
 21
-69.008133
  0
LINE
  8
ボルト／ビス
  6
CONTINUOUS
 62
    64
 10
-65.661235
 20
-69.440737
 11
-65.411467
 21
-69.455242
  0
LINE
  8
ボルト／ビス
  6
CONTINUOUS
 62
    64
 10
-65.274025
 20
-69.246192
 11
-65.411467
 21
-69.455242
  0
LINE
  8
ボルト／ビス
  6
CONTINUOUS
 62
    64
 10
-65.773555
 20
-69.217183
 11
-65.661235
 21
-69.440737
  0
LINE
  8
ボルト／ビス
  6
CONTINUOUS
 62
    64
 10
-65.386345
 20
-69.022635
 11
-65.274025
 21
-69.246192
  0
CIRCLE
  8
ボルト／ビス
  6
CONTINUOUS
 62
    64
 10
-65.52379
 20
-69.231688
 40
0.216668
  0
CIRCLE
  8
ボルト／ビス
  6
CONTINUOUS
 10
-55.605313
 20
-64.24833
 40
0.250185
  0
CIRCLE
  8
ボルト／ビス
  6
CONTINUOUS
 10
-55.605313
 20
-64.24833
 40
0.301025
  0
LINE
  8
ボルト／ビス
  6
CONTINUOUS
 62
    64
 10
-55.467868
 20
-64.03928
 11
-55.717633
 21
-64.024777
  0
LINE
  8
ボルト／ビス
  6
CONTINUOUS
 62
    64
 10
-55.855077
 20
-64.233828
 11
-55.717633
 21
-64.024777
  0
LINE
  8
ボルト／ビス
  6
CONTINUOUS
 62
    64
 10
-55.355548
 20
-64.262835
 11
-55.49299
 21
-64.471882
  0
LINE
  8
ボルト／ビス
  6
CONTINUOUS
 62
    64
 10
-55.742757
 20
-64.45738
 11
-55.49299
 21
-64.471882
  0
LINE
  8
ボルト／ビス
  6
CONTINUOUS
 62
    64
 10
-55.467868
 20
-64.03928
 11
-55.355548
 21
-64.262835
  0
LINE
  8
ボルト／ビス
  6
CONTINUOUS
 62
    64
 10
-55.855077
 20
-64.233828
 11
-55.742757
 21
-64.45738
  0
CIRCLE
  8
ボルト／ビス
  6
CONTINUOUS
 62
    64
 10
-55.605313
 20
-64.24833
 40
0.216668
  0
ENDBLK
  0
BLOCK
  2
*GRP_0020
 70
    65
 10
0.0
 20
0.0
  0
LINE
  8
補助線
  6
BYBLOCK
 62
    64
 10
-55.679775
 20
-74.177632
 11
-55.53085
 21
-74.252458
  0
LINE
  8
補助線
  6
BYBLOCK
 62
    64
 10
-55.5679
 20
-74.14058
 11
-55.642725
 21
-74.289508
  0
LINE
  8
補助線
  6
BYBLOCK
 62
    64
 10
-65.598255
 20
-69.194275
 11
-65.449327
 21
-69.2691
  0
LINE
  8
補助線
  6
BYBLOCK
 62
    64
 10
-65.486377
 20
-69.157222
 11
-65.561203
 21
-69.30615
  0
LINE
  8
補助線
  6
BYBLOCK
 62
    64
 10
-75.367805
 20
-64.285743
 11
-75.516733
 21
-64.210917
  0
LINE
  8
補助線
  6
BYBLOCK
 62
    64
 10
-75.404855
 20
-64.173865
 11
-75.47968
 21
-64.322793
  0
LINE
  8
型材断面
  6
CONTINUOUS
 10
-54.933335
 20
-73.620068
 11
-54.711032
 21
-74.29132
  0
LINE
  8
型材断面
  6
CONTINUOUS
 10
-54.711032
 20
-74.29132
 11
-55.010335
 21
-74.887025
  0
LINE
  8
型材断面
  6
CONTINUOUS
 10
-55.010335
 20
-74.887025
 11
-55.681588
 21
-75.109328
  0
LINE
  8
型材断面
  6
CONTINUOUS
 10
-75.365992
 20
-63.35405
 11
-76.037248
 21
-63.576353
  0
LINE
  8
型材断面
  6
CONTINUOUS
 10
-76.037248
 20
-63.576353
 11
-76.33655
 21
-64.172058
  0
LINE
  8
型材断面
  6
CONTINUOUS
 10
-76.33655
 20
-64.172058
 11
-76.114245
 21
-64.84331
  0
LINE
  8
型材断面
  6
CONTINUOUS
 10
-54.933335
 20
-73.620068
 11
-75.365992
 21
-63.35405
  0
LINE
  8
型材断面
  6
CONTINUOUS
 10
-55.681588
 20
-75.109328
 11
-76.114245
 21
-64.84331
  0
CIRCLE
  8
ボルト／ビス
  6
CONTINUOUS
 10
-55.605313
 20
-74.215045
 40
0.250185
  0
CIRCLE
  8
ボルト／ビス
  6
CONTINUOUS
 10
-55.605313
 20
-74.215045
 40
0.301025
  0
LINE
  8
ボルト／ビス
  6
CONTINUOUS
 62
    64
 10
-55.355548
 20
-74.200543
 11
-55.492993
 21
-73.991493
  0
LINE
  8
ボルト／ビス
  6
CONTINUOUS
 62
    64
 10
-55.742757
 20
-74.005995
 11
-55.492993
 21
-73.991493
  0
LINE
  8
ボルト／ビス
  6
CONTINUOUS
 62
    64
 10
-55.467868
 20
-74.424095
 11
-55.717633
 21
-74.438598
  0
LINE
  8
ボルト／ビス
  6
CONTINUOUS
 62
    64
 10
-55.855077
 20
-74.229547
 11
-55.717633
 21
-74.438598
  0
LINE
  8
ボルト／ビス
  6
CONTINUOUS
 62
    64
 10
-55.355548
 20
-74.200543
 11
-55.467868
 21
-74.424095
  0
LINE
  8
ボルト／ビス
  6
CONTINUOUS
 62
    64
 10
-55.742757
 20
-74.005995
 11
-55.855077
 21
-74.229547
  0
CIRCLE
  8
ボルト／ビス
  6
CONTINUOUS
 62
    64
 10
-55.605313
 20
-74.215045
 40
0.216668
  0
CIRCLE
  8
ボルト／ビス
  6
CONTINUOUS
 10
-65.52379
 20
-69.231688
 40
0.250185
  0
CIRCLE
  8
ボルト／ビス
  6
CONTINUOUS
 10
-65.52379
 20
-69.231688
 40
0.301025
  0
LINE
  8
ボルト／ビス
  6
CONTINUOUS
 62
    64
 10
-65.274025
 20
-69.217183
 11
-65.41147
 21
-69.008133
  0
LINE
  8
ボルト／ビス
  6
CONTINUOUS
 62
    64
 10
-65.661235
 20
-69.022635
 11
-65.41147
 21
-69.008133
  0
LINE
  8
ボルト／ビス
  6
CONTINUOUS
 62
    64
 10
-65.386345
 20
-69.440737
 11
-65.636113
 21
-69.455242
  0
LINE
  8
ボルト／ビス
  6
CONTINUOUS
 62
    64
 10
-65.773555
 20
-69.246192
 11
-65.636113
 21
-69.455242
  0
LINE
  8
ボルト／ビス
  6
CONTINUOUS
 62
    64
 10
-65.274025
 20
-69.217183
 11
-65.386345
 21
-69.440737
  0
LINE
  8
ボルト／ビス
  6
CONTINUOUS
 62
    64
 10
-65.661235
 20
-69.022635
 11
-65.773555
 21
-69.246192
  0
CIRCLE
  8
ボルト／ビス
  6
CONTINUOUS
 62
    64
 10
-65.52379
 20
-69.231688
 40
0.216668
  0
CIRCLE
  8
ボルト／ビス
  6
CONTINUOUS
 10
-75.442267
 20
-64.24833
 40
0.250185
  0
CIRCLE
  8
ボルト／ビス
  6
CONTINUOUS
 10
-75.442267
 20
-64.24833
 40
0.301025
  0
LINE
  8
ボルト／ビス
  6
CONTINUOUS
 62
    64
 10
-75.579712
 20
-64.03928
 11
-75.329947
 21
-64.024777
  0
LINE
  8
ボルト／ビス
  6
CONTINUOUS
 62
    64
 10
-75.192502
 20
-64.233828
 11
-75.329947
 21
-64.024777
  0
LINE
  8
ボルト／ビス
  6
CONTINUOUS
 62
    64
 10
-75.692033
 20
-64.262835
 11
-75.55459
 21
-64.471882
  0
LINE
  8
ボルト／ビス
  6
CONTINUOUS
 62
    64
 10
-75.304822
 20
-64.45738
 11
-75.55459
 21
-64.471882
  0
LINE
  8
ボルト／ビス
  6
CONTINUOUS
 62
    64
 10
-75.579712
 20
-64.03928
 11
-75.692033
 21
-64.262835
  0
LINE
  8
ボルト／ビス
  6
CONTINUOUS
 62
    64
 10
-75.192502
 20
-64.233828
 11
-75.304822
 21
-64.45738
  0
CIRCLE
  8
ボルト／ビス
  6
CONTINUOUS
 62
    64
 10
-75.442267
 20
-64.24833
 40
0.216668
  0
ENDBLK
  0
BLOCK
  2
*GRP_0021
 70
    65
 10
0.0
 20
0.0
  0
LINE
  8
補助線
  6
BYBLOCK
 62
    64
 10
34.48327
 20
-74.177632
 11
34.632195
 21
-74.252458
  0
LINE
  8
補助線
  6
BYBLOCK
 62
    64
 10
34.595145
 20
-74.14058
 11
34.52032
 21
-74.289508
  0
LINE
  8
補助線
  6
BYBLOCK
 62
    64
 10
24.56479
 20
-69.194275
 11
24.713717
 21
-69.2691
  0
LINE
  8
補助線
  6
BYBLOCK
 62
    64
 10
24.676668
 20
-69.157222
 11
24.601843
 21
-69.30615
  0
LINE
  8
補助線
  6
BYBLOCK
 62
    64
 10
14.79524
 20
-64.285743
 11
14.646313
 21
-64.210917
  0
LINE
  8
補助線
  6
BYBLOCK
 62
    64
 10
14.75819
 20
-64.173865
 11
14.683365
 21
-64.322793
  0
LINE
  8
型材断面
  6
CONTINUOUS
 10
35.22971
 20
-73.620068
 11
35.452012
 21
-74.29132
  0
LINE
  8
型材断面
  6
CONTINUOUS
 10
35.452012
 20
-74.29132
 11
35.15271
 21
-74.887025
  0
LINE
  8
型材断面
  6
CONTINUOUS
 10
35.15271
 20
-74.887025
 11
34.481458
 21
-75.109328
  0
LINE
  8
型材断面
  6
CONTINUOUS
 10
14.797053
 20
-63.35405
 11
14.125798
 21
-63.576353
  0
LINE
  8
型材断面
  6
CONTINUOUS
 10
14.125798
 20
-63.576353
 11
13.826495
 21
-64.172058
  0
LINE
  8
型材断面
  6
CONTINUOUS
 10
13.826495
 20
-64.172058
 11
14.0488
 21
-64.84331
  0
LINE
  8
型材断面
  6
CONTINUOUS
 10
35.22971
 20
-73.620068
 11
14.797053
 21
-63.35405
  0
LINE
  8
型材断面
  6
CONTINUOUS
 10
34.481458
 20
-75.109328
 11
14.0488
 21
-64.84331
  0
CIRCLE
  8
ボルト／ビス
  6
CONTINUOUS
 10
34.557733
 20
-74.215045
 40
0.250185
  0
CIRCLE
  8
ボルト／ビス
  6
CONTINUOUS
 10
34.557733
 20
-74.215045
 40
0.301025
  0
LINE
  8
ボルト／ビス
  6
CONTINUOUS
 62
    64
 10
34.807497
 20
-74.200543
 11
34.670053
 21
-73.991493
  0
LINE
  8
ボルト／ビス
  6
CONTINUOUS
 62
    64
 10
34.420288
 20
-74.005995
 11
34.670053
 21
-73.991493
  0
LINE
  8
ボルト／ビス
  6
CONTINUOUS
 62
    64
 10
34.695177
 20
-74.424095
 11
34.445413
 21
-74.438598
  0
LINE
  8
ボルト／ビス
  6
CONTINUOUS
 62
    64
 10
34.307968
 20
-74.229547
 11
34.445413
 21
-74.438598
  0
LINE
  8
ボルト／ビス
  6
CONTINUOUS
 62
    64
 10
34.807497
 20
-74.200543
 11
34.695177
 21
-74.424095
  0
LINE
  8
ボルト／ビス
  6
CONTINUOUS
 62
    64
 10
34.420288
 20
-74.005995
 11
34.307968
 21
-74.229547
  0
CIRCLE
  8
ボルト／ビス
  6
CONTINUOUS
 62
    64
 10
34.557733
 20
-74.215045
 40
0.216668
  0
CIRCLE
  8
ボルト／ビス
  6
CONTINUOUS
 10
24.639255
 20
-69.231688
 40
0.250185
  0
CIRCLE
  8
ボルト／ビス
  6
CONTINUOUS
 10
24.639255
 20
-69.231688
 40
0.301025
  0
LINE
  8
ボルト／ビス
  6
CONTINUOUS
 62
    64
 10
24.88902
 20
-69.217183
 11
24.751575
 21
-69.008133
  0
LINE
  8
ボルト／ビス
  6
CONTINUOUS
 62
    64
 10
24.50181
 20
-69.022635
 11
24.751575
 21
-69.008133
  0
LINE
  8
ボルト／ビス
  6
CONTINUOUS
 62
    64
 10
24.7767
 20
-69.440737
 11
24.526932
 21
-69.455242
  0
LINE
  8
ボルト／ビス
  6
CONTINUOUS
 62
    64
 10
24.38949
 20
-69.246192
 11
24.526932
 21
-69.455242
  0
LINE
  8
ボルト／ビス
  6
CONTINUOUS
 62
    64
 10
24.88902
 20
-69.217183
 11
24.7767
 21
-69.440737
  0
LINE
  8
ボルト／ビス
  6
CONTINUOUS
 62
    64
 10
24.50181
 20
-69.022635
 11
24.38949
 21
-69.246192
  0
CIRCLE
  8
ボルト／ビス
  6
CONTINUOUS
 62
    64
 10
24.639255
 20
-69.231688
 40
0.216668
  0
CIRCLE
  8
ボルト／ビス
  6
CONTINUOUS
 10
14.720778
 20
-64.24833
 40
0.250185
  0
CIRCLE
  8
ボルト／ビス
  6
CONTINUOUS
 10
14.720778
 20
-64.24833
 40
0.301025
  0
LINE
  8
ボルト／ビス
  6
CONTINUOUS
 62
    64
 10
14.583332
 20
-64.03928
 11
14.833098
 21
-64.024777
  0
LINE
  8
ボルト／ビス
  6
CONTINUOUS
 62
    64
 10
14.970543
 20
-64.233828
 11
14.833098
 21
-64.024777
  0
LINE
  8
ボルト／ビス
  6
CONTINUOUS
 62
    64
 10
14.471012
 20
-64.262835
 11
14.608455
 21
-64.471882
  0
LINE
  8
ボルト／ビス
  6
CONTINUOUS
 62
    64
 10
14.858223
 20
-64.45738
 11
14.608455
 21
-64.471882
  0
LINE
  8
ボルト／ビス
  6
CONTINUOUS
 62
    64
 10
14.583332
 20
-64.03928
 11
14.471012
 21
-64.262835
  0
LINE
  8
ボルト／ビス
  6
CONTINUOUS
 62
    64
 10
14.970543
 20
-64.233828
 11
14.858223
 21
-64.45738
  0
CIRCLE
  8
ボルト／ビス
  6
CONTINUOUS
 62
    64
 10
14.720778
 20
-64.24833
 40
0.216668
  0
ENDBLK
  0
BLOCK
  2
*GRP_0022
 70
    65
 10
0.0
 20
0.0
  0
LINE
  8
補助線
  6
BYBLOCK
 62
    64
 10
14.79524
 20
-74.177632
 11
14.646315
 21
-74.252458
  0
LINE
  8
補助線
  6
BYBLOCK
 62
    64
 10
14.683365
 20
-74.14058
 11
14.75819
 21
-74.289508
  0
LINE
  8
補助線
  6
BYBLOCK
 62
    64
 10
24.71372
 20
-69.194275
 11
24.564792
 21
-69.2691
  0
LINE
  8
補助線
  6
BYBLOCK
 62
    64
 10
24.601843
 20
-69.157222
 11
24.676668
 21
-69.30615
  0
LINE
  8
補助線
  6
BYBLOCK
 62
    64
 10
34.48327
 20
-64.285743
 11
34.632198
 21
-64.210917
  0
LINE
  8
補助線
  6
BYBLOCK
 62
    64
 10
34.52032
 20
-64.173865
 11
34.595145
 21
-64.322793
  0
LINE
  8
型材断面
  6
CONTINUOUS
 10
14.0488
 20
-73.620068
 11
13.826498
 21
-74.29132
  0
LINE
  8
型材断面
  6
CONTINUOUS
 10
13.826498
 20
-74.29132
 11
14.1258
 21
-74.887025
  0
LINE
  8
型材断面
  6
CONTINUOUS
 10
14.1258
 20
-74.887025
 11
14.797053
 21
-75.109328
  0
LINE
  8
型材断面
  6
CONTINUOUS
 10
34.481458
 20
-63.35405
 11
35.152713
 21
-63.576353
  0
LINE
  8
型材断面
  6
CONTINUOUS
 10
35.152713
 20
-63.576353
 11
35.452015
 21
-64.172058
  0
LINE
  8
型材断面
  6
CONTINUOUS
 10
35.452015
 20
-64.172058
 11
35.22971
 21
-64.84331
  0
LINE
  8
型材断面
  6
CONTINUOUS
 10
14.0488
 20
-73.620068
 11
34.481458
 21
-63.35405
  0
LINE
  8
型材断面
  6
CONTINUOUS
 10
14.797053
 20
-75.109328
 11
35.22971
 21
-64.84331
  0
CIRCLE
  8
ボルト／ビス
  6
CONTINUOUS
 10
14.720778
 20
-74.215045
 40
0.250185
  0
CIRCLE
  8
ボルト／ビス
  6
CONTINUOUS
 10
14.720778
 20
-74.215045
 40
0.301025
  0
LINE
  8
ボルト／ビス
  6
CONTINUOUS
 62
    64
 10
14.471012
 20
-74.200543
 11
14.608458
 21
-73.991493
  0
LINE
  8
ボルト／ビス
  6
CONTINUOUS
 62
    64
 10
14.858223
 20
-74.005995
 11
14.608458
 21
-73.991493
  0
LINE
  8
ボルト／ビス
  6
CONTINUOUS
 62
    64
 10
14.583332
 20
-74.424095
 11
14.833098
 21
-74.438598
  0
LINE
  8
ボルト／ビス
  6
CONTINUOUS
 62
    64
 10
14.970543
 20
-74.229547
 11
14.833098
 21
-74.438598
  0
LINE
  8
ボルト／ビス
  6
CONTINUOUS
 62
    64
 10
14.471012
 20
-74.200543
 11
14.583332
 21
-74.424095
  0
LINE
  8
ボルト／ビス
  6
CONTINUOUS
 62
    64
 10
14.858223
 20
-74.005995
 11
14.970543
 21
-74.229547
  0
CIRCLE
  8
ボルト／ビス
  6
CONTINUOUS
 62
    64
 10
14.720778
 20
-74.215045
 40
0.216668
  0
CIRCLE
  8
ボルト／ビス
  6
CONTINUOUS
 10
24.639255
 20
-69.231688
 40
0.250185
  0
CIRCLE
  8
ボルト／ビス
  6
CONTINUOUS
 10
24.639255
 20
-69.231688
 40
0.301025
  0
LINE
  8
ボルト／ビス
  6
CONTINUOUS
 62
    64
 10
24.38949
 20
-69.217183
 11
24.526935
 21
-69.008133
  0
LINE
  8
ボルト／ビス
  6
CONTINUOUS
 62
    64
 10
24.7767
 20
-69.022635
 11
24.526935
 21
-69.008133
  0
LINE
  8
ボルト／ビス
  6
CONTINUOUS
 62
    64
 10
24.50181
 20
-69.440737
 11
24.751577
 21
-69.455242
  0
LINE
  8
ボルト／ビス
  6
CONTINUOUS
 62
    64
 10
24.88902
 20
-69.246192
 11
24.751577
 21
-69.455242
  0
LINE
  8
ボルト／ビス
  6
CONTINUOUS
 62
    64
 10
24.38949
 20
-69.217183
 11
24.50181
 21
-69.440737
  0
LINE
  8
ボルト／ビス
  6
CONTINUOUS
 62
    64
 10
24.7767
 20
-69.022635
 11
24.88902
 21
-69.246192
  0
CIRCLE
  8
ボルト／ビス
  6
CONTINUOUS
 62
    64
 10
24.639255
 20
-69.231688
 40
0.216668
  0
CIRCLE
  8
ボルト／ビス
  6
CONTINUOUS
 10
34.557733
 20
-64.24833
 40
0.250185
  0
CIRCLE
  8
ボルト／ビス
  6
CONTINUOUS
 10
34.557733
 20
-64.24833
 40
0.301025
  0
LINE
  8
ボルト／ビス
  6
CONTINUOUS
 62
    64
 10
34.695177
 20
-64.03928
 11
34.445413
 21
-64.024777
  0
LINE
  8
ボルト／ビス
  6
CONTINUOUS
 62
    64
 10
34.307968
 20
-64.233828
 11
34.445413
 21
-64.024777
  0
LINE
  8
ボルト／ビス
  6
CONTINUOUS
 62
    64
 10
34.807497
 20
-64.262835
 11
34.670055
 21
-64.471882
  0
LINE
  8
ボルト／ビス
  6
CONTINUOUS
 62
    64
 10
34.420288
 20
-64.45738
 11
34.670055
 21
-64.471882
  0
LINE
  8
ボルト／ビス
  6
CONTINUOUS
 62
    64
 10
34.695177
 20
-64.03928
 11
34.807497
 21
-64.262835
  0
LINE
  8
ボルト／ビス
  6
CONTINUOUS
 62
    64
 10
34.307968
 20
-64.233828
 11
34.420288
 21
-64.45738
  0
CIRCLE
  8
ボルト／ビス
  6
CONTINUOUS
 62
    64
 10
34.557733
 20
-64.24833
 40
0.216668
  0
ENDBLK
  0
BLOCK
  2
*DIM_0023
 70
    65
 10
0.0
 20
0.0
  0
LINE
  8
寸法
  6
CONTINUOUS
 10
59.459637
 20
-68.638328
 11
59.459637
 21
-76.288378
  0
POINT
  8
寸法
 10
59.459637
 20
-68.638328
  0
POINT
  8
寸法
 10
59.459637
 20
-76.288378
  0
TEXT
  7
TextStyle03
  8
寸法
  6
CONTINUOUS
 10
63.45
 20
-76.725
  1
229.5
 40
3.0
 50
90.0
 72
     5
 11
63.45
 21
-68.475
  0
ENDBLK
  0
BLOCK
  2
*DIM_0024
 70
    65
 10
0.0
 20
0.0
  0
LINE
  8
寸法
  6
CONTINUOUS
 10
141.310947
 20
-55.78756
 11
109.017615
 21
-55.78756
  0
POINT
  8
寸法
 10
141.310947
 20
-55.78756
  0
POINT
  8
寸法
 10
109.017615
 20
-55.78756
  0
TEXT
  7
TextStyle03
  8
寸法
  6
CONTINUOUS
 10
121.025
 20
-55.45
  1
968.8
 40
3.0
 72
     5
 11
129.275
 21
-55.45
  0
ENDBLK
  0
BLOCK
  2
*DIM_0025
 70
    65
 10
0.0
 20
0.0
  0
LINE
  8
寸法
  6
BYBLOCK
 62
     0
 10
59.459637
 20
-68.638328
 11
59.459637
 21
-61.304995
  0
POINT
  8
寸法
 62
     0
 10
59.459637
 20
-68.638328
  0
POINT
  8
寸法
 62
     0
 10
59.459637
 20
-61.304995
  0
TEXT
  7
TextStyle03
  8
寸法
  6
CONTINUOUS
 62
     0
 10
59.25
 20
-59.31875
  1
上昇199以上
 40
3.0
 50
90.0
 72
     5
 11
59.25
 21
-41.13125
  0
ENDBLK
  0
ENDSEC
  0
SECTION
  2
ENTITIES
  0
POLYLINE
  8
通り芯
  6
CONTINUOUS
 66
     1
 70
     1
  0
VERTEX
  8
通り芯
 10
-210.0
 20
-148.5
  0
VERTEX
  8
通り芯
 10
210.0
 20
-148.5
  0
VERTEX
  8
通り芯
 10
210.0
 20
148.5
  0
VERTEX
  8
通り芯
 10
-210.0
 20
148.5
  0
SEQEND
  0
INSERT
  2
*GRP_0001
  8
型材断面
  6
CONTINUOUS
 10
0.0
 20
0.0
  0
LINE
  8
型材断面
  6
DASHDOT
 10
46.224393
 20
-77.836442
 11
46.224393
 21
42.814033
  0
LINE
  8
型材断面
  6
DASHDOT
 10
-20.442275
 20
-77.836442
 11
-20.442275
 21
42.814033
  0
LINE
  8
型材断面
  6
DASHDOT
 10
-87.10894
 20
-77.836442
 11
-87.10894
 21
42.814033
  0
POLYLINE
  8
型材断面
  6
CONTINUOUS
 66
     1
 70
     1
  0
VERTEX
  8
型材断面
 10
-10.770633
 20
13.03811
  0
VERTEX
  8
型材断面
 10
-29.542562
 20
13.03811
  0
VERTEX
  8
型材断面
 10
-29.542562
 20
8.301267
  0
VERTEX
  8
型材断面
 10
-10.770633
 20
8.301267
  0
SEQEND
  0
POLYLINE
  8
型材断面
  6
CONTINUOUS
 66
     1
 70
     1
  0
VERTEX
  8
型材断面
 10
-10.770633
 20
52.589955
  0
VERTEX
  8
型材断面
 10
-29.542562
 20
52.589955
  0
VERTEX
  8
型材断面
 10
-29.542562
 20
57.326798
  0
VERTEX
  8
型材断面
 10
-10.770633
 20
57.326798
  0
SEQEND
  0
LINE
  8
型材断面
  6
DASHDOT
 10
143.901155
 20
22.814033
 11
-87.10894
 21
22.814033
  0
LINE
  8
型材断面
  6
DASHDOT
 10
143.901155
 20
32.814033
 11
-87.10894
 21
32.814033
  0
LINE
  8
型材断面
  6
DASHDOT
 10
143.901155
 20
42.814033
 11
-87.10894
 21
42.814033
  0
LINE
  8
型材断面
  6
DASHDOT
 10
-20.442275
 20
22.814033
 11
-20.442275
 21
42.814033
  0
LINE
  8
型材断面
  6
CONTINUOUS
 10
-70.442273
 20
45.444162
 11
-71.937903
 21
48.03467
  0
LINE
  8
型材断面
  6
CONTINUOUS
 10
-70.442273
 20
45.444162
 11
-68.946642
 21
48.03467
  0
LINE
  8
型材断面
  6
CONTINUOUS
 10
-68.946642
 20
48.03467
 11
-71.937903
 21
48.03467
  0
LINE
  8
型材断面
  6
CONTINUOUS
 10
-127.961147
 20
80.791505
 11
-127.365092
 21
78.200998
  0
LINE
  8
型材断面
  6
CONTINUOUS
 10
-127.961147
 20
80.791505
 11
-128.557205
 21
78.200998
  0
LINE
  8
型材断面
  6
CONTINUOUS
 10
-128.557205
 20
78.200998
 11
-127.365092
 21
78.200998
  0
LINE
  8
型材断面
  6
CONTINUOUS
 10
-133.983735
 20
74.922105
 11
-87.741957
 21
74.922105
  0
LINE
  8
型材断面
  6
CONTINUOUS
 10
-127.961147
 20
87.32138
 11
-129.456778
 21
84.730873
  0
LINE
  8
型材断面
  6
CONTINUOUS
 10
-127.961147
 20
87.32138
 11
-126.465517
 21
84.730873
  0
LINE
  8
型材断面
  6
CONTINUOUS
 10
-126.465517
 20
84.730873
 11
-129.456778
 21
84.730873
  0
LINE
  8
型材断面
  6
CONTINUOUS
 10
-133.983735
 20
83.792277
 11
-87.741957
 21
83.792277
  0
LINE
  8
型材断面
  6
CONTINUOUS
 10
-133.983735
 20
69.134073
 11
-87.741957
 21
69.134073
  0
LINE
  8
型材断面
  6
CONTINUOUS
 10
-89.73907
 20
32.814033
 11
-92.329577
 21
34.309663
  0
LINE
  8
型材断面
  6
CONTINUOUS
 10
-89.73907
 20
32.814033
 11
-92.329577
 21
31.318403
  0
LINE
  8
型材断面
  6
CONTINUOUS
 10
-92.329577
 20
31.318403
 11
-92.329577
 21
34.309663
  0
LINE
  8
型材断面
  6
CONTINUOUS
 10
-70.442273
 20
20.183902
 11
-71.937903
 21
17.593395
  0
LINE
  8
型材断面
  6
CONTINUOUS
 10
-70.442273
 20
20.183902
 11
-68.946642
 21
17.593395
  0
LINE
  8
型材断面
  6
CONTINUOUS
 10
-68.946642
 20
17.593395
 11
-71.937903
 21
17.593395
  0
LINE
  8
型材断面
  6
CONTINUOUS
 10
29.557723
 20
45.444162
 11
31.053353
 21
48.03467
  0
LINE
  8
型材断面
  6
CONTINUOUS
 10
29.557723
 20
45.444162
 11
28.062092
 21
48.03467
  0
LINE
  8
型材断面
  6
CONTINUOUS
 10
28.062092
 20
48.03467
 11
31.053353
 21
48.03467
  0
LINE
  8
型材断面
  6
CONTINUOUS
 10
48.85452
 20
32.814033
 11
51.445027
 21
34.309663
  0
LINE
  8
型材断面
  6
CONTINUOUS
 10
48.85452
 20
32.814033
 11
51.445027
 21
31.318403
  0
LINE
  8
型材断面
  6
CONTINUOUS
 10
51.445027
 20
31.318403
 11
51.445027
 21
34.309663
  0
LINE
  8
型材断面
  6
CONTINUOUS
 10
29.557723
 20
20.183902
 11
31.053353
 21
17.593395
  0
LINE
  8
型材断面
  6
CONTINUOUS
 10
29.557723
 20
20.183902
 11
28.062092
 21
17.593395
  0
LINE
  8
型材断面
  6
CONTINUOUS
 10
28.062092
 20
17.593395
 11
31.053353
 21
17.593395
  0
LINE
  8
型材断面
  6
CONTINUOUS
 10
48.854522
 20
39.114035
 11
51.445032
 21
38.517982
  0
LINE
  8
型材断面
  6
CONTINUOUS
 10
48.854522
 20
39.114035
 11
51.44503
 21
39.710095
  0
LINE
  8
型材断面
  6
CONTINUOUS
 10
51.44503
 20
39.710095
 11
51.445032
 21
38.517982
  0
LINE
  8
型材断面
  6
CONTINUOUS
 10
48.854522
 20
26.51403
 11
51.445032
 21
27.110082
  0
LINE
  8
型材断面
  6
CONTINUOUS
 10
48.854522
 20
26.51403
 11
51.44503
 21
25.91797
  0
LINE
  8
型材断面
  6
CONTINUOUS
 10
51.44503
 20
25.91797
 11
51.445032
 21
27.110082
  0
LINE
  8
型材断面
  6
CONTINUOUS
 10
-89.739073
 20
39.114035
 11
-92.329583
 21
38.517982
  0
LINE
  8
型材断面
  6
CONTINUOUS
 10
-89.739073
 20
39.114035
 11
-92.32958
 21
39.710095
  0
LINE
  8
型材断面
  6
CONTINUOUS
 10
-92.32958
 20
39.710095
 11
-92.329583
 21
38.517982
  0
LINE
  8
型材断面
  6
CONTINUOUS
 10
-89.739073
 20
26.51403
 11
-92.329583
 21
27.110082
  0
LINE
  8
型材断面
  6
CONTINUOUS
 10
-89.739073
 20
26.51403
 11
-92.32958
 21
25.91797
  0
LINE
  8
型材断面
  6
CONTINUOUS
 10
-92.32958
 20
25.91797
 11
-92.329583
 21
27.110082
  0
LINE
  8
型材断面
  6
CONTINUOUS
 10
-89.092125
 20
20.830853
 11
-20.442275
 21
20.830853
  0
LINE
  8
型材断面
  6
CONTINUOUS
 10
48.207575
 20
20.830853
 11
-20.442275
 21
20.830853
  0
LINE
  8
型材断面
  6
CONTINUOUS
 10
48.207575
 20
44.797213
 11
-20.442275
 21
44.797213
  0
LINE
  8
型材断面
  6
CONTINUOUS
 10
-89.092125
 20
44.797213
 11
-20.442275
 21
44.797213
  0
LINE
  8
型材断面
  6
CONTINUOUS
 10
-133.983735
 20
63.34604
 11
-87.741957
 21
63.34604
  0
LINE
  8
型材断面
  6
CONTINUOUS
 10
134.738998
 20
44.370552
 11
134.738998
 21
32.814033
  0
LINE
  8
型材断面
  6
CONTINUOUS
 10
134.572333
 20
32.814033
 11
134.572333
 21
44.214033
  0
LINE
  8
型材断面
  6
CONTINUOUS
 10
136.238998
 20
32.814033
 11
136.238998
 21
44.214033
  0
ARC
  8
型材断面
  6
CONTINUOUS
 62
    47
 10
138.688996
 20
44.79737
 40
0.016668
 50
90.0
 51
180.000877
  0
ARC
  8
型材断面
  6
CONTINUOUS
 62
    47
 10
138.728998
 20
44.804035
 40
0.010002
 50
0.208374
 51
90.0
  0
LINE
  8
型材断面
  6
CONTINUOUS
 62
    47
 10
138.905715
 20
44.764033
 11
138.905715
 21
43.913885
  0
LINE
  8
型材断面
  6
CONTINUOUS
 10
138.905715
 20
32.814033
 11
138.905715
 21
44.797365
  0
LINE
  8
型材断面
  6
CONTINUOUS
 10
142.222382
 20
32.814033
 11
142.222382
 21
44.797365
  0
LINE
  8
型材断面
  6
CONTINUOUS
 10
142.722382
 20
32.814033
 11
142.722382
 21
44.297365
  0
LINE
  8
型材断面
  6
CONTINUOUS
 62
    47
 10
138.672328
 20
44.79737
 11
136.565668
 21
44.79737
  0
LINE
  8
型材断面
  6
CONTINUOUS
 10
136.565668
 20
32.814033
 11
136.565668
 21
44.79737
  0
LINE
  8
型材断面
  6
CONTINUOUS
 62
    47
 10
138.905715
 20
44.797365
 11
142.222382
 21
44.797365
  0
LINE
  8
型材断面
  6
CONTINUOUS
 62
    47
 10
142.722382
 20
44.297365
 11
142.222382
 21
44.297365
  0
LINE
  8
型材断面
  6
CONTINUOUS
 62
    47
 10
136.565668
 20
43.91403
 11
136.238998
 21
43.91403
  0
LINE
  8
型材断面
  6
CONTINUOUS
 10
134.738998
 20
21.257512
 11
134.738998
 21
32.814033
  0
LINE
  8
型材断面
  6
CONTINUOUS
 10
134.572333
 20
32.814033
 11
134.572333
 21
21.414035
  0
LINE
  8
型材断面
  6
CONTINUOUS
 10
136.238998
 20
32.814033
 11
136.238998
 21
21.414035
  0
ARC
  8
型材断面
  6
CONTINUOUS
 62
    47
 10
138.688996
 20
20.830697
 40
0.016668
 50
179.999123
 51
270.0
  0
ARC
  8
型材断面
  6
CONTINUOUS
 62
    47
 10
138.728998
 20
20.824031
 40
0.010002
 50
270.0
 51
359.791626
  0
LINE
  8
型材断面
  6
CONTINUOUS
 62
    47
 10
138.905715
 20
20.864035
 11
138.905715
 21
21.714183
  0
LINE
  8
型材断面
  6
CONTINUOUS
 10
138.905715
 20
32.814033
 11
138.905715
 21
20.830703
  0
LINE
  8
型材断面
  6
CONTINUOUS
 10
142.222382
 20
32.814033
 11
142.222382
 21
20.830703
  0
LINE
  8
型材断面
  6
CONTINUOUS
 10
142.722382
 20
32.814033
 11
142.722382
 21
21.330703
  0
LINE
  8
型材断面
  6
CONTINUOUS
 62
    47
 10
138.672328
 20
20.830697
 11
136.565668
 21
20.830697
  0
LINE
  8
型材断面
  6
CONTINUOUS
 10
136.565668
 20
32.814033
 11
136.565668
 21
20.830697
  0
LINE
  8
型材断面
  6
CONTINUOUS
 62
    47
 10
138.905715
 20
20.830703
 11
142.222382
 21
20.830703
  0
LINE
  8
型材断面
  6
CONTINUOUS
 62
    47
 10
142.722382
 20
21.330703
 11
142.222382
 21
21.330703
  0
LINE
  8
型材断面
  6
CONTINUOUS
 62
    47
 10
136.565668
 20
21.714038
 11
136.238998
 21
21.714038
  0
LINE
  8
型材断面
  6
CONTINUOUS
 10
138.738998
 20
32.814033
 11
138.738998
 21
44.804035
  0
LINE
  8
型材断面
  6
CONTINUOUS
 62
    47
 10
138.688992
 20
44.814033
 11
138.728652
 21
44.814033
  0
LINE
  8
型材断面
  6
CONTINUOUS
 62
    47
 10
138.688992
 20
20.814035
 11
138.728652
 21
20.814035
  0
LINE
  8
型材断面
  6
CONTINUOUS
 10
138.738998
 20
32.814033
 11
138.738998
 21
20.824033
  0
ARC
  8
型材断面
  6
CONTINUOUS
 62
    47
 10
-89.092278
 20
-72.754989
 40
0.016668
 50
89.999123
 51
180.0
  0
ARC
  8
型材断面
  6
CONTINUOUS
 62
    47
 10
-89.098944
 20
-72.794991
 40
0.010002
 50
180.0
 51
269.791626
  0
LINE
  8
型材断面
  6
CONTINUOUS
 62
    47
 10
-89.05894
 20
-72.97171
 11
-88.208792
 21
-72.97171
  0
LINE
  8
型材断面
  6
CONTINUOUS
 62
    47
 10
-89.092277
 20
-72.738322
 11
-89.092277
 21
-70.631663
  0
LINE
  8
型材断面
  6
CONTINUOUS
 62
    47
 10
-89.092273
 20
-72.97171
 11
-89.092273
 21
-76.288378
  0
LINE
  8
型材断面
  6
CONTINUOUS
 62
    47
 10
-88.592273
 20
-76.788378
 11
-88.592273
 21
-76.288378
  0
LINE
  8
型材断面
  6
CONTINUOUS
 62
    47
 10
-88.208937
 20
-70.631663
 11
-88.208937
 21
-70.304993
  0
LINE
  8
型材断面
  6
CONTINUOUS
 62
    47
 10
-89.10894
 20
-72.754987
 11
-89.10894
 21
-72.794647
  0
ARC
  8
型材断面
  6
CONTINUOUS
 62
    47
 10
48.207728
 20
-72.754989
 40
0.016668
 50
0.0
 51
90.000877
  0
ARC
  8
型材断面
  6
CONTINUOUS
 62
    47
 10
48.214394
 20
-72.794991
 40
0.010002
 50
270.208374
 51
360.0
  0
LINE
  8
型材断面
  6
CONTINUOUS
 62
    47
 10
48.17439
 20
-72.97171
 11
47.324245
 21
-72.97171
  0
LINE
  8
型材断面
  6
CONTINUOUS
 62
    47
 10
48.20773
 20
-72.738322
 11
48.20773
 21
-70.631663
  0
LINE
  8
型材断面
  6
CONTINUOUS
 62
    47
 10
48.207725
 20
-72.97171
 11
48.207725
 21
-76.288378
  0
LINE
  8
型材断面
  6
CONTINUOUS
 62
    47
 10
47.707725
 20
-76.788378
 11
47.707725
 21
-76.288378
  0
LINE
  8
型材断面
  6
CONTINUOUS
 62
    47
 10
47.32439
 20
-70.631663
 11
47.32439
 21
-70.304993
  0
LINE
  8
型材断面
  6
CONTINUOUS
 62
    47
 10
48.22439
 20
-72.754987
 11
48.22439
 21
-72.794647
  0
LINE
  8
型材断面
  6
CONTINUOUS
 10
-88.50894
 20
-70.304993
 11
-20.442275
 21
-70.304993
  0
LINE
  8
型材断面
  6
CONTINUOUS
 10
-88.50894
 20
-68.638328
 11
-20.442275
 21
-68.638328
  0
LINE
  8
型材断面
  6
CONTINUOUS
 10
-88.66546
 20
-68.804993
 11
-20.442275
 21
-68.804993
  0
LINE
  8
型材断面
  6
CONTINUOUS
 10
-89.092277
 20
-70.631663
 11
-20.442275
 21
-70.631663
  0
LINE
  8
型材断面
  6
CONTINUOUS
 10
-89.098942
 20
-72.804993
 11
-20.442275
 21
-72.804993
  0
LINE
  8
型材断面
  6
CONTINUOUS
 10
-89.092273
 20
-72.97171
 11
-20.442275
 21
-72.97171
  0
LINE
  8
型材断面
  6
CONTINUOUS
 10
-88.592273
 20
-76.788378
 11
-20.442275
 21
-76.788378
  0
LINE
  8
型材断面
  6
CONTINUOUS
 10
-89.092273
 20
-76.288378
 11
-20.442275
 21
-76.288378
  0
LINE
  8
型材断面
  6
CONTINUOUS
 10
47.707725
 20
-76.788378
 11
-20.442275
 21
-76.788378
  0
LINE
  8
型材断面
  6
CONTINUOUS
 10
48.207725
 20
-76.288378
 11
-20.442275
 21
-76.288378
  0
LINE
  8
型材断面
  6
CONTINUOUS
 10
48.207725
 20
-72.97171
 11
-20.442275
 21
-72.97171
  0
LINE
  8
型材断面
  6
CONTINUOUS
 10
48.214395
 20
-72.804993
 11
-20.442275
 21
-72.804993
  0
LINE
  8
型材断面
  6
CONTINUOUS
 10
47.62439
 20
-70.304993
 11
-20.442275
 21
-70.304993
  0
LINE
  8
型材断面
  6
CONTINUOUS
 10
48.20773
 20
-70.631663
 11
-20.442275
 21
-70.631663
  0
LINE
  8
型材断面
  6
CONTINUOUS
 10
47.62439
 20
-68.638328
 11
-20.442275
 21
-68.638328
  0
LINE
  8
型材断面
  6
CONTINUOUS
 10
47.780912
 20
-68.804993
 11
-20.442275
 21
-68.804993
  0
INSERT
  2
*GRP_0019
  8
型材断面
  6
CONTINUOUS
 10
0.0
 20
0.0
  0
INSERT
  2
*GRP_0020
  8
型材断面
  6
CONTINUOUS
 10
0.0
 20
0.0
  0
INSERT
  2
*GRP_0021
  8
型材断面
  6
CONTINUOUS
 10
0.0
 20
0.0
  0
INSERT
  2
*GRP_0022
  8
型材断面
  6
CONTINUOUS
 10
0.0
 20
0.0
  0
ARC
  8
型材断面
  6
DOT
 62
    47
 10
-89.092278
 20
-65.421656
 40
0.016668
 50
89.999123
 51
180.0
  0
ARC
  8
型材断面
  6
DOT
 62
    47
 10
-89.098944
 20
-65.461658
 40
0.010002
 50
180.0
 51
269.791626
  0
LINE
  8
型材断面
  6
DOT
 62
    47
 10
-89.092277
 20
-65.40499
 11
-89.092277
 21
-63.29833
  0
LINE
  8
型材断面
  6
DOT
 62
    47
 10
-88.208937
 20
-63.29833
 11
-88.208937
 21
-62.97166
  0
LINE
  8
型材断面
  6
DOT
 62
    47
 10
-89.10894
 20
-65.421655
 11
-89.10894
 21
-65.461315
  0
ARC
  8
型材断面
  6
DOT
 62
    47
 10
48.207728
 20
-65.421656
 40
0.016668
 50
0.0
 51
90.000877
  0
ARC
  8
型材断面
  6
DOT
 62
    47
 10
48.214394
 20
-65.461658
 40
0.010002
 50
270.208374
 51
360.0
  0
LINE
  8
型材断面
  6
DOT
 62
    47
 10
48.20773
 20
-65.40499
 11
48.20773
 21
-63.29833
  0
LINE
  8
型材断面
  6
DOT
 62
    47
 10
47.32439
 20
-63.29833
 11
47.32439
 21
-62.97166
  0
LINE
  8
型材断面
  6
DOT
 62
    47
 10
48.22439
 20
-65.421655
 11
48.22439
 21
-65.461315
  0
LINE
  8
型材断面
  6
DOT
 10
-88.50894
 20
-61.304995
 11
-20.442275
 21
-61.304995
  0
LINE
  8
型材断面
  6
DOT
 10
-88.66546
 20
-61.47166
 11
-20.442275
 21
-61.47166
  0
LINE
  8
型材断面
  6
DOT
 10
-88.50894
 20
-62.97166
 11
-20.442275
 21
-62.97166
  0
LINE
  8
型材断面
  6
DOT
 10
-89.092277
 20
-63.29833
 11
-20.442275
 21
-63.29833
  0
LINE
  8
型材断面
  6
DOT
 10
-89.098942
 20
-65.47166
 11
-20.442275
 21
-65.47166
  0
LINE
  8
型材断面
  6
DOT
 10
48.214395
 20
-65.47166
 11
-20.442275
 21
-65.47166
  0
LINE
  8
型材断面
  6
DOT
 10
48.20773
 20
-63.29833
 11
-20.442275
 21
-63.29833
  0
LINE
  8
型材断面
  6
DOT
 10
47.62439
 20
-62.97166
 11
-20.442275
 21
-62.97166
  0
LINE
  8
型材断面
  6
DOT
 10
47.780912
 20
-61.47166
 11
-20.442275
 21
-61.47166
  0
LINE
  8
型材断面
  6
DOT
 10
47.62439
 20
-61.304995
 11
-20.442275
 21
-61.304995
  0
LINE
  8
型材断面
  6
DASHDOT
 10
-53.900605
 20
22.814033
 11
-53.900605
 21
42.814033
  0
LINE
  8
型材断面
  6
DASHDOT
 10
13.016055
 20
22.814033
 11
13.016055
 21
42.814033
  0
LINE
  8
型材断面
  6
CONTINUOUS
 10
-3.296443
 20
23.757512
 11
29.203557
 21
23.757512
  0
LINE
  8
型材断面
  6
CONTINUOUS
 10
-3.296443
 20
41.870552
 11
29.203557
 21
41.870552
  0
LINE
  8
型材断面
  6
CONTINUOUS
 10
-36.754773
 20
41.870552
 11
-4.129778
 21
41.870552
  0
LINE
  8
型材断面
  6
CONTINUOUS
 10
-36.754773
 20
23.757512
 11
-4.129778
 21
23.757512
  0
LINE
  8
型材断面
  6
CONTINUOUS
 10
-70.088108
 20
23.757512
 11
-37.588108
 21
23.757512
  0
LINE
  8
型材断面
  6
CONTINUOUS
 10
-70.088108
 20
41.870552
 11
-37.588108
 21
41.870552
  0
LINE
  8
型材断面
  6
CONTINUOUS
 10
14.266055
 20
41.03722
 11
14.266055
 21
24.590845
  0
LINE
  8
型材断面
  6
CONTINUOUS
 10
11.766055
 20
41.03722
 11
11.766055
 21
24.590845
  0
LINE
  8
型材断面
  6
CONTINUOUS
 10
-19.192275
 20
41.03722
 11
-19.192275
 21
24.590845
  0
LINE
  8
型材断面
  6
CONTINUOUS
 10
-21.692275
 20
41.03722
 11
-21.692275
 21
24.590845
  0
LINE
  8
型材断面
  6
CONTINUOUS
 10
-52.650605
 20
41.03722
 11
-52.650605
 21
24.590845
  0
LINE
  8
型材断面
  6
CONTINUOUS
 10
-55.150605
 20
41.03722
 11
-55.150605
 21
24.590845
  0
LINE
  8
型材断面
  6
CONTINUOUS
 10
48.207577
 20
32.814033
 11
48.207577
 21
20.830853
  0
LINE
  8
型材断面
  6
CONTINUOUS
 10
48.207577
 20
32.814033
 11
48.207577
 21
44.797213
  0
LINE
  8
型材断面
  6
CONTINUOUS
 10
45.280912
 20
32.397365
 11
47.780912
 21
32.397365
  0
LINE
  8
型材断面
  6
CONTINUOUS
 10
45.280912
 20
33.2307
 11
47.780912
 21
33.2307
  0
LINE
  8
型材断面
  6
CONTINUOUS
 10
47.545215
 20
21.25751
 11
47.780912
 21
21.493217
  0
LINE
  8
型材断面
  6
CONTINUOUS
 10
48.207577
 20
20.830853
 11
47.663065
 21
21.375365
  0
LINE
  8
型材断面
  6
CONTINUOUS
 10
45.280912
 20
23.993212
 11
47.780912
 21
21.493217
  0
LINE
  8
型材断面
  6
CONTINUOUS
 10
45.04521
 20
23.75751
 11
47.545212
 21
21.257512
  0
LINE
  8
型材断面
  6
CONTINUOUS
 10
45.280912
 20
32.397365
 11
45.280912
 21
23.993212
  0
LINE
  8
型材断面
  6
CONTINUOUS
 10
45.280912
 20
32.397365
 11
45.280912
 21
23.993212
  0
LINE
  8
型材断面
  6
CONTINUOUS
 10
45.280912
 20
23.993212
 11
45.045212
 21
23.757512
  0
LINE
  8
型材断面
  6
CONTINUOUS
 10
47.545215
 20
44.370555
 11
47.780912
 21
44.134848
  0
LINE
  8
型材断面
  6
CONTINUOUS
 10
48.207577
 20
44.797213
 11
47.663065
 21
44.2527
  0
LINE
  8
型材断面
  6
CONTINUOUS
 10
45.280912
 20
33.2307
 11
45.280912
 21
41.634852
  0
LINE
  8
型材断面
  6
CONTINUOUS
 10
45.045212
 20
41.870552
 11
45.280912
 21
41.634852
  0
LINE
  8
型材断面
  6
CONTINUOUS
 10
45.280912
 20
33.2307
 11
45.280912
 21
41.634852
  0
LINE
  8
型材断面
  6
CONTINUOUS
 10
47.780912
 20
21.493217
 11
47.780912
 21
44.134848
  0
LINE
  8
型材断面
  6
CONTINUOUS
 10
45.280912
 20
41.634852
 11
47.780912
 21
44.134848
  0
LINE
  8
型材断面
  6
CONTINUOUS
 10
47.780912
 20
21.493217
 11
47.780912
 21
44.134848
  0
LINE
  8
型材断面
  6
CONTINUOUS
 10
45.04521
 20
41.870555
 11
47.545212
 21
44.370552
  0
LINE
  8
型材断面
  6
CONTINUOUS
 10
30.036893
 20
41.870552
 11
45.045207
 21
41.870552
  0
LINE
  8
型材断面
  6
CONTINUOUS
 10
30.036893
 20
23.757512
 11
45.045207
 21
23.757512
  0
LINE
  8
型材断面
  6
CONTINUOUS
 10
-89.092127
 20
32.814033
 11
-89.092127
 21
20.830853
  0
LINE
  8
型材断面
  6
CONTINUOUS
 10
-89.092127
 20
32.814033
 11
-89.092127
 21
44.797213
  0
LINE
  8
型材断面
  6
CONTINUOUS
 10
-86.165463
 20
32.397365
 11
-88.665463
 21
32.397365
  0
LINE
  8
型材断面
  6
CONTINUOUS
 10
-86.165463
 20
33.2307
 11
-88.665463
 21
33.2307
  0
LINE
  8
型材断面
  6
CONTINUOUS
 10
-88.429765
 20
21.25751
 11
-88.665463
 21
21.493217
  0
LINE
  8
型材断面
  6
CONTINUOUS
 10
-89.092127
 20
20.830853
 11
-88.547615
 21
21.375365
  0
LINE
  8
型材断面
  6
CONTINUOUS
 10
-86.165463
 20
23.993212
 11
-88.665463
 21
21.493217
  0
LINE
  8
型材断面
  6
CONTINUOUS
 10
-85.92976
 20
23.75751
 11
-88.429763
 21
21.257512
  0
LINE
  8
型材断面
  6
CONTINUOUS
 10
-86.165463
 20
32.397365
 11
-86.165463
 21
23.993212
  0
LINE
  8
型材断面
  6
CONTINUOUS
 10
-86.165463
 20
32.397365
 11
-86.165463
 21
23.993212
  0
LINE
  8
型材断面
  6
CONTINUOUS
 10
-86.165463
 20
23.993212
 11
-85.929763
 21
23.757512
  0
LINE
  8
型材断面
  6
CONTINUOUS
 10
-88.429765
 20
44.370555
 11
-88.665463
 21
44.134848
  0
LINE
  8
型材断面
  6
CONTINUOUS
 10
-89.092127
 20
44.797213
 11
-88.547615
 21
44.2527
  0
LINE
  8
型材断面
  6
CONTINUOUS
 10
-86.165463
 20
33.2307
 11
-86.165463
 21
41.634852
  0
LINE
  8
型材断面
  6
CONTINUOUS
 10
-85.929763
 20
41.870552
 11
-86.165463
 21
41.634852
  0
LINE
  8
型材断面
  6
CONTINUOUS
 10
-86.165463
 20
33.2307
 11
-86.165463
 21
41.634852
  0
LINE
  8
型材断面
  6
CONTINUOUS
 10
-88.665463
 20
21.493217
 11
-88.665463
 21
44.134848
  0
LINE
  8
型材断面
  6
CONTINUOUS
 10
-86.165463
 20
41.634852
 11
-88.665463
 21
44.134848
  0
LINE
  8
型材断面
  6
CONTINUOUS
 10
-88.665463
 20
21.493217
 11
-88.665463
 21
44.134848
  0
LINE
  8
型材断面
  6
CONTINUOUS
 10
-85.92976
 20
41.870555
 11
-88.429763
 21
44.370552
  0
LINE
  8
型材断面
  6
CONTINUOUS
 10
-70.921443
 20
23.757512
 11
-85.929757
 21
23.757512
  0
LINE
  8
型材断面
  6
CONTINUOUS
 10
47.545212
 20
21.257512
 11
-88.429763
 21
21.257512
  0
LINE
  8
型材断面
  6
CONTINUOUS
 10
-70.921443
 20
41.870552
 11
-85.929757
 21
41.870552
  0
LINE
  8
型材断面
  6
CONTINUOUS
 10
47.545212
 20
44.370552
 11
-88.429763
 21
44.370552
  0
TEXT
  7
TextStyle03
  8
文字
  6
CONTINUOUS
 10
122.775
 20
-76.7
  1
網入り6.8t
 40
3.0
 72
     5
 11
139.4625
 21
-76.7
  0
TEXT
  7
TextStyle03
  8
文字
  6
CONTINUOUS
 10
-28.525
 20
9.325
  1
可動装置側
 40
3.0
 72
     5
 11
-12.025
 21
9.325
  0
TEXT
  7
TextStyle03
  8
文字
  6
CONTINUOUS
 10
-28.525
 20
53.3
  1
可動装置側
 40
3.0
 72
     5
 11
-12.025
 21
53.3
  0
TEXT
  7
TextStyle03
  8
文字
  6
CONTINUOUS
 10
129.45
 20
-81.375
  1
×４枚
 40
3.0
 72
     5
 11
139.2
 21
-81.375
  0
TEXT
  7
TextStyle03
  8
文字
  6
CONTINUOUS
 10
-125.15
 20
79.425
  1
はケーシング位置を示す
 40
3.0
 72
     5
 11
-88.4
 21
79.425
  0
TEXT
  7
TextStyle03
  8
文字
  6
CONTINUOUS
 10
-125.15
 20
76.05
  1
４ヶ所中1ヶ所に設定
 40
3.0
 72
     5
 11
-93.4625
 21
76.05
  0
TEXT
  7
TextStyle03
  8
文字
  6
CONTINUOUS
 10
-125.15
 20
84.95
  1
は排水穴位置を示す
 40
3.0
 72
     5
 11
-95.15
 21
84.95
  0
TEXT
  7
TextStyle03
  8
文字
  6
CONTINUOUS
 10
-108.175
 20
11.275
  1
アンカーピッチ
 40
3.0
 50
90.0
 72
     5
 11
-108.175
 21
34.525
  0
TEXT
  7
TextStyle03
  8
文字
  6
CONTINUOUS
 10
-79.025
 20
80.825
  1
アンカーピッチ
 40
3.0
 72
     5
 11
-55.775
 21
80.825
  0
TEXT
  7
TextStyle03
  8
文字
  6
CONTINUOUS
 10
-128.875
 20
70.075
  1
アンカー数量　１６ヶ所
 40
3.0
 72
     5
 11
-92.125
 21
70.075
  0
TEXT
  7
TextStyle03
  8
文字
  6
CONTINUOUS
 10
-128.925
 20
64.3
  1
アームユニット数　４ヶ所
 40
3.0
 72
     5
 11
-88.8
 21
64.3
  0
LINE
  8
文字
  6
CONTINUOUS
 10
134.572333
 20
56.049278
 11
134.572333
 21
45.499315
  0
LINE
  8
文字
  6
CONTINUOUS
 10
142.222382
 20
56.049278
 11
142.222382
 21
45.564398
  0
LINE
  8
文字
  6
CONTINUOUS
 10
59.459637
 20
-68.638328
 11
48.909675
 21
-68.638328
  0
LINE
  8
文字
  6
CONTINUOUS
 10
59.459637
 20
-76.288378
 11
48.974755
 21
-76.288378
  0
LINE
  8
文字
  6
CONTINUOUS
 10
59.459637
 20
-61.304995
 11
48.909675
 21
-61.304995
  0
LINE
  8
文字
  6
CONTINUOUS
 10
141.310947
 20
-62.1409
 11
141.310947
 21
-55.78756
  0
LINE
  8
文字
  6
CONTINUOUS
 10
109.017615
 20
-62.1409
 11
109.017615
 21
-55.78756
  0
TEXT
  7
TextStyle03
  8
文字
  6
CONTINUOUS
 10
61.925
 20
125.25
  1
シリーズ：ＴＦ２ＦＬ
 40
5.0
 72
     5
 11
117.55
 21
125.25
  0
TEXT
  7
TextStyle03
  8
文字
  6
CONTINUOUS
 10
61.925
 20
119.625
  1
　　　　　（上下可動）600×4000タイプ
 40
5.0
 72
     5
 11
165.3625
 21
119.625
  0
TEXT
  7
TextStyle03
  8
文字
  6
CONTINUOUS
 10
61.925
 20
114.0
  1
図面名　：外観姿図
 40
5.0
 72
     5
 11
111.925
 21
114.0
  0
TEXT
  7
TextStyle03
  8
文字
  6
CONTINUOUS
 10
61.925
 20
108.375
  1
　　　　　　
 40
5.0
 72
     5
 11
95.05
 21
108.375
  0
LINE
  8
文字
  6
CONTINUOUS
 10
30.036893
 20
23.757512
 11
30.036893
 21
21.257512
  0
LINE
  8
文字
  6
CONTINUOUS
 10
29.203557
 20
23.757512
 11
29.203557
 21
21.257512
  0
LINE
  8
文字
  6
CONTINUOUS
 10
-3.296443
 20
23.757512
 11
-3.296443
 21
21.257512
  0
LINE
  8
文字
  6
CONTINUOUS
 10
-4.129778
 20
23.757512
 11
-4.129778
 21
21.257512
  0
LINE
  8
文字
  6
CONTINUOUS
 10
-70.921443
 20
23.757512
 11
-70.921443
 21
21.257512
  0
LINE
  8
文字
  6
CONTINUOUS
 10
-70.088108
 20
23.757512
 11
-70.088108
 21
21.257512
  0
LINE
  8
文字
  6
CONTINUOUS
 10
-37.588108
 20
23.757512
 11
-37.588108
 21
21.257512
  0
LINE
  8
文字
  6
CONTINUOUS
 10
-36.754773
 20
23.757512
 11
-36.754773
 21
21.257512
  0
LINE
  8
文字
  6
CONTINUOUS
 10
30.036893
 20
41.870552
 11
30.036893
 21
44.370552
  0
LINE
  8
文字
  6
CONTINUOUS
 10
29.203557
 20
41.870552
 11
29.203557
 21
44.370552
  0
LINE
  8
文字
  6
CONTINUOUS
 10
-3.296443
 20
41.870552
 11
-3.296443
 21
44.370552
  0
LINE
  8
文字
  6
CONTINUOUS
 10
-4.129778
 20
41.870552
 11
-4.129778
 21
44.370552
  0
LINE
  8
文字
  6
CONTINUOUS
 10
-70.921443
 20
41.870552
 11
-70.921443
 21
44.370552
  0
LINE
  8
文字
  6
CONTINUOUS
 10
-70.088108
 20
41.870552
 11
-70.088108
 21
44.370552
  0
LINE
  8
文字
  6
CONTINUOUS
 10
-37.588108
 20
41.870552
 11
-37.588108
 21
44.370552
  0
LINE
  8
文字
  6
CONTINUOUS
 10
-36.754773
 20
41.870552
 11
-36.754773
 21
44.370552
  0
LINE
  8
文字
  6
CONTINUOUS
 10
14.266055
 20
41.03722
 11
11.766055
 21
41.03722
  0
LINE
  8
文字
  6
CONTINUOUS
 10
14.266055
 20
24.590845
 11
11.766055
 21
24.590845
  0
LINE
  8
文字
  6
CONTINUOUS
 10
-19.192275
 20
41.03722
 11
-21.692275
 21
41.03722
  0
LINE
  8
文字
  6
CONTINUOUS
 10
-19.192275
 20
24.590845
 11
-21.692275
 21
24.590845
  0
LINE
  8
文字
  6
CONTINUOUS
 10
-52.650605
 20
41.03722
 11
-55.150605
 21
41.03722
  0
LINE
  8
文字
  6
CONTINUOUS
 10
-52.650605
 20
24.590845
 11
-55.150605
 21
24.590845
  0
TEXT
  7
TextStyle03
  8
文字
  6
CONTINUOUS
 10
62.075
 20
104.525
  1
ＮＳコード：ＮＳＦＺＬ
 40
5.0
 72
     5
 11
123.325
 21
104.525
  0
INSERT
  2
*DIM_0002
  8
寸法
  6
CONTINUOUS
 10
0.0
 20
0.0
  0
INSERT
  2
*DIM_0003
  8
寸法
  6
CONTINUOUS
 10
0.0
 20
0.0
  0
INSERT
  2
*DIM_0004
  8
寸法
  6
CONTINUOUS
 10
0.0
 20
0.0
  0
INSERT
  2
*DIM_0005
  8
寸法
  6
CONTINUOUS
 10
0.0
 20
0.0
  0
INSERT
  2
*DIM_0006
  8
寸法
  6
CONTINUOUS
 10
0.0
 20
0.0
  0
INSERT
  2
*DIM_0007
  8
寸法
  6
CONTINUOUS
 10
0.0
 20
0.0
  0
INSERT
  2
*DIM_0008
  8
寸法
  6
CONTINUOUS
 10
0.0
 20
0.0
  0
INSERT
  2
*DIM_0009
  8
寸法
  6
CONTINUOUS
 10
0.0
 20
0.0
  0
INSERT
  2
*DIM_0010
  8
寸法
  6
CONTINUOUS
 10
0.0
 20
0.0
  0
INSERT
  2
*DIM_0011
  8
寸法
  6
CONTINUOUS
 10
0.0
 20
0.0
  0
INSERT
  2
*DIM_0012
  8
寸法
  6
CONTINUOUS
 10
0.0
 20
0.0
  0
INSERT
  2
*DIM_0013
  8
寸法
  6
CONTINUOUS
 10
0.0
 20
0.0
  0
INSERT
  2
*DIM_0014
  8
寸法
  6
CONTINUOUS
 10
0.0
 20
0.0
  0
INSERT
  2
*DIM_0015
  8
寸法
  6
CONTINUOUS
 10
0.0
 20
0.0
  0
INSERT
  2
*DIM_0016
  8
寸法
  6
CONTINUOUS
 10
0.0
 20
0.0
  0
INSERT
  2
*DIM_0017
  8
寸法
  6
CONTINUOUS
 10
0.0
 20
0.0
  0
INSERT
  2
*DIM_0018
  8
寸法
  6
CONTINUOUS
 10
0.0
 20
0.0
  0
INSERT
  2
*DIM_0023
  8
寸法
  6
CONTINUOUS
 10
0.0
 20
0.0
  0
INSERT
  2
*DIM_0024
  8
寸法
  6
CONTINUOUS
 10
0.0
 20
0.0
  0
INSERT
  2
*DIM_0025
  8
寸法
  6
CONTINUOUS
 10
0.0
 20
0.0
  0
LINE
  8
別途部材
  6
CONTINUOUS
 62
    47
 10
134.672333
 20
44.370552
 11
134.738998
 21
44.370552
  0
ARC
  8
別途部材
  6
CONTINUOUS
 62
    47
 10
134.672334
 20
44.270554
 40
0.1
 50
90.0
 51
180.0
  0
LINE
  8
別途部材
  6
CONTINUOUS
 62
    47
 10
134.572333
 20
44.270552
 11
134.572333
 21
41.903888
  0
LINE
  8
別途部材
  6
CONTINUOUS
 62
    47
 10
136.238998
 20
44.214033
 11
134.738998
 21
44.214033
  0
LINE
  8
別途部材
  6
CONTINUOUS
 62
    47
 10
134.672333
 20
21.257512
 11
134.738998
 21
21.257512
  0
ARC
  8
別途部材
  6
CONTINUOUS
 62
    47
 10
134.672334
 20
21.357512
 40
0.1
 50
180.0
 51
270.0
  0
LINE
  8
別途部材
  6
CONTINUOUS
 62
    47
 10
134.572333
 20
21.357512
 11
134.572333
 21
23.72418
  0
LINE
  8
別途部材
  6
CONTINUOUS
 62
    47
 10
136.238998
 20
21.414035
 11
134.738998
 21
21.414035
  0
LINE
  8
別途部材
  6
CONTINUOUS
 62
    47
 10
-88.66546
 20
-68.738328
 11
-88.66546
 21
-68.804993
  0
ARC
  8
別途部材
  6
CONTINUOUS
 62
    47
 10
-88.565462
 20
-68.738327
 40
0.1
 50
90.0
 51
180.0
  0
LINE
  8
別途部材
  6
CONTINUOUS
 62
    47
 10
-88.56546
 20
-68.638328
 11
-86.198795
 21
-68.638328
  0
LINE
  8
別途部材
  6
CONTINUOUS
 62
    47
 10
-88.50894
 20
-70.304993
 11
-88.50894
 21
-68.804993
  0
LINE
  8
別途部材
  6
CONTINUOUS
 62
    47
 10
47.780912
 20
-68.738328
 11
47.780912
 21
-68.804993
  0
ARC
  8
別途部材
  6
CONTINUOUS
 62
    47
 10
47.680913
 20
-68.738327
 40
0.1
 50
0.0
 51
90.0
  0
LINE
  8
別途部材
  6
CONTINUOUS
 62
    47
 10
47.680912
 20
-68.638328
 11
45.314245
 21
-68.638328
  0
LINE
  8
別途部材
  6
CONTINUOUS
 62
    47
 10
47.62439
 20
-70.304993
 11
47.62439
 21
-68.804993
  0
LINE
  8
別途部材
  6
DOT
 62
    47
 10
-88.66546
 20
-61.404995
 11
-88.66546
 21
-61.47166
  0
ARC
  8
別途部材
  6
DOT
 62
    47
 10
-88.565462
 20
-61.404993
 40
0.1
 50
90.0
 51
180.0
  0
LINE
  8
別途部材
  6
DOT
 62
    47
 10
-88.56546
 20
-61.304995
 11
-86.198795
 21
-61.304995
  0
LINE
  8
別途部材
  6
DOT
 62
    47
 10
-88.50894
 20
-62.97166
 11
-88.50894
 21
-61.47166
  0
LINE
  8
別途部材
  6
DOT
 62
    47
 10
47.780912
 20
-61.404995
 11
47.780912
 21
-61.47166
  0
ARC
  8
別途部材
  6
DOT
 62
    47
 10
47.680913
 20
-61.404993
 40
0.1
 50
0.0
 51
90.0
  0
LINE
  8
別途部材
  6
DOT
 62
    47
 10
47.680912
 20
-61.304995
 11
45.314245
 21
-61.304995
  0
LINE
  8
別途部材
  6
DOT
 62
    47
 10
47.62439
 20
-62.97166
 11
47.62439
 21
-61.47166
  0
LINE
  8
曲げ物
  6
CONTINUOUS
 10
141.310947
 20
-83.118728
 11
141.310947
 21
-63.785395
  0
LINE
  8
曲げ物
  6
CONTINUOUS
 10
30.950122
 20
34.739582
 11
27.25481
 21
31.04427
  0
LINE
  8
曲げ物
  6
CONTINUOUS
 10
30.246652
 20
33.203472
 11
28.790922
 21
31.747742
  0
LINE
  8
曲げ物
  6
CONTINUOUS
 10
29.414012
 20
34.036112
 11
27.958282
 21
32.580383
  0
LINE
  8
曲げ物
  6
CONTINUOUS
 10
-1.234188
 20
34.739582
 11
-4.9295
 21
31.04427
  0
LINE
  8
曲げ物
  6
CONTINUOUS
 10
-1.937658
 20
33.203472
 11
-3.393387
 21
31.747742
  0
LINE
  8
曲げ物
  6
CONTINUOUS
 10
-2.770298
 20
34.036112
 11
-4.226027
 21
32.580383
  0
LINE
  8
曲げ物
  6
CONTINUOUS
 10
-35.336132
 20
34.739582
 11
-39.031445
 21
31.04427
  0
LINE
  8
曲げ物
  6
CONTINUOUS
 10
-36.039603
 20
33.203472
 11
-37.495333
 21
31.747742
  0
LINE
  8
曲げ物
  6
CONTINUOUS
 10
-36.872242
 20
34.036112
 11
-38.327973
 21
32.580383
  0
LINE
  8
曲げ物
  6
CONTINUOUS
 10
-68.859188
 20
34.739582
 11
-72.5545
 21
31.04427
  0
LINE
  8
曲げ物
  6
CONTINUOUS
 10
-69.562658
 20
33.203472
 11
-71.018387
 21
31.747742
  0
LINE
  8
曲げ物
  6
CONTINUOUS
 10
-70.395298
 20
34.036112
 11
-71.851027
 21
32.580383
  0
LINE
  8
曲げ物
  6
CONTINUOUS
 10
109.017615
 20
-83.118728
 11
109.017615
 21
-63.785395
  0
LINE
  8
曲げ物
  6
CONTINUOUS
 10
141.310947
 20
-63.785395
 11
109.017615
 21
-63.785395
  0
LINE
  8
曲げ物
  6
CONTINUOUS
 10
141.310947
 20
-83.118728
 11
109.017615
 21
-83.118728
  0
ENDSEC
  0
EOF
