  0
SECTION
  2
HEADER
  9
$EXTMIN
 10
-210.0
 20
-148.5
  9
$EXTMAX
 10
210.0
 20
148.5
  9
$PDMODE
 70
    32
  9
$PDSIZE
 40
1.5
  9
$LTSCALE
 40
10.0
  0
ENDSEC
  0
SECTION
  2
TABLES
  0
TABLE
  2
LTYPE
 70
    15
  0
LTYPE
  2
CONTINUOUS
 70
    64
  3
実線
 72
    65
 73
     0
 40
0.0
  0
LTYPE
  2
DASHED
 70
    64
  3
破線A
 72
    65
 73
     2
 40
0.6
 49
0.4
 49
-0.2
  0
LTYPE
  2
DASHEDX2
 70
    64
  3
破線B
 72
    65
 73
     2
 40
1.3
 49
0.9
 49
-0.4
  0
LTYPE
  2
DASHDOT
 70
    64
  3
１点鎖線A
 72
    65
 73
     4
 40
0.5375
 49
0.375
 49
-0.05
 49
0.0625
 49
-0.05
  0
LTYPE
  2
DASHDOTX2
 70
    64
  3
１点鎖線B
 72
    65
 73
     4
 40
1.075
 49
0.75
 49
-0.1
 49
0.125
 49
-0.1
  0
LTYPE
  2
DIVIDE2
 70
    64
  3
２点鎖線A
 72
    65
 73
     6
 40
0.5125
 49
0.3
 49
-0.0375
 49
0.05
 49
-0.0375
 49
0.05
 49
-0.0375
  0
LTYPE
  2
DIVIDE
 70
    64
  3
２点鎖線B
 72
    65
 73
     6
 40
1.05
 49
0.55
 49
-0.1
 49
0.1
 49
-0.1
 49
0.1
 49
-0.1
  0
LTYPE
  2
DOT
 70
    64
  3
点線A
 72
    65
 73
     2
 40
0.1125
 49
0.0625
 49
-0.05
  0
LTYPE
  2
DOTX2
 70
    64
  3
点線B
 72
    65
 73
     2
 40
0.275
 49
0.15
 49
-0.125
  0
LTYPE
  2
CONTINUOUS
 70
    64
  3
実線
 72
    65
 73
     0
 40
0.0
  0
LTYPE
  2
CONTINUOUS
 70
    64
  3
実線
 72
    65
 73
     0
 40
0.0
  0
LTYPE
  2
CONTINUOUS
 70
    64
  3
実線
 72
    65
 73
     0
 40
0.0
  0
LTYPE
  2
CONTINUOUS
 70
    64
  3
実線
 72
    65
 73
     0
 40
0.0
  0
LTYPE
  2
CONTINUOUS
 70
    64
  3
実線
 72
    65
 73
     0
 40
0.0
  0
LTYPE
  2
CONTINUOUS
 70
    64
  3
実線
 72
    65
 73
     0
 40
0.0
  0
ENDTAB
  0
TABLE
  2
LAYER
 70
    34
  0
LAYER
  2
通り芯
 70
     0
 62
    15
  6
CONTINUOUS
  0
LAYER
  2
補助線
 70
     0
 62
    16
  6
DOT
  0
LAYER
  2
躯体
 70
     0
 62
    31
  6
CONTINUOUS
  0
LAYER
  2
型材
 70
     0
 62
    32
  6
CONTINUOUS
  0
LAYER
  2
型材断面
 70
     0
 62
    47
  6
CONTINUOUS
  0
LAYER
  2
ガラス
 70
     0
 62
    48
  6
CONTINUOUS
  0
LAYER
  2
ゴム等
 70
     0
 62
    63
  6
CONTINUOUS
  0
LAYER
  2
ボルト／ビス
 70
     0
 62
    64
  6
CONTINUOUS
  0
LAYER
  2
文字
 70
     0
 62
    79
  6
CONTINUOUS
  0
LAYER
  2
寸法
 70
     0
 62
    80
  6
CONTINUOUS
  0
LAYER
  2
ﾊｯﾁﾝｸﾞ
 70
     0
 62
    95
  6
CONTINUOUS
  0
LAYER
  2
別途部材
 70
     0
 62
    96
  6
CONTINUOUS
  0
LAYER
  2
曲げ物
 70
     0
 62
   111
  6
CONTINUOUS
  0
LAYER
  2
鉄骨等
 70
     0
 62
   112
  6
CONTINUOUS
  0
LAYER
  2
St
 70
     0
 62
   127
  6
CONTINUOUS
  0
LAYER
  2
その他部品等
 70
     0
 62
   128
  6
CONTINUOUS
  0
LAYER
  2
ｶﾞｽｹｯﾄ
 70
     0
 62
   143
  6
CONTINUOUS
  0
LAYER
  2
ｽｹｯﾁ
 70
     0
 62
    14
  6
CONTINUOUS
  0
LAYER
  2
0
 70
     0
 62
    17
  6
CONTINUOUS
  0
LAYER
  2
1
 70
     0
 62
    30
  6
CONTINUOUS
  0
LAYER
  2
4
 70
     0
 62
    33
  6
CONTINUOUS
  0
LAYER
  2
ﾚｲﾔ3
 70
     0
 62
    46
  6
CONTINUOUS
  0
LAYER
  2
外形線
 70
     0
 62
    49
  6
CONTINUOUS
  0
LAYER
  2
部品
 70
     0
 62
    14
  6
CONTINUOUS
  0
LAYER
  2
サッシ芯
 70
     0
 62
    17
  6
DASHDOTX2
  0
LAYER
  2
寸法線
 70
     0
 62
    62
  6
CONTINUOUS
  0
LAYER
  2
姿図外形線
 70
     0
 62
    65
  6
CONTINUOUS
  0
LAYER
  2
姿補助線
 70
     0
 62
    30
  6
CONTINUOUS
  0
LAYER
  2
透視線
 70
     0
 62
    78
  6
DOT
  0
LAYER
  2
用紙
 70
     0
 62
    81
  6
CONTINUOUS
  0
LAYER
  2
実線図枠
 70
     0
 62
    94
  6
CONTINUOUS
  0
LAYER
  2
補助図枠
 70
     0
 62
    97
  6
CONTINUOUS
  0
LAYER
  2
建具記号
 70
     0
 62
   110
  6
CONTINUOUS
  0
LAYER
  2
補助文字
 70
     0
 62
   113
  6
CONTINUOUS
  0
ENDTAB
  0
TABLE
  2
STYLE
 70
    10
  0
STYLE
  2
STANDARD
 70
     0
 40
1.0
 41
1.0
 42
1.0
 50
0.0
 71
     0
  3
TXT
  4
BIGFONT
  0
STYLE
  2
TATE
 70
     4
 40
1.0
 41
1.0
 42
1.0
 50
0.0
 71
     0
  3
TXT
  4
BIGFONT
  0
STYLE
  2
TextStyle03
 70
     0
 40
1.0
 41
1.0
 42
1.0
 50
0.0
 71
     0
  3
MONOTXT
  4
BIGFONT
  0
STYLE
  2
TextStyle04
 70
     0
 40
1.0
 41
1.0
 42
1.0
 50
0.0
 71
     0
  3
MONOTXT
  4
BIGFONT
  0
STYLE
  2
TextStyle05
 70
     0
 40
1.0
 41
1.0
 42
1.0
 50
0.0
 71
     0
  3
MONOTXT
  4
BIGFONT
  0
STYLE
  2
TextStyle06
 70
     0
 40
1.0
 41
1.0
 42
1.0
 50
0.0
 71
     0
  3
MONOTXT
  4
BIGFONT
  0
STYLE
  2
TextStyle07
 70
     0
 40
1.0
 41
1.0
 42
1.0
 50
0.0
 71
     0
  3
MONOTXT
  4
BIGFONT
  0
STYLE
  2
TextStyle08
 70
     0
 40
1.0
 41
1.0
 42
1.0
 50
0.0
 71
     0
  3
MONOTXT
  4
BIGFONT
  0
STYLE
  2
TextStyle09
 70
     0
 40
1.0
 41
1.0
 42
1.0
 50
0.0
 71
     0
  3
MONOTXT
  4
BIGFONT
  0
STYLE
  2
TextStyle10
 70
     0
 40
1.0
 41
1.0
 42
1.0
 50
0.0
 71
     0
  3
MONOTXT
  4
BIGFONT
  0
ENDTAB
  0
ENDSEC
  0
SECTION
  2
BLOCKS
  0
BLOCK
  2
*GRP_0001
 70
    65
 10
0.0
 20
0.0
  0
LINE
  8
型材断面
  6
CONTINUOUS
 10
195.0
 20
133.5
 11
195.0
 21
-133.5
  0
LINE
  8
型材断面
  6
CONTINUOUS
 10
195.0
 20
-133.5
 11
-185.0
 21
-133.5
  0
LINE
  8
型材断面
  6
CONTINUOUS
 10
-185.0
 20
-133.5
 11
-185.0
 21
133.5
  0
LINE
  8
型材断面
  6
CONTINUOUS
 10
195.0
 20
133.5
 11
-185.0
 21
133.5
  0
LINE
  8
型材断面
  6
CONTINUOUS
 10
145.0
 20
-133.5
 11
145.0
 21
-118.5
  0
LINE
  8
型材断面
  6
CONTINUOUS
 10
195.0
 20
-118.5
 11
145.0
 21
-118.5
  0
ENDBLK
  0
BLOCK
  2
*DIM_0002
 70
    65
 10
0.0
 20
0.0
  0
LINE
  8
寸法
  6
BYBLOCK
 62
     0
 10
142.310947
 20
-63.785395
 11
150.422478
 21
-63.785395
  0
LINE
  8
寸法
  6
BYBLOCK
 62
     0
 10
142.310947
 20
-83.118728
 11
150.422478
 21
-83.118728
  0
LINE
  8
寸法
  6
BYBLOCK
 62
     0
 10
150.422478
 20
-63.785395
 11
150.422478
 21
-83.118728
  0
POINT
  8
寸法
 62
     0
 10
150.422478
 20
-63.785395
  0
POINT
  8
寸法
 62
     0
 10
150.422478
 20
-83.118728
  0
TEXT
  7
TextStyle03
  8
寸法
  6
CONTINUOUS
 62
     0
 10
150.025
 20
-75.9125
  1
580
 40
3.0
 50
90.0
 72
     5
 11
150.025
 21
-71.0375
  0
ENDBLK
  0
BLOCK
  2
*DIM_0003
 70
    65
 10
0.0
 20
0.0
  0
LINE
  8
寸法
  6
BYBLOCK
 62
     0
 10
46.224393
 20
-13.121378
 11
-103.775608
 21
-13.121378
  0
POINT
  8
寸法
 62
     0
 10
46.224393
 20
-13.121378
  0
POINT
  8
寸法
 62
     0
 10
-103.775608
 20
-13.121378
  0
TEXT
  7
TextStyle03
  8
寸法
  6
CONTINUOUS
 62
     0
 10
-40.51875
 20
-12.75
  1
呼称寸法　4500
 40
3.0
 72
     5
 11
-17.08125
 21
-12.75
  0
ENDBLK
  0
BLOCK
  2
*DIM_0004
 70
    65
 10
0.0
 20
0.0
  0
LINE
  8
寸法
  6
BYBLOCK
 62
     0
 10
-87.10894
 20
19.183902
 11
-87.10894
 21
14.03092
  0
LINE
  8
寸法
  6
BYBLOCK
 62
     0
 10
-28.775608
 20
19.183905
 11
-28.775608
 21
14.03092
  0
LINE
  8
寸法
  6
BYBLOCK
 62
     0
 10
-87.10894
 20
14.03092
 11
-28.775608
 21
14.03092
  0
POINT
  8
寸法
 62
     0
 10
-87.10894
 20
14.03092
  0
POINT
  8
寸法
 62
     0
 10
-28.775608
 20
14.03092
  0
TEXT
  7
TextStyle03
  8
寸法
  6
CONTINUOUS
 62
     0
 10
-61.23125
 20
14.4
  1
1750
 40
3.0
 72
     5
 11
-54.66875
 21
14.4
  0
ENDBLK
  0
BLOCK
  2
*DIM_0005
 70
    65
 10
0.0
 20
0.0
  0
LINE
  8
寸法
  6
BYBLOCK
 62
     0
 10
29.557725
 20
19.183902
 11
29.557725
 21
14.03092
  0
LINE
  8
寸法
  6
BYBLOCK
 62
     0
 10
-28.775608
 20
14.03092
 11
29.557725
 21
14.03092
  0
POINT
  8
寸法
 62
     0
 10
29.557725
 20
14.03092
  0
TEXT
  7
TextStyle03
  8
寸法
  6
CONTINUOUS
 62
     0
 10
-2.90625
 20
14.4
  1
1750
 40
3.0
 72
     5
 11
3.65625
 21
14.4
  0
ENDBLK
  0
BLOCK
  2
*DIM_0006
 70
    65
 10
0.0
 20
0.0
  0
LINE
  8
寸法
  6
BYBLOCK
 62
     0
 10
47.224393
 20
42.814035
 11
56.948675
 21
42.814035
  0
LINE
  8
寸法
  6
BYBLOCK
 62
     0
 10
49.854522
 20
39.114035
 11
56.948675
 21
39.114035
  0
LINE
  8
寸法
  6
BYBLOCK
 62
     0
 10
56.948675
 20
42.814035
 11
56.948675
 21
39.114035
  0
POINT
  8
寸法
 62
     0
 10
56.948675
 20
42.814035
  0
POINT
  8
寸法
 62
     0
 10
56.948675
 20
39.114035
  0
TEXT
  7
TextStyle03
  8
寸法
  6
CONTINUOUS
 62
     0
 10
56.625
 20
43.8125
  1
111
 40
3.0
 50
90.0
 72
     5
 11
56.625
 21
48.6875
  0
ENDBLK
  0
BLOCK
  2
*DIM_0007
 70
    65
 10
0.0
 20
0.0
  0
LINE
  8
寸法
  6
BYBLOCK
 62
     0
 10
47.224393
 20
22.81403
 11
56.948675
 21
22.814027
  0
LINE
  8
寸法
  6
BYBLOCK
 62
     0
 10
49.854522
 20
26.51403
 11
56.948675
 21
26.514027
  0
LINE
  8
寸法
  6
BYBLOCK
 62
     0
 10
56.948675
 20
22.814027
 11
56.948675
 21
26.514027
  0
POINT
  8
寸法
 62
     0
 10
56.948675
 20
22.814027
  0
POINT
  8
寸法
 62
     0
 10
56.948675
 20
26.514027
  0
TEXT
  7
TextStyle03
  8
寸法
  6
CONTINUOUS
 62
     0
 10
56.95
 20
16.5625
  1
111
 40
3.0
 50
90.0
 72
     5
 11
56.95
 21
21.4375
  0
ENDBLK
  0
BLOCK
  2
*DIM_0008
 70
    65
 10
0.0
 20
0.0
  0
LINE
  8
寸法
  6
BYBLOCK
 62
     0
 10
80.244043
 20
22.814033
 11
80.244043
 21
42.814033
  0
POINT
  8
寸法
 62
     0
 10
80.244043
 20
22.814033
  0
POINT
  8
寸法
 62
     0
 10
80.244043
 20
42.814033
  0
TEXT
  7
TextStyle03
  8
寸法
  6
CONTINUOUS
 62
     0
 10
79.875
 20
21.925
  1
呼称寸法　600
 40
3.0
 50
90.0
 72
     5
 11
79.875
 21
43.675
  0
ENDBLK
  0
BLOCK
  2
*DIM_0009
 70
    65
 10
0.0
 20
0.0
  0
LINE
  8
寸法
  6
BYBLOCK
 62
     0
 10
134.134438
 20
44.79737
 11
80.244043
 21
44.79737
  0
LINE
  8
寸法
  6
BYBLOCK
 62
     0
 10
80.244043
 20
42.814033
 11
80.244043
 21
44.79737
  0
POINT
  8
寸法
 62
     0
 10
80.244043
 20
42.814033
  0
POINT
  8
寸法
 62
     0
 10
80.244043
 20
44.79737
  0
TEXT
  7
TextStyle03
  8
寸法
  6
CONTINUOUS
 62
     0
 10
79.85
 20
47.26875
  1
59.5
 40
3.0
 50
90.0
 72
     5
 11
79.85
 21
53.83125
  0
ENDBLK
  0
BLOCK
  2
*DIM_0010
 70
    65
 10
0.0
 20
0.0
  0
LINE
  8
寸法
  6
BYBLOCK
 62
     0
 10
134.134438
 20
20.830703
 11
80.244043
 21
20.830703
  0
LINE
  8
寸法
  6
BYBLOCK
 62
     0
 10
80.244043
 20
22.814033
 11
80.244043
 21
20.830703
  0
POINT
  8
寸法
 62
     0
 10
80.244043
 20
22.814033
  0
POINT
  8
寸法
 62
     0
 10
80.244043
 20
20.830703
  0
TEXT
  7
TextStyle03
  8
寸法
  6
CONTINUOUS
 62
     0
 10
79.85
 20
11.76875
  1
59.5
 40
3.0
 50
90.0
 72
     5
 11
79.85
 21
18.33125
  0
ENDBLK
  0
BLOCK
  2
*DIM_0011
 70
    65
 10
0.0
 20
0.0
  0
LINE
  8
寸法
  6
BYBLOCK
 62
     0
 10
48.207725
 20
-61.253063
 11
48.207725
 21
-13.121378
  0
LINE
  8
寸法
  6
BYBLOCK
 62
     0
 10
46.224393
 20
-13.121378
 11
48.207725
 21
-13.121378
  0
POINT
  8
寸法
 62
     0
 10
46.224393
 20
-13.121378
  0
POINT
  8
寸法
 62
     0
 10
48.207725
 20
-13.121378
  0
TEXT
  7
TextStyle03
  8
寸法
  6
CONTINUOUS
 62
     0
 10
50.66875
 20
-12.75
  1
59.5
 40
3.0
 72
     5
 11
57.23125
 21
-12.75
  0
ENDBLK
  0
BLOCK
  2
*DIM_0012
 70
    65
 10
0.0
 20
0.0
  0
LINE
  8
寸法
  6
BYBLOCK
 62
     0
 10
-105.75894
 20
-61.253063
 11
-105.75894
 21
-13.121378
  0
LINE
  8
寸法
  6
BYBLOCK
 62
     0
 10
-103.775608
 20
-13.121378
 11
-105.75894
 21
-13.121378
  0
POINT
  8
寸法
 62
     0
 10
-103.775608
 20
-13.121378
  0
POINT
  8
寸法
 62
     0
 10
-105.75894
 20
-13.121378
  0
TEXT
  7
TextStyle03
  8
寸法
  6
CONTINUOUS
 62
     0
 10
-114.80625
 20
-12.75
  1
59.5
 40
3.0
 72
     5
 11
-108.24375
 21
-12.75
  0
ENDBLK
  0
BLOCK
  2
*DIM_0013
 70
    65
 10
0.0
 20
0.0
  0
LINE
  8
寸法
  6
BYBLOCK
 62
     0
 10
-106.775608
 20
39.4807
 11
-120.068445
 21
39.4807
  0
LINE
  8
寸法
  6
BYBLOCK
 62
     0
 10
-106.775608
 20
26.147365
 11
-120.068445
 21
26.147365
  0
LINE
  8
寸法
  6
BYBLOCK
 62
     0
 10
-120.068445
 20
39.4807
 11
-120.068445
 21
26.147365
  0
POINT
  8
寸法
 62
     0
 10
-120.068445
 20
39.4807
  0
POINT
  8
寸法
 62
     0
 10
-120.068445
 20
26.147365
  0
TEXT
  7
TextStyle03
  8
寸法
  6
CONTINUOUS
 62
     0
 10
-120.475
 20
30.3625
  1
400
 40
3.0
 50
90.0
 72
     5
 11
-120.475
 21
35.2375
  0
ENDBLK
  0
BLOCK
  2
*DIM_0014
 70
    65
 10
0.0
 20
0.0
  0
LINE
  8
寸法
  6
BYBLOCK
 62
     0
 10
-95.442275
 20
45.814033
 11
-95.442275
 21
74.922105
  0
LINE
  8
寸法
  6
BYBLOCK
 62
     0
 10
-68.775608
 20
45.814033
 11
-68.775608
 21
74.922105
  0
LINE
  8
寸法
  6
BYBLOCK
 62
     0
 10
-95.442275
 20
74.922105
 11
-68.775608
 21
74.922105
  0
POINT
  8
寸法
 62
     0
 10
-95.442275
 20
74.922105
  0
POINT
  8
寸法
 62
     0
 10
-68.775608
 20
74.922105
  0
TEXT
  7
TextStyle03
  8
寸法
  6
CONTINUOUS
 62
     0
 10
-84.5875
 20
75.275
  1
800
 40
3.0
 72
     5
 11
-79.7125
 21
75.275
  0
ENDBLK
  0
BLOCK
  2
*DIM_0015
 70
    65
 10
0.0
 20
0.0
  0
LINE
  8
寸法
  6
BYBLOCK
 62
     0
 10
-42.10894
 20
45.814033
 11
-42.10894
 21
74.922105
  0
LINE
  8
寸法
  6
BYBLOCK
 62
     0
 10
-68.775608
 20
74.922105
 11
-42.10894
 21
74.922105
  0
POINT
  8
寸法
 62
     0
 10
-42.10894
 20
74.922105
  0
TEXT
  7
TextStyle03
  8
寸法
  6
CONTINUOUS
 62
     0
 10
-57.9125
 20
75.275
  1
800
 40
3.0
 72
     5
 11
-53.0375
 21
75.275
  0
ENDBLK
  0
BLOCK
  2
*DIM_0016
 70
    65
 10
0.0
 20
0.0
  0
LINE
  8
寸法
  6
BYBLOCK
 62
     0
 10
-15.442275
 20
45.814033
 11
-15.442275
 21
74.922105
  0
LINE
  8
寸法
  6
BYBLOCK
 62
     0
 10
-42.10894
 20
74.922105
 11
-15.442275
 21
74.922105
  0
POINT
  8
寸法
 62
     0
 10
-15.442275
 20
74.922105
  0
TEXT
  7
TextStyle03
  8
寸法
  6
CONTINUOUS
 62
     0
 10
-31.2375
 20
75.275
  1
800
 40
3.0
 72
     5
 11
-26.3625
 21
75.275
  0
ENDBLK
  0
BLOCK
  2
*DIM_0017
 70
    65
 10
0.0
 20
0.0
  0
LINE
  8
寸法
  6
BYBLOCK
 62
     0
 10
11.224393
 20
45.814033
 11
11.224393
 21
74.922105
  0
LINE
  8
寸法
  6
BYBLOCK
 62
     0
 10
-15.442275
 20
74.922105
 11
11.224393
 21
74.922105
  0
POINT
  8
寸法
 62
     0
 10
11.224393
 20
74.922105
  0
TEXT
  7
TextStyle03
  8
寸法
  6
CONTINUOUS
 62
     0
 10
-4.5875
 20
75.275
  1
800
 40
3.0
 72
     5
 11
0.2875
 21
75.275
  0
ENDBLK
  0
BLOCK
  2
*DIM_0018
 70
    65
 10
0.0
 20
0.0
  0
LINE
  8
寸法
  6
BYBLOCK
 62
     0
 10
37.89106
 20
45.814033
 11
37.89106
 21
74.922105
  0
LINE
  8
寸法
  6
BYBLOCK
 62
     0
 10
11.224393
 20
74.922105
 11
37.89106
 21
74.922105
  0
POINT
  8
寸法
 62
     0
 10
37.89106
 20
74.922105
  0
TEXT
  7
TextStyle03
  8
寸法
  6
CONTINUOUS
 62
     0
 10
22.0875
 20
75.275
  1
800
 40
3.0
 72
     5
 11
26.9625
 21
75.275
  0
ENDBLK
  0
BLOCK
  2
*GRP_0019
 70
    65
 10
0.0
 20
0.0
  0
LINE
  8
補助線
  6
BYBLOCK
 62
    64
 10
-83.70114
 20
-74.76168
 11
-83.850065
 21
-74.836505
  0
LINE
  8
補助線
  6
BYBLOCK
 62
    64
 10
-83.813015
 20
-74.724628
 11
-83.73819
 21
-74.873555
  0
LINE
  8
補助線
  6
BYBLOCK
 62
    64
 10
-73.78266
 20
-69.778323
 11
-73.931588
 21
-69.853147
  0
LINE
  8
補助線
  6
BYBLOCK
 62
    64
 10
-73.894538
 20
-69.74127
 11
-73.819712
 21
-69.890197
  0
LINE
  8
補助線
  6
BYBLOCK
 62
    64
 10
-64.01311
 20
-64.86979
 11
-63.864182
 21
-64.794965
  0
LINE
  8
補助線
  6
BYBLOCK
 62
    64
 10
-63.97606
 20
-64.757913
 11
-63.901235
 21
-64.90684
  0
LINE
  8
型材断面
  6
CONTINUOUS
 10
-84.44758
 20
-74.204115
 11
-84.669883
 21
-74.875367
  0
LINE
  8
型材断面
  6
CONTINUOUS
 10
-84.669883
 20
-74.875367
 11
-84.37058
 21
-75.471072
  0
LINE
  8
型材断面
  6
CONTINUOUS
 10
-84.37058
 20
-75.471072
 11
-83.699327
 21
-75.693375
  0
LINE
  8
型材断面
  6
CONTINUOUS
 10
-64.014923
 20
-63.938098
 11
-63.343667
 21
-64.1604
  0
LINE
  8
型材断面
  6
CONTINUOUS
 10
-63.343667
 20
-64.1604
 11
-63.044365
 21
-64.756105
  0
LINE
  8
型材断面
  6
CONTINUOUS
 10
-63.044365
 20
-64.756105
 11
-63.26667
 21
-65.427358
  0
LINE
  8
型材断面
  6
CONTINUOUS
 10
-84.44758
 20
-74.204115
 11
-64.014923
 21
-63.938098
  0
LINE
  8
型材断面
  6
CONTINUOUS
 10
-83.699327
 20
-75.693375
 11
-63.26667
 21
-65.427358
  0
CIRCLE
  8
ボルト／ビス
  6
CONTINUOUS
 10
-83.775602
 20
-74.799093
 40
0.250185
  0
CIRCLE
  8
ボルト／ビス
  6
CONTINUOUS
 10
-83.775602
 20
-74.799093
 40
0.301025
  0
LINE
  8
ボルト／ビス
  6
CONTINUOUS
 62
    64
 10
-84.025367
 20
-74.78459
 11
-83.887922
 21
-74.57554
  0
LINE
  8
ボルト／ビス
  6
CONTINUOUS
 62
    64
 10
-83.638158
 20
-74.590042
 11
-83.887922
 21
-74.57554
  0
LINE
  8
ボルト／ビス
  6
CONTINUOUS
 62
    64
 10
-83.913047
 20
-75.008143
 11
-83.663282
 21
-75.022645
  0
LINE
  8
ボルト／ビス
  6
CONTINUOUS
 62
    64
 10
-83.525838
 20
-74.813595
 11
-83.663282
 21
-75.022645
  0
LINE
  8
ボルト／ビス
  6
CONTINUOUS
 62
    64
 10
-84.025367
 20
-74.78459
 11
-83.913047
 21
-75.008143
  0
LINE
  8
ボルト／ビス
  6
CONTINUOUS
 62
    64
 10
-83.638158
 20
-74.590042
 11
-83.525838
 21
-74.813595
  0
CIRCLE
  8
ボルト／ビス
  6
CONTINUOUS
 62
    64
 10
-83.775602
 20
-74.799093
 40
0.216668
  0
CIRCLE
  8
ボルト／ビス
  6
CONTINUOUS
 10
-73.857125
 20
-69.815735
 40
0.250185
  0
CIRCLE
  8
ボルト／ビス
  6
CONTINUOUS
 10
-73.857125
 20
-69.815735
 40
0.301025
  0
LINE
  8
ボルト／ビス
  6
CONTINUOUS
 62
    64
 10
-74.10689
 20
-69.80123
 11
-73.969445
 21
-69.59218
  0
LINE
  8
ボルト／ビス
  6
CONTINUOUS
 62
    64
 10
-73.71968
 20
-69.606682
 11
-73.969445
 21
-69.59218
  0
LINE
  8
ボルト／ビス
  6
CONTINUOUS
 62
    64
 10
-73.99457
 20
-70.024785
 11
-73.744802
 21
-70.03929
  0
LINE
  8
ボルト／ビス
  6
CONTINUOUS
 62
    64
 10
-73.60736
 20
-69.83024
 11
-73.744802
 21
-70.03929
  0
LINE
  8
ボルト／ビス
  6
CONTINUOUS
 62
    64
 10
-74.10689
 20
-69.80123
 11
-73.99457
 21
-70.024785
  0
LINE
  8
ボルト／ビス
  6
CONTINUOUS
 62
    64
 10
-73.71968
 20
-69.606682
 11
-73.60736
 21
-69.83024
  0
CIRCLE
  8
ボルト／ビス
  6
CONTINUOUS
 62
    64
 10
-73.857125
 20
-69.815735
 40
0.216668
  0
CIRCLE
  8
ボルト／ビス
  6
CONTINUOUS
 10
-63.938648
 20
-64.832377
 40
0.250185
  0
CIRCLE
  8
ボルト／ビス
  6
CONTINUOUS
 10
-63.938648
 20
-64.832377
 40
0.301025
  0
LINE
  8
ボルト／ビス
  6
CONTINUOUS
 62
    64
 10
-63.801203
 20
-64.623327
 11
-64.050968
 21
-64.608825
  0
LINE
  8
ボルト／ビス
  6
CONTINUOUS
 62
    64
 10
-64.188412
 20
-64.817875
 11
-64.050968
 21
-64.608825
  0
LINE
  8
ボルト／ビス
  6
CONTINUOUS
 62
    64
 10
-63.688882
 20
-64.846882
 11
-63.826325
 21
-65.05593
  0
LINE
  8
ボルト／ビス
  6
CONTINUOUS
 62
    64
 10
-64.076092
 20
-65.041428
 11
-63.826325
 21
-65.05593
  0
LINE
  8
ボルト／ビス
  6
CONTINUOUS
 62
    64
 10
-63.801203
 20
-64.623327
 11
-63.688882
 21
-64.846882
  0
LINE
  8
ボルト／ビス
  6
CONTINUOUS
 62
    64
 10
-64.188412
 20
-64.817875
 11
-64.076092
 21
-65.041428
  0
CIRCLE
  8
ボルト／ビス
  6
CONTINUOUS
 62
    64
 10
-63.938648
 20
-64.832377
 40
0.216668
  0
ENDBLK
  0
BLOCK
  2
*GRP_0020
 70
    65
 10
0.0
 20
0.0
  0
LINE
  8
補助線
  6
BYBLOCK
 62
    64
 10
-64.01311
 20
-74.76168
 11
-63.864185
 21
-74.836505
  0
LINE
  8
補助線
  6
BYBLOCK
 62
    64
 10
-63.901235
 20
-74.724628
 11
-63.97606
 21
-74.873555
  0
LINE
  8
補助線
  6
BYBLOCK
 62
    64
 10
-73.93159
 20
-69.778323
 11
-73.782662
 21
-69.853147
  0
LINE
  8
補助線
  6
BYBLOCK
 62
    64
 10
-73.819712
 20
-69.74127
 11
-73.894538
 21
-69.890197
  0
LINE
  8
補助線
  6
BYBLOCK
 62
    64
 10
-83.70114
 20
-64.86979
 11
-83.850068
 21
-64.794965
  0
LINE
  8
補助線
  6
BYBLOCK
 62
    64
 10
-83.73819
 20
-64.757913
 11
-83.813015
 21
-64.90684
  0
LINE
  8
型材断面
  6
CONTINUOUS
 10
-63.26667
 20
-74.204115
 11
-63.044368
 21
-74.875367
  0
LINE
  8
型材断面
  6
CONTINUOUS
 10
-63.044368
 20
-74.875367
 11
-63.34367
 21
-75.471072
  0
LINE
  8
型材断面
  6
CONTINUOUS
 10
-63.34367
 20
-75.471072
 11
-64.014923
 21
-75.693375
  0
LINE
  8
型材断面
  6
CONTINUOUS
 10
-83.699327
 20
-63.938098
 11
-84.370582
 21
-64.1604
  0
LINE
  8
型材断面
  6
CONTINUOUS
 10
-84.370582
 20
-64.1604
 11
-84.669885
 21
-64.756105
  0
LINE
  8
型材断面
  6
CONTINUOUS
 10
-84.669885
 20
-64.756105
 11
-84.44758
 21
-65.427358
  0
LINE
  8
型材断面
  6
CONTINUOUS
 10
-63.26667
 20
-74.204115
 11
-83.699327
 21
-63.938098
  0
LINE
  8
型材断面
  6
CONTINUOUS
 10
-64.014923
 20
-75.693375
 11
-84.44758
 21
-65.427358
  0
CIRCLE
  8
ボルト／ビス
  6
CONTINUOUS
 10
-63.938648
 20
-74.799093
 40
0.250185
  0
CIRCLE
  8
ボルト／ビス
  6
CONTINUOUS
 10
-63.938648
 20
-74.799093
 40
0.301025
  0
LINE
  8
ボルト／ビス
  6
CONTINUOUS
 62
    64
 10
-63.688882
 20
-74.78459
 11
-63.826328
 21
-74.57554
  0
LINE
  8
ボルト／ビス
  6
CONTINUOUS
 62
    64
 10
-64.076092
 20
-74.590042
 11
-63.826328
 21
-74.57554
  0
LINE
  8
ボルト／ビス
  6
CONTINUOUS
 62
    64
 10
-63.801203
 20
-75.008143
 11
-64.050968
 21
-75.022645
  0
LINE
  8
ボルト／ビス
  6
CONTINUOUS
 62
    64
 10
-64.188412
 20
-74.813595
 11
-64.050968
 21
-75.022645
  0
LINE
  8
ボルト／ビス
  6
CONTINUOUS
 62
    64
 10
-63.688882
 20
-74.78459
 11
-63.801203
 21
-75.008143
  0
LINE
  8
ボルト／ビス
  6
CONTINUOUS
 62
    64
 10
-64.076092
 20
-74.590042
 11
-64.188412
 21
-74.813595
  0
CIRCLE
  8
ボルト／ビス
  6
CONTINUOUS
 62
    64
 10
-63.938648
 20
-74.799093
 40
0.216668
  0
CIRCLE
  8
ボルト／ビス
  6
CONTINUOUS
 10
-73.857125
 20
-69.815735
 40
0.250185
  0
CIRCLE
  8
ボルト／ビス
  6
CONTINUOUS
 10
-73.857125
 20
-69.815735
 40
0.301025
  0
LINE
  8
ボルト／ビス
  6
CONTINUOUS
 62
    64
 10
-73.60736
 20
-69.80123
 11
-73.744805
 21
-69.59218
  0
LINE
  8
ボルト／ビス
  6
CONTINUOUS
 62
    64
 10
-73.99457
 20
-69.606682
 11
-73.744805
 21
-69.59218
  0
LINE
  8
ボルト／ビス
  6
CONTINUOUS
 62
    64
 10
-73.71968
 20
-70.024785
 11
-73.969448
 21
-70.03929
  0
LINE
  8
ボルト／ビス
  6
CONTINUOUS
 62
    64
 10
-74.10689
 20
-69.83024
 11
-73.969448
 21
-70.03929
  0
LINE
  8
ボルト／ビス
  6
CONTINUOUS
 62
    64
 10
-73.60736
 20
-69.80123
 11
-73.71968
 21
-70.024785
  0
LINE
  8
ボルト／ビス
  6
CONTINUOUS
 62
    64
 10
-73.99457
 20
-69.606682
 11
-74.10689
 21
-69.83024
  0
CIRCLE
  8
ボルト／ビス
  6
CONTINUOUS
 62
    64
 10
-73.857125
 20
-69.815735
 40
0.216668
  0
CIRCLE
  8
ボルト／ビス
  6
CONTINUOUS
 10
-83.775602
 20
-64.832377
 40
0.250185
  0
CIRCLE
  8
ボルト／ビス
  6
CONTINUOUS
 10
-83.775602
 20
-64.832377
 40
0.301025
  0
LINE
  8
ボルト／ビス
  6
CONTINUOUS
 62
    64
 10
-83.913047
 20
-64.623327
 11
-83.663282
 21
-64.608825
  0
LINE
  8
ボルト／ビス
  6
CONTINUOUS
 62
    64
 10
-83.525838
 20
-64.817875
 11
-83.663282
 21
-64.608825
  0
LINE
  8
ボルト／ビス
  6
CONTINUOUS
 62
    64
 10
-84.025367
 20
-64.846882
 11
-83.887925
 21
-65.05593
  0
LINE
  8
ボルト／ビス
  6
CONTINUOUS
 62
    64
 10
-83.638158
 20
-65.041428
 11
-83.887925
 21
-65.05593
  0
LINE
  8
ボルト／ビス
  6
CONTINUOUS
 62
    64
 10
-83.913047
 20
-64.623327
 11
-84.025367
 21
-64.846882
  0
LINE
  8
ボルト／ビス
  6
CONTINUOUS
 62
    64
 10
-83.525838
 20
-64.817875
 11
-83.638158
 21
-65.041428
  0
CIRCLE
  8
ボルト／ビス
  6
CONTINUOUS
 62
    64
 10
-83.775602
 20
-64.832377
 40
0.216668
  0
ENDBLK
  0
BLOCK
  2
*GRP_0021
 70
    65
 10
0.0
 20
0.0
  0
LINE
  8
補助線
  6
BYBLOCK
 62
    64
 10
26.149935
 20
-74.76168
 11
26.29886
 21
-74.836505
  0
LINE
  8
補助線
  6
BYBLOCK
 62
    64
 10
26.26181
 20
-74.724628
 11
26.186985
 21
-74.873555
  0
LINE
  8
補助線
  6
BYBLOCK
 62
    64
 10
16.231455
 20
-69.778323
 11
16.380383
 21
-69.853147
  0
LINE
  8
補助線
  6
BYBLOCK
 62
    64
 10
16.343332
 20
-69.74127
 11
16.268507
 21
-69.890197
  0
LINE
  8
補助線
  6
BYBLOCK
 62
    64
 10
6.461905
 20
-64.86979
 11
6.312977
 21
-64.794965
  0
LINE
  8
補助線
  6
BYBLOCK
 62
    64
 10
6.424855
 20
-64.757913
 11
6.35003
 21
-64.90684
  0
LINE
  8
型材断面
  6
CONTINUOUS
 10
26.896375
 20
-74.204115
 11
27.118678
 21
-74.875367
  0
LINE
  8
型材断面
  6
CONTINUOUS
 10
27.118678
 20
-74.875367
 11
26.819375
 21
-75.471072
  0
LINE
  8
型材断面
  6
CONTINUOUS
 10
26.819375
 20
-75.471072
 11
26.148122
 21
-75.693375
  0
LINE
  8
型材断面
  6
CONTINUOUS
 10
6.463717
 20
-63.938098
 11
5.792462
 21
-64.1604
  0
LINE
  8
型材断面
  6
CONTINUOUS
 10
5.792462
 20
-64.1604
 11
5.49316
 21
-64.756105
  0
LINE
  8
型材断面
  6
CONTINUOUS
 10
5.49316
 20
-64.756105
 11
5.715465
 21
-65.427358
  0
LINE
  8
型材断面
  6
CONTINUOUS
 10
26.896375
 20
-74.204115
 11
6.463717
 21
-63.938098
  0
LINE
  8
型材断面
  6
CONTINUOUS
 10
26.148122
 20
-75.693375
 11
5.715465
 21
-65.427358
  0
CIRCLE
  8
ボルト／ビス
  6
CONTINUOUS
 10
26.224397
 20
-74.799093
 40
0.250185
  0
CIRCLE
  8
ボルト／ビス
  6
CONTINUOUS
 10
26.224397
 20
-74.799093
 40
0.301025
  0
LINE
  8
ボルト／ビス
  6
CONTINUOUS
 62
    64
 10
26.474163
 20
-74.78459
 11
26.336717
 21
-74.57554
  0
LINE
  8
ボルト／ビス
  6
CONTINUOUS
 62
    64
 10
26.086953
 20
-74.590042
 11
26.336717
 21
-74.57554
  0
LINE
  8
ボルト／ビス
  6
CONTINUOUS
 62
    64
 10
26.361843
 20
-75.008143
 11
26.112077
 21
-75.022645
  0
LINE
  8
ボルト／ビス
  6
CONTINUOUS
 62
    64
 10
25.974633
 20
-74.813595
 11
26.112077
 21
-75.022645
  0
LINE
  8
ボルト／ビス
  6
CONTINUOUS
 62
    64
 10
26.474163
 20
-74.78459
 11
26.361843
 21
-75.008143
  0
LINE
  8
ボルト／ビス
  6
CONTINUOUS
 62
    64
 10
26.086953
 20
-74.590042
 11
25.974633
 21
-74.813595
  0
CIRCLE
  8
ボルト／ビス
  6
CONTINUOUS
 62
    64
 10
26.224397
 20
-74.799093
 40
0.216668
  0
CIRCLE
  8
ボルト／ビス
  6
CONTINUOUS
 10
16.30592
 20
-69.815735
 40
0.250185
  0
CIRCLE
  8
ボルト／ビス
  6
CONTINUOUS
 10
16.30592
 20
-69.815735
 40
0.301025
  0
LINE
  8
ボルト／ビス
  6
CONTINUOUS
 62
    64
 10
16.555685
 20
-69.80123
 11
16.41824
 21
-69.59218
  0
LINE
  8
ボルト／ビス
  6
CONTINUOUS
 62
    64
 10
16.168475
 20
-69.606682
 11
16.41824
 21
-69.59218
  0
LINE
  8
ボルト／ビス
  6
CONTINUOUS
 62
    64
 10
16.443365
 20
-70.024785
 11
16.193598
 21
-70.03929
  0
LINE
  8
ボルト／ビス
  6
CONTINUOUS
 62
    64
 10
16.056155
 20
-69.83024
 11
16.193598
 21
-70.03929
  0
LINE
  8
ボルト／ビス
  6
CONTINUOUS
 62
    64
 10
16.555685
 20
-69.80123
 11
16.443365
 21
-70.024785
  0
LINE
  8
ボルト／ビス
  6
CONTINUOUS
 62
    64
 10
16.168475
 20
-69.606682
 11
16.056155
 21
-69.83024
  0
CIRCLE
  8
ボルト／ビス
  6
CONTINUOUS
 62
    64
 10
16.30592
 20
-69.815735
 40
0.216668
  0
CIRCLE
  8
ボルト／ビス
  6
CONTINUOUS
 10
6.387442
 20
-64.832377
 40
0.250185
  0
CIRCLE
  8
ボルト／ビス
  6
CONTINUOUS
 10
6.387442
 20
-64.832377
 40
0.301025
  0
LINE
  8
ボルト／ビス
  6
CONTINUOUS
 62
    64
 10
6.249998
 20
-64.623327
 11
6.499762
 21
-64.608825
  0
LINE
  8
ボルト／ビス
  6
CONTINUOUS
 62
    64
 10
6.637207
 20
-64.817875
 11
6.499762
 21
-64.608825
  0
LINE
  8
ボルト／ビス
  6
CONTINUOUS
 62
    64
 10
6.137678
 20
-64.846882
 11
6.27512
 21
-65.05593
  0
LINE
  8
ボルト／ビス
  6
CONTINUOUS
 62
    64
 10
6.524887
 20
-65.041428
 11
6.27512
 21
-65.05593
  0
LINE
  8
ボルト／ビス
  6
CONTINUOUS
 62
    64
 10
6.249998
 20
-64.623327
 11
6.137678
 21
-64.846882
  0
LINE
  8
ボルト／ビス
  6
CONTINUOUS
 62
    64
 10
6.637207
 20
-64.817875
 11
6.524887
 21
-65.041428
  0
CIRCLE
  8
ボルト／ビス
  6
CONTINUOUS
 62
    64
 10
6.387442
 20
-64.832377
 40
0.216668
  0
ENDBLK
  0
BLOCK
  2
*GRP_0022
 70
    65
 10
0.0
 20
0.0
  0
LINE
  8
補助線
  6
BYBLOCK
 62
    64
 10
6.461905
 20
-74.76168
 11
6.31298
 21
-74.836505
  0
LINE
  8
補助線
  6
BYBLOCK
 62
    64
 10
6.35003
 20
-74.724628
 11
6.424855
 21
-74.873555
  0
LINE
  8
補助線
  6
BYBLOCK
 62
    64
 10
16.380385
 20
-69.778323
 11
16.231458
 21
-69.853147
  0
LINE
  8
補助線
  6
BYBLOCK
 62
    64
 10
16.268507
 20
-69.74127
 11
16.343332
 21
-69.890197
  0
LINE
  8
補助線
  6
BYBLOCK
 62
    64
 10
26.149935
 20
-64.86979
 11
26.298862
 21
-64.794965
  0
LINE
  8
補助線
  6
BYBLOCK
 62
    64
 10
26.186985
 20
-64.757913
 11
26.26181
 21
-64.90684
  0
LINE
  8
型材断面
  6
CONTINUOUS
 10
5.715465
 20
-74.204115
 11
5.493162
 21
-74.875367
  0
LINE
  8
型材断面
  6
CONTINUOUS
 10
5.493162
 20
-74.875367
 11
5.792465
 21
-75.471072
  0
LINE
  8
型材断面
  6
CONTINUOUS
 10
5.792465
 20
-75.471072
 11
6.463717
 21
-75.693375
  0
LINE
  8
型材断面
  6
CONTINUOUS
 10
26.148122
 20
-63.938098
 11
26.819377
 21
-64.1604
  0
LINE
  8
型材断面
  6
CONTINUOUS
 10
26.819377
 20
-64.1604
 11
27.11868
 21
-64.756105
  0
LINE
  8
型材断面
  6
CONTINUOUS
 10
27.11868
 20
-64.756105
 11
26.896375
 21
-65.427358
  0
LINE
  8
型材断面
  6
CONTINUOUS
 10
5.715465
 20
-74.204115
 11
26.148122
 21
-63.938098
  0
LINE
  8
型材断面
  6
CONTINUOUS
 10
6.463717
 20
-75.693375
 11
26.896375
 21
-65.427358
  0
CIRCLE
  8
ボルト／ビス
  6
CONTINUOUS
 10
6.387442
 20
-74.799093
 40
0.250185
  0
CIRCLE
  8
ボルト／ビス
  6
CONTINUOUS
 10
6.387442
 20
-74.799093
 40
0.301025
  0
LINE
  8
ボルト／ビス
  6
CONTINUOUS
 62
    64
 10
6.137678
 20
-74.78459
 11
6.275122
 21
-74.57554
  0
LINE
  8
ボルト／ビス
  6
CONTINUOUS
 62
    64
 10
6.524887
 20
-74.590042
 11
6.275122
 21
-74.57554
  0
LINE
  8
ボルト／ビス
  6
CONTINUOUS
 62
    64
 10
6.249998
 20
-75.008143
 11
6.499762
 21
-75.022645
  0
LINE
  8
ボルト／ビス
  6
CONTINUOUS
 62
    64
 10
6.637207
 20
-74.813595
 11
6.499762
 21
-75.022645
  0
LINE
  8
ボルト／ビス
  6
CONTINUOUS
 62
    64
 10
6.137678
 20
-74.78459
 11
6.249998
 21
-75.008143
  0
LINE
  8
ボルト／ビス
  6
CONTINUOUS
 62
    64
 10
6.524887
 20
-74.590042
 11
6.637207
 21
-74.813595
  0
CIRCLE
  8
ボルト／ビス
  6
CONTINUOUS
 62
    64
 10
6.387442
 20
-74.799093
 40
0.216668
  0
CIRCLE
  8
ボルト／ビス
  6
CONTINUOUS
 10
16.30592
 20
-69.815735
 40
0.250185
  0
CIRCLE
  8
ボルト／ビス
  6
CONTINUOUS
 10
16.30592
 20
-69.815735
 40
0.301025
  0
LINE
  8
ボルト／ビス
  6
CONTINUOUS
 62
    64
 10
16.056155
 20
-69.80123
 11
16.1936
 21
-69.59218
  0
LINE
  8
ボルト／ビス
  6
CONTINUOUS
 62
    64
 10
16.443365
 20
-69.606682
 11
16.1936
 21
-69.59218
  0
LINE
  8
ボルト／ビス
  6
CONTINUOUS
 62
    64
 10
16.168475
 20
-70.024785
 11
16.418243
 21
-70.03929
  0
LINE
  8
ボルト／ビス
  6
CONTINUOUS
 62
    64
 10
16.555685
 20
-69.83024
 11
16.418243
 21
-70.03929
  0
LINE
  8
ボルト／ビス
  6
CONTINUOUS
 62
    64
 10
16.056155
 20
-69.80123
 11
16.168475
 21
-70.024785
  0
LINE
  8
ボルト／ビス
  6
CONTINUOUS
 62
    64
 10
16.443365
 20
-69.606682
 11
16.555685
 21
-69.83024
  0
CIRCLE
  8
ボルト／ビス
  6
CONTINUOUS
 62
    64
 10
16.30592
 20
-69.815735
 40
0.216668
  0
CIRCLE
  8
ボルト／ビス
  6
CONTINUOUS
 10
26.224397
 20
-64.832377
 40
0.250185
  0
CIRCLE
  8
ボルト／ビス
  6
CONTINUOUS
 10
26.224397
 20
-64.832377
 40
0.301025
  0
LINE
  8
ボルト／ビス
  6
CONTINUOUS
 62
    64
 10
26.361843
 20
-64.623327
 11
26.112077
 21
-64.608825
  0
LINE
  8
ボルト／ビス
  6
CONTINUOUS
 62
    64
 10
25.974633
 20
-64.817875
 11
26.112077
 21
-64.608825
  0
LINE
  8
ボルト／ビス
  6
CONTINUOUS
 62
    64
 10
26.474163
 20
-64.846882
 11
26.33672
 21
-65.05593
  0
LINE
  8
ボルト／ビス
  6
CONTINUOUS
 62
    64
 10
26.086953
 20
-65.041428
 11
26.33672
 21
-65.05593
  0
LINE
  8
ボルト／ビス
  6
CONTINUOUS
 62
    64
 10
26.361843
 20
-64.623327
 11
26.474163
 21
-64.846882
  0
LINE
  8
ボルト／ビス
  6
CONTINUOUS
 62
    64
 10
25.974633
 20
-64.817875
 11
26.086953
 21
-65.041428
  0
CIRCLE
  8
ボルト／ビス
  6
CONTINUOUS
 62
    64
 10
26.224397
 20
-64.832377
 40
0.216668
  0
ENDBLK
  0
BLOCK
  2
*DIM_0023
 70
    65
 10
0.0
 20
0.0
  0
LINE
  8
寸法
  6
CONTINUOUS
 10
59.459637
 20
-69.222375
 11
59.459637
 21
-76.872425
  0
POINT
  8
寸法
 10
59.459637
 20
-69.222375
  0
POINT
  8
寸法
 10
59.459637
 20
-76.872425
  0
TEXT
  7
TextStyle03
  8
寸法
  6
CONTINUOUS
 10
63.125
 20
-77.375
  1
229.5
 40
3.0
 50
90.0
 72
     5
 11
63.125
 21
-69.125
  0
ENDBLK
  0
BLOCK
  2
*DIM_0024
 70
    65
 10
0.0
 20
0.0
  0
LINE
  8
寸法
  6
CONTINUOUS
 10
135.287467
 20
56.049278
 11
142.937517
 21
56.049278
  0
POINT
  8
寸法
 10
135.287467
 20
56.049278
  0
POINT
  8
寸法
 10
142.937517
 20
56.049278
  0
TEXT
  7
TextStyle03
  8
寸法
  6
CONTINUOUS
 10
135.025
 20
56.4
  1
229.5
 40
3.0
 72
     5
 11
143.275
 21
56.4
  0
ENDBLK
  0
BLOCK
  2
*DIM_0025
 70
    65
 10
0.0
 20
0.0
  0
LINE
  8
寸法
  6
CONTINUOUS
 10
141.310947
 20
-55.966093
 11
104.850948
 21
-55.966093
  0
POINT
  8
寸法
 10
141.310947
 20
-55.966093
  0
POINT
  8
寸法
 10
104.850948
 20
-55.966093
  0
TEXT
  7
TextStyle03
  8
寸法
  6
CONTINUOUS
 10
118.10625
 20
-55.625
  1
1093.8
 40
3.0
 72
     5
 11
128.04375
 21
-55.625
  0
ENDBLK
  0
BLOCK
  2
*DIM_0026
 70
    65
 10
0.0
 20
0.0
  0
LINE
  8
寸法
  6
BYBLOCK
 62
     0
 10
59.459637
 20
-69.222375
 11
59.459637
 21
-61.889042
  0
POINT
  8
寸法
 62
     0
 10
59.459637
 20
-69.222375
  0
POINT
  8
寸法
 62
     0
 10
59.459637
 20
-61.889042
  0
TEXT
  7
TextStyle03
  8
寸法
  6
CONTINUOUS
 62
     0
 10
58.975
 20
-60.31875
  1
上昇203以上
 40
3.0
 50
90.0
 72
     5
 11
58.975
 21
-42.13125
  0
ENDBLK
  0
ENDSEC
  0
SECTION
  2
ENTITIES
  0
POLYLINE
  8
通り芯
  6
CONTINUOUS
 66
     1
 70
     1
  0
VERTEX
  8
通り芯
 10
-210.0
 20
-148.5
  0
VERTEX
  8
通り芯
 10
210.0
 20
-148.5
  0
VERTEX
  8
通り芯
 10
210.0
 20
148.5
  0
VERTEX
  8
通り芯
 10
-210.0
 20
148.5
  0
SEQEND
  0
INSERT
  2
*GRP_0001
  8
型材断面
  6
CONTINUOUS
 10
0.0
 20
0.0
  0
LINE
  8
型材断面
  6
DASHDOT
 10
46.224393
 20
-77.836442
 11
46.224393
 21
42.814033
  0
LINE
  8
型材断面
  6
DASHDOT
 10
-28.775608
 20
-77.836442
 11
-28.775608
 21
42.814033
  0
LINE
  8
型材断面
  6
DASHDOT
 10
-103.775608
 20
-77.836442
 11
-103.775608
 21
42.814033
  0
POLYLINE
  8
型材断面
  6
CONTINUOUS
 66
     1
 70
     1
  0
VERTEX
  8
型材断面
 10
-19.388875
 20
13.03811
  0
VERTEX
  8
型材断面
 10
-38.160805
 20
13.03811
  0
VERTEX
  8
型材断面
 10
-38.160805
 20
8.301267
  0
VERTEX
  8
型材断面
 10
-19.388875
 20
8.301267
  0
SEQEND
  0
POLYLINE
  8
型材断面
  6
CONTINUOUS
 66
     1
 70
     1
  0
VERTEX
  8
型材断面
 10
-19.388875
 20
52.589955
  0
VERTEX
  8
型材断面
 10
-38.160805
 20
52.589955
  0
VERTEX
  8
型材断面
 10
-38.160805
 20
57.326798
  0
VERTEX
  8
型材断面
 10
-19.388875
 20
57.326798
  0
SEQEND
  0
LINE
  8
型材断面
  6
DASHDOT
 10
143.901155
 20
42.814033
 11
-103.775608
 21
42.814033
  0
LINE
  8
型材断面
  6
DASHDOT
 10
143.901155
 20
22.814033
 11
-103.775608
 21
22.814033
  0
LINE
  8
型材断面
  6
DASHDOT
 10
143.901155
 20
32.814033
 11
-103.775608
 21
32.814033
  0
LINE
  8
型材断面
  6
DASHDOT
 10
-28.775608
 20
22.814033
 11
-28.775608
 21
42.814033
  0
LINE
  8
型材断面
  6
CONTINUOUS
 10
-87.10894
 20
45.444162
 11
-88.60457
 21
48.03467
  0
LINE
  8
型材断面
  6
CONTINUOUS
 10
-87.10894
 20
45.444162
 11
-85.61331
 21
48.03467
  0
LINE
  8
型材断面
  6
CONTINUOUS
 10
-85.61331
 20
48.03467
 11
-88.60457
 21
48.03467
  0
LINE
  8
型材断面
  6
CONTINUOUS
 10
-144.627815
 20
80.791505
 11
-144.03176
 21
78.200998
  0
LINE
  8
型材断面
  6
CONTINUOUS
 10
-144.627815
 20
80.791505
 11
-145.223873
 21
78.200998
  0
LINE
  8
型材断面
  6
CONTINUOUS
 10
-145.223873
 20
78.200998
 11
-144.03176
 21
78.200998
  0
LINE
  8
型材断面
  6
CONTINUOUS
 10
-150.650403
 20
74.922105
 11
-104.408625
 21
74.922105
  0
LINE
  8
型材断面
  6
CONTINUOUS
 10
-144.627815
 20
87.32138
 11
-146.123445
 21
84.730873
  0
LINE
  8
型材断面
  6
CONTINUOUS
 10
-144.627815
 20
87.32138
 11
-143.132185
 21
84.730873
  0
LINE
  8
型材断面
  6
CONTINUOUS
 10
-143.132185
 20
84.730873
 11
-146.123445
 21
84.730873
  0
LINE
  8
型材断面
  6
CONTINUOUS
 10
-150.650403
 20
83.792277
 11
-104.408625
 21
83.792277
  0
LINE
  8
型材断面
  6
CONTINUOUS
 10
-150.650403
 20
69.134073
 11
-104.408625
 21
69.134073
  0
LINE
  8
型材断面
  6
CONTINUOUS
 10
-106.405738
 20
32.814033
 11
-108.996245
 21
34.309663
  0
LINE
  8
型材断面
  6
CONTINUOUS
 10
-106.405738
 20
32.814033
 11
-108.996245
 21
31.318403
  0
LINE
  8
型材断面
  6
CONTINUOUS
 10
-108.996245
 20
31.318403
 11
-108.996245
 21
34.309663
  0
LINE
  8
型材断面
  6
CONTINUOUS
 10
-87.10894
 20
20.183902
 11
-88.60457
 21
17.593395
  0
LINE
  8
型材断面
  6
CONTINUOUS
 10
-87.10894
 20
20.183902
 11
-85.61331
 21
17.593395
  0
LINE
  8
型材断面
  6
CONTINUOUS
 10
-85.61331
 20
17.593395
 11
-88.60457
 21
17.593395
  0
LINE
  8
型材断面
  6
CONTINUOUS
 10
29.557725
 20
45.444162
 11
31.053355
 21
48.03467
  0
LINE
  8
型材断面
  6
CONTINUOUS
 10
29.557725
 20
45.444162
 11
28.062095
 21
48.03467
  0
LINE
  8
型材断面
  6
CONTINUOUS
 10
28.062095
 20
48.03467
 11
31.053355
 21
48.03467
  0
LINE
  8
型材断面
  6
CONTINUOUS
 10
48.854522
 20
32.814033
 11
51.44503
 21
34.309663
  0
LINE
  8
型材断面
  6
CONTINUOUS
 10
48.854522
 20
32.814033
 11
51.44503
 21
31.318403
  0
LINE
  8
型材断面
  6
CONTINUOUS
 10
51.44503
 20
31.318403
 11
51.44503
 21
34.309663
  0
LINE
  8
型材断面
  6
CONTINUOUS
 10
29.557725
 20
20.183902
 11
31.053355
 21
17.593395
  0
LINE
  8
型材断面
  6
CONTINUOUS
 10
29.557725
 20
20.183902
 11
28.062095
 21
17.593395
  0
LINE
  8
型材断面
  6
CONTINUOUS
 10
28.062095
 20
17.593395
 11
31.053355
 21
17.593395
  0
LINE
  8
型材断面
  6
CONTINUOUS
 10
-28.775608
 20
45.44416
 11
-27.279978
 21
48.034668
  0
LINE
  8
型材断面
  6
CONTINUOUS
 10
-28.775608
 20
45.44416
 11
-30.271238
 21
48.034668
  0
LINE
  8
型材断面
  6
CONTINUOUS
 10
-30.271238
 20
48.034668
 11
-27.279978
 21
48.034668
  0
LINE
  8
型材断面
  6
CONTINUOUS
 10
-28.775608
 20
20.1839
 11
-27.279978
 21
17.593392
  0
LINE
  8
型材断面
  6
CONTINUOUS
 10
-28.775608
 20
20.1839
 11
-30.271238
 21
17.593392
  0
LINE
  8
型材断面
  6
CONTINUOUS
 10
-30.271238
 20
17.593392
 11
-27.279978
 21
17.593392
  0
LINE
  8
型材断面
  6
CONTINUOUS
 10
48.854522
 20
39.114035
 11
51.445032
 21
38.517982
  0
LINE
  8
型材断面
  6
CONTINUOUS
 10
48.854522
 20
39.114035
 11
51.44503
 21
39.710095
  0
LINE
  8
型材断面
  6
CONTINUOUS
 10
51.44503
 20
39.710095
 11
51.445032
 21
38.517982
  0
LINE
  8
型材断面
  6
CONTINUOUS
 10
48.854522
 20
26.51403
 11
51.445032
 21
27.110082
  0
LINE
  8
型材断面
  6
CONTINUOUS
 10
48.854522
 20
26.51403
 11
51.44503
 21
25.91797
  0
LINE
  8
型材断面
  6
CONTINUOUS
 10
51.44503
 20
25.91797
 11
51.445032
 21
27.110082
  0
LINE
  8
型材断面
  6
CONTINUOUS
 10
-106.405738
 20
39.114035
 11
-108.996248
 21
38.517982
  0
LINE
  8
型材断面
  6
CONTINUOUS
 10
-106.405738
 20
39.114035
 11
-108.996245
 21
39.710095
  0
LINE
  8
型材断面
  6
CONTINUOUS
 10
-108.996245
 20
39.710095
 11
-108.996248
 21
38.517982
  0
LINE
  8
型材断面
  6
CONTINUOUS
 10
-106.405738
 20
26.51403
 11
-108.996248
 21
27.110082
  0
LINE
  8
型材断面
  6
CONTINUOUS
 10
-106.405738
 20
26.51403
 11
-108.996245
 21
25.91797
  0
LINE
  8
型材断面
  6
CONTINUOUS
 10
-108.996245
 20
25.91797
 11
-108.996248
 21
27.110082
  0
LINE
  8
型材断面
  6
CONTINUOUS
 10
-105.758792
 20
20.830853
 11
-28.775608
 21
20.830853
  0
LINE
  8
型材断面
  6
CONTINUOUS
 10
-105.758792
 20
44.797213
 11
-28.775608
 21
44.797213
  0
LINE
  8
型材断面
  6
CONTINUOUS
 10
48.207577
 20
44.797213
 11
-28.775608
 21
44.797213
  0
LINE
  8
型材断面
  6
CONTINUOUS
 10
48.207577
 20
20.830853
 11
-28.775608
 21
20.830853
  0
LINE
  8
型材断面
  6
CONTINUOUS
 10
-150.650403
 20
63.34604
 11
-104.408625
 21
63.34604
  0
ARC
  8
型材断面
  6
CONTINUOUS
 62
    47
 10
-105.758944
 20
-73.339038
 40
0.016668
 50
89.999123
 51
180.0
  0
ARC
  8
型材断面
  6
CONTINUOUS
 62
    47
 10
-105.76561
 20
-73.379039
 40
0.010002
 50
180.0
 51
269.791626
  0
LINE
  8
型材断面
  6
CONTINUOUS
 62
    47
 10
-105.725605
 20
-73.555757
 11
-104.87546
 21
-73.555757
  0
LINE
  8
型材断面
  6
CONTINUOUS
 62
    47
 10
-105.758945
 20
-73.32237
 11
-105.758945
 21
-71.21571
  0
LINE
  8
型材断面
  6
CONTINUOUS
 62
    47
 10
-105.75894
 20
-73.555757
 11
-105.75894
 21
-76.872425
  0
LINE
  8
型材断面
  6
CONTINUOUS
 62
    47
 10
-105.25894
 20
-77.372425
 11
-105.25894
 21
-76.872425
  0
LINE
  8
型材断面
  6
CONTINUOUS
 62
    47
 10
-104.875605
 20
-71.21571
 11
-104.875605
 21
-70.889042
  0
LINE
  8
型材断面
  6
CONTINUOUS
 62
    47
 10
-105.775605
 20
-73.339037
 11
-105.775605
 21
-73.378698
  0
ARC
  8
型材断面
  6
CONTINUOUS
 62
    47
 10
48.207728
 20
-73.339038
 40
0.016668
 50
0.0
 51
90.000877
  0
ARC
  8
型材断面
  6
CONTINUOUS
 62
    47
 10
48.214394
 20
-73.379039
 40
0.010002
 50
270.208374
 51
360.0
  0
LINE
  8
型材断面
  6
CONTINUOUS
 62
    47
 10
48.17439
 20
-73.555757
 11
47.324245
 21
-73.555757
  0
LINE
  8
型材断面
  6
CONTINUOUS
 62
    47
 10
48.20773
 20
-73.32237
 11
48.20773
 21
-71.21571
  0
LINE
  8
型材断面
  6
CONTINUOUS
 62
    47
 10
48.207725
 20
-73.555757
 11
48.207725
 21
-76.872425
  0
LINE
  8
型材断面
  6
CONTINUOUS
 62
    47
 10
47.707725
 20
-77.372425
 11
47.707725
 21
-76.872425
  0
LINE
  8
型材断面
  6
CONTINUOUS
 62
    47
 10
47.32439
 20
-71.21571
 11
47.32439
 21
-70.889042
  0
LINE
  8
型材断面
  6
CONTINUOUS
 62
    47
 10
48.22439
 20
-73.339037
 11
48.22439
 21
-73.378698
  0
LINE
  8
型材断面
  6
CONTINUOUS
 10
-105.332128
 20
-69.389042
 11
-28.775608
 21
-69.389042
  0
LINE
  8
型材断面
  6
CONTINUOUS
 10
-105.175605
 20
-69.222375
 11
-28.775608
 21
-69.222375
  0
LINE
  8
型材断面
  6
CONTINUOUS
 10
-105.175605
 20
-70.889042
 11
-28.775608
 21
-70.889042
  0
LINE
  8
型材断面
  6
CONTINUOUS
 10
-105.758945
 20
-71.21571
 11
-28.775608
 21
-71.21571
  0
LINE
  8
型材断面
  6
CONTINUOUS
 10
-105.75894
 20
-73.555757
 11
-28.775608
 21
-73.555757
  0
LINE
  8
型材断面
  6
CONTINUOUS
 10
-105.76561
 20
-73.389042
 11
-28.775608
 21
-73.389042
  0
LINE
  8
型材断面
  6
CONTINUOUS
 10
-105.25894
 20
-77.372425
 11
-28.775608
 21
-77.372425
  0
LINE
  8
型材断面
  6
CONTINUOUS
 10
-105.75894
 20
-76.872425
 11
-28.775608
 21
-76.872425
  0
LINE
  8
型材断面
  6
CONTINUOUS
 10
47.707725
 20
-77.372425
 11
-28.775608
 21
-77.372425
  0
LINE
  8
型材断面
  6
CONTINUOUS
 10
48.207725
 20
-76.872425
 11
-28.775608
 21
-76.872425
  0
LINE
  8
型材断面
  6
CONTINUOUS
 10
48.214395
 20
-73.389042
 11
-28.775608
 21
-73.389042
  0
LINE
  8
型材断面
  6
CONTINUOUS
 10
48.207725
 20
-73.555757
 11
-28.775608
 21
-73.555757
  0
LINE
  8
型材断面
  6
CONTINUOUS
 10
48.20773
 20
-71.21571
 11
-28.775608
 21
-71.21571
  0
LINE
  8
型材断面
  6
CONTINUOUS
 10
47.780912
 20
-69.389042
 11
-28.775608
 21
-69.389042
  0
LINE
  8
型材断面
  6
CONTINUOUS
 10
47.62439
 20
-70.889042
 11
-28.775608
 21
-70.889042
  0
LINE
  8
型材断面
  6
CONTINUOUS
 10
47.62439
 20
-69.222375
 11
-28.775608
 21
-69.222375
  0
ARC
  8
型材断面
  6
DOT
 62
    47
 10
-105.758944
 20
-66.005704
 40
0.016668
 50
89.999123
 51
180.0
  0
ARC
  8
型材断面
  6
DOT
 62
    47
 10
-105.76561
 20
-66.045706
 40
0.010002
 50
180.0
 51
269.791626
  0
LINE
  8
型材断面
  6
DOT
 62
    47
 10
-105.758945
 20
-65.989037
 11
-105.758945
 21
-63.882377
  0
LINE
  8
型材断面
  6
DOT
 62
    47
 10
-104.875605
 20
-63.882377
 11
-104.875605
 21
-63.55571
  0
LINE
  8
型材断面
  6
DOT
 62
    47
 10
-105.775605
 20
-66.005705
 11
-105.775605
 21
-66.045365
  0
ARC
  8
型材断面
  6
DOT
 62
    47
 10
48.207728
 20
-66.005704
 40
0.016668
 50
0.0
 51
90.000877
  0
ARC
  8
型材断面
  6
DOT
 62
    47
 10
48.214394
 20
-66.045706
 40
0.010002
 50
270.208374
 51
360.0
  0
LINE
  8
型材断面
  6
DOT
 62
    47
 10
48.20773
 20
-65.989037
 11
48.20773
 21
-63.882377
  0
LINE
  8
型材断面
  6
DOT
 62
    47
 10
47.32439
 20
-63.882377
 11
47.32439
 21
-63.55571
  0
LINE
  8
型材断面
  6
DOT
 62
    47
 10
48.22439
 20
-66.005705
 11
48.22439
 21
-66.045365
  0
LINE
  8
型材断面
  6
DOT
 10
-105.175605
 20
-61.889042
 11
-28.775608
 21
-61.889042
  0
LINE
  8
型材断面
  6
DOT
 10
-105.332128
 20
-62.05571
 11
-28.775608
 21
-62.05571
  0
LINE
  8
型材断面
  6
DOT
 10
-105.758945
 20
-63.882377
 11
-28.775608
 21
-63.882377
  0
LINE
  8
型材断面
  6
DOT
 10
-105.175605
 20
-63.55571
 11
-28.775608
 21
-63.55571
  0
LINE
  8
型材断面
  6
DOT
 10
-105.76561
 20
-66.05571
 11
-28.775608
 21
-66.05571
  0
LINE
  8
型材断面
  6
DOT
 10
48.214395
 20
-66.05571
 11
-28.775608
 21
-66.05571
  0
LINE
  8
型材断面
  6
DOT
 10
48.20773
 20
-63.882377
 11
-28.775608
 21
-63.882377
  0
LINE
  8
型材断面
  6
DOT
 10
47.62439
 20
-63.55571
 11
-28.775608
 21
-63.55571
  0
LINE
  8
型材断面
  6
DOT
 10
47.62439
 20
-61.889042
 11
-28.775608
 21
-61.889042
  0
LINE
  8
型材断面
  6
DOT
 10
47.780912
 20
-62.05571
 11
-28.775608
 21
-62.05571
  0
INSERT
  2
*GRP_0019
  8
型材断面
  6
CONTINUOUS
 10
0.0
 20
0.0
  0
INSERT
  2
*GRP_0020
  8
型材断面
  6
CONTINUOUS
 10
0.0
 20
0.0
  0
INSERT
  2
*GRP_0021
  8
型材断面
  6
CONTINUOUS
 10
0.0
 20
0.0
  0
INSERT
  2
*GRP_0022
  8
型材断面
  6
CONTINUOUS
 10
0.0
 20
0.0
  0
LINE
  8
型材断面
  6
CONTINUOUS
 10
135.454135
 20
44.370552
 11
135.454135
 21
32.814033
  0
LINE
  8
型材断面
  6
CONTINUOUS
 10
135.287467
 20
32.814033
 11
135.287467
 21
44.21403
  0
LINE
  8
型材断面
  6
CONTINUOUS
 10
136.954135
 20
32.814033
 11
136.954135
 21
44.21403
  0
ARC
  8
型材断面
  6
CONTINUOUS
 62
    47
 10
139.404129
 20
44.797368
 40
0.016668
 50
90.0
 51
180.000877
  0
ARC
  8
型材断面
  6
CONTINUOUS
 62
    47
 10
139.444131
 20
44.804034
 40
0.010002
 50
0.208374
 51
90.0
  0
LINE
  8
型材断面
  6
CONTINUOUS
 62
    47
 10
139.62085
 20
44.76403
 11
139.62085
 21
43.913885
  0
LINE
  8
型材断面
  6
CONTINUOUS
 10
139.62085
 20
32.814033
 11
139.62085
 21
44.797365
  0
LINE
  8
型材断面
  6
CONTINUOUS
 10
142.937517
 20
32.814033
 11
142.937517
 21
44.797365
  0
LINE
  8
型材断面
  6
CONTINUOUS
 10
143.437517
 20
32.814033
 11
143.437517
 21
44.297365
  0
LINE
  8
型材断面
  6
CONTINUOUS
 62
    47
 10
139.387463
 20
44.79737
 11
137.280803
 21
44.79737
  0
LINE
  8
型材断面
  6
CONTINUOUS
 10
137.280803
 20
32.814033
 11
137.280803
 21
44.79737
  0
LINE
  8
型材断面
  6
CONTINUOUS
 62
    47
 10
139.62085
 20
44.797365
 11
142.937517
 21
44.797365
  0
LINE
  8
型材断面
  6
CONTINUOUS
 62
    47
 10
143.437517
 20
44.297365
 11
142.937517
 21
44.297365
  0
LINE
  8
型材断面
  6
CONTINUOUS
 62
    47
 10
137.280803
 20
43.91403
 11
136.954135
 21
43.91403
  0
LINE
  8
型材断面
  6
CONTINUOUS
 10
135.454135
 20
21.257512
 11
135.454135
 21
32.814033
  0
LINE
  8
型材断面
  6
CONTINUOUS
 10
135.287467
 20
32.814033
 11
135.287467
 21
21.414035
  0
LINE
  8
型材断面
  6
CONTINUOUS
 10
136.954135
 20
32.814033
 11
136.954135
 21
21.414035
  0
ARC
  8
型材断面
  6
CONTINUOUS
 62
    47
 10
139.404129
 20
20.830696
 40
0.016668
 50
179.999123
 51
270.0
  0
ARC
  8
型材断面
  6
CONTINUOUS
 62
    47
 10
139.444131
 20
20.82403
 40
0.010002
 50
270.0
 51
359.791626
  0
LINE
  8
型材断面
  6
CONTINUOUS
 62
    47
 10
139.62085
 20
20.864035
 11
139.62085
 21
21.71418
  0
LINE
  8
型材断面
  6
CONTINUOUS
 10
139.62085
 20
32.814033
 11
139.62085
 21
20.8307
  0
LINE
  8
型材断面
  6
CONTINUOUS
 10
142.937517
 20
32.814033
 11
142.937517
 21
20.8307
  0
LINE
  8
型材断面
  6
CONTINUOUS
 10
143.437517
 20
32.814033
 11
143.437517
 21
21.3307
  0
LINE
  8
型材断面
  6
CONTINUOUS
 62
    47
 10
139.387463
 20
20.830695
 11
137.280803
 21
20.830695
  0
LINE
  8
型材断面
  6
CONTINUOUS
 10
137.280803
 20
32.814033
 11
137.280803
 21
20.830695
  0
LINE
  8
型材断面
  6
CONTINUOUS
 62
    47
 10
139.62085
 20
20.8307
 11
142.937517
 21
20.8307
  0
LINE
  8
型材断面
  6
CONTINUOUS
 62
    47
 10
143.437517
 20
21.3307
 11
142.937517
 21
21.3307
  0
LINE
  8
型材断面
  6
CONTINUOUS
 62
    47
 10
137.280803
 20
21.714035
 11
136.954135
 21
21.714035
  0
LINE
  8
型材断面
  6
CONTINUOUS
 10
139.454135
 20
32.814033
 11
139.454135
 21
44.804035
  0
LINE
  8
型材断面
  6
CONTINUOUS
 62
    47
 10
139.40413
 20
44.81403
 11
139.44379
 21
44.81403
  0
LINE
  8
型材断面
  6
CONTINUOUS
 62
    47
 10
139.40413
 20
20.814035
 11
139.44379
 21
20.814035
  0
LINE
  8
型材断面
  6
CONTINUOUS
 10
139.454135
 20
32.814033
 11
139.454135
 21
20.82403
  0
LINE
  8
型材断面
  6
DASHDOT
 10
-66.400608
 20
22.814033
 11
-66.400608
 21
42.814033
  0
LINE
  8
型材断面
  6
DASHDOT
 10
8.849393
 20
22.814033
 11
8.849393
 21
42.814033
  0
LINE
  8
型材断面
  6
CONTINUOUS
 10
27.95356
 20
21.257512
 11
27.95356
 21
23.757512
  0
LINE
  8
型材断面
  6
CONTINUOUS
 10
27.120225
 20
21.257512
 11
27.120225
 21
23.757512
  0
LINE
  8
型材断面
  6
CONTINUOUS
 10
-9.54644
 20
21.257512
 11
-9.54644
 21
23.757512
  0
LINE
  8
型材断面
  6
CONTINUOUS
 10
-10.379775
 20
21.257512
 11
-10.379775
 21
23.757512
  0
LINE
  8
型材断面
  6
CONTINUOUS
 10
-85.504775
 20
21.257512
 11
-85.504775
 21
23.757512
  0
LINE
  8
型材断面
  6
CONTINUOUS
 10
-84.67144
 20
21.257512
 11
-84.67144
 21
23.757512
  0
LINE
  8
型材断面
  6
CONTINUOUS
 10
-48.004775
 20
21.257512
 11
-48.004775
 21
23.757512
  0
LINE
  8
型材断面
  6
CONTINUOUS
 10
-47.17144
 20
21.257512
 11
-47.17144
 21
23.757512
  0
LINE
  8
型材断面
  6
CONTINUOUS
 10
27.95356
 20
44.370552
 11
27.95356
 21
41.870552
  0
LINE
  8
型材断面
  6
CONTINUOUS
 10
27.120225
 20
44.370552
 11
27.120225
 21
41.870552
  0
LINE
  8
型材断面
  6
CONTINUOUS
 10
-9.54644
 20
44.370552
 11
-9.54644
 21
41.870552
  0
LINE
  8
型材断面
  6
CONTINUOUS
 10
-10.379775
 20
44.370552
 11
-10.379775
 21
41.870552
  0
LINE
  8
型材断面
  6
CONTINUOUS
 10
-85.504775
 20
44.370552
 11
-85.504775
 21
41.870552
  0
LINE
  8
型材断面
  6
CONTINUOUS
 10
-84.67144
 20
44.370552
 11
-84.67144
 21
41.870552
  0
LINE
  8
型材断面
  6
CONTINUOUS
 10
-48.004775
 20
44.370552
 11
-48.004775
 21
41.870552
  0
LINE
  8
型材断面
  6
CONTINUOUS
 10
-47.17144
 20
44.370552
 11
-47.17144
 21
41.870552
  0
LINE
  8
型材断面
  6
CONTINUOUS
 10
-84.67144
 20
41.870552
 11
-48.004775
 21
41.870552
  0
LINE
  8
型材断面
  6
CONTINUOUS
 10
-84.67144
 20
23.757512
 11
-48.004775
 21
23.757512
  0
LINE
  8
型材断面
  6
CONTINUOUS
 10
-47.17144
 20
41.870552
 11
-10.379775
 21
41.870552
  0
LINE
  8
型材断面
  6
CONTINUOUS
 10
-47.17144
 20
23.757512
 11
-10.379775
 21
23.757512
  0
LINE
  8
型材断面
  6
CONTINUOUS
 10
-9.54644
 20
23.757512
 11
27.120225
 21
23.757512
  0
LINE
  8
型材断面
  6
CONTINUOUS
 10
-9.54644
 20
41.870552
 11
27.120225
 21
41.870552
  0
LINE
  8
型材断面
  6
CONTINUOUS
 10
7.599393
 20
24.590845
 11
10.099393
 21
24.590845
  0
LINE
  8
型材断面
  6
CONTINUOUS
 10
10.099393
 20
24.590845
 11
10.099393
 21
41.03722
  0
LINE
  8
型材断面
  6
CONTINUOUS
 10
7.599393
 20
24.590845
 11
7.599393
 21
41.03722
  0
LINE
  8
型材断面
  6
CONTINUOUS
 10
10.099393
 20
41.03722
 11
7.599393
 21
41.03722
  0
LINE
  8
型材断面
  6
CONTINUOUS
 10
-30.025608
 20
24.590845
 11
-27.525608
 21
24.590845
  0
LINE
  8
型材断面
  6
CONTINUOUS
 10
-27.525608
 20
24.590845
 11
-27.525608
 21
41.03722
  0
LINE
  8
型材断面
  6
CONTINUOUS
 10
-30.025608
 20
24.590845
 11
-30.025608
 21
41.03722
  0
LINE
  8
型材断面
  6
CONTINUOUS
 10
-27.525608
 20
41.03722
 11
-30.025608
 21
41.03722
  0
LINE
  8
型材断面
  6
CONTINUOUS
 10
-65.150608
 20
24.590845
 11
-67.650608
 21
24.590845
  0
LINE
  8
型材断面
  6
CONTINUOUS
 10
-67.650608
 20
24.590845
 11
-67.650608
 21
41.03722
  0
LINE
  8
型材断面
  6
CONTINUOUS
 10
-65.150608
 20
24.590845
 11
-65.150608
 21
41.03722
  0
LINE
  8
型材断面
  6
CONTINUOUS
 10
-67.650608
 20
41.03722
 11
-65.150608
 21
41.03722
  0
LINE
  8
型材断面
  6
CONTINUOUS
 10
48.207577
 20
32.814033
 11
48.207577
 21
20.830853
  0
LINE
  8
型材断面
  6
CONTINUOUS
 10
48.207577
 20
32.814033
 11
48.207577
 21
44.797213
  0
LINE
  8
型材断面
  6
CONTINUOUS
 10
45.280912
 20
32.397365
 11
47.780912
 21
32.397365
  0
LINE
  8
型材断面
  6
CONTINUOUS
 10
45.280912
 20
33.2307
 11
47.780912
 21
33.2307
  0
LINE
  8
型材断面
  6
CONTINUOUS
 10
47.545215
 20
21.25751
 11
47.780912
 21
21.493217
  0
LINE
  8
型材断面
  6
CONTINUOUS
 10
48.207577
 20
20.830853
 11
47.663065
 21
21.375365
  0
LINE
  8
型材断面
  6
CONTINUOUS
 10
45.280912
 20
23.993212
 11
47.780912
 21
21.493217
  0
LINE
  8
型材断面
  6
CONTINUOUS
 10
45.04521
 20
23.75751
 11
47.545212
 21
21.257512
  0
LINE
  8
型材断面
  6
CONTINUOUS
 10
45.280912
 20
32.397365
 11
45.280912
 21
23.993212
  0
LINE
  8
型材断面
  6
CONTINUOUS
 10
45.280912
 20
32.397365
 11
45.280912
 21
23.993212
  0
LINE
  8
型材断面
  6
CONTINUOUS
 10
45.280912
 20
23.993212
 11
45.045212
 21
23.757512
  0
LINE
  8
型材断面
  6
CONTINUOUS
 10
47.545215
 20
44.370555
 11
47.780912
 21
44.134848
  0
LINE
  8
型材断面
  6
CONTINUOUS
 10
48.207577
 20
44.797213
 11
47.663065
 21
44.2527
  0
LINE
  8
型材断面
  6
CONTINUOUS
 10
45.280912
 20
33.2307
 11
45.280912
 21
41.634852
  0
LINE
  8
型材断面
  6
CONTINUOUS
 10
45.045212
 20
41.870552
 11
45.280912
 21
41.634852
  0
LINE
  8
型材断面
  6
CONTINUOUS
 10
45.280912
 20
33.2307
 11
45.280912
 21
41.634852
  0
LINE
  8
型材断面
  6
CONTINUOUS
 10
47.780912
 20
21.493217
 11
47.780912
 21
44.134848
  0
LINE
  8
型材断面
  6
CONTINUOUS
 10
45.280912
 20
41.634852
 11
47.780912
 21
44.134848
  0
LINE
  8
型材断面
  6
CONTINUOUS
 10
47.780912
 20
21.493217
 11
47.780912
 21
44.134848
  0
LINE
  8
型材断面
  6
CONTINUOUS
 10
45.04521
 20
41.870555
 11
47.545212
 21
44.370552
  0
LINE
  8
型材断面
  6
CONTINUOUS
 10
-105.758792
 20
32.814033
 11
-105.758792
 21
20.830853
  0
LINE
  8
型材断面
  6
CONTINUOUS
 10
-105.758792
 20
32.814033
 11
-105.758792
 21
44.797213
  0
LINE
  8
型材断面
  6
CONTINUOUS
 10
-102.832128
 20
32.397365
 11
-105.332128
 21
32.397365
  0
LINE
  8
型材断面
  6
CONTINUOUS
 10
-102.832128
 20
33.2307
 11
-105.332128
 21
33.2307
  0
LINE
  8
型材断面
  6
CONTINUOUS
 10
-105.09643
 20
21.25751
 11
-105.332128
 21
21.493217
  0
LINE
  8
型材断面
  6
CONTINUOUS
 10
-105.758792
 20
20.830853
 11
-105.21428
 21
21.375365
  0
LINE
  8
型材断面
  6
CONTINUOUS
 10
-102.832128
 20
23.993212
 11
-105.332128
 21
21.493217
  0
LINE
  8
型材断面
  6
CONTINUOUS
 10
-102.596425
 20
23.75751
 11
-105.096428
 21
21.257512
  0
LINE
  8
型材断面
  6
CONTINUOUS
 10
-102.832128
 20
32.397365
 11
-102.832128
 21
23.993212
  0
LINE
  8
型材断面
  6
CONTINUOUS
 10
-102.832128
 20
32.397365
 11
-102.832128
 21
23.993212
  0
LINE
  8
型材断面
  6
CONTINUOUS
 10
-102.832128
 20
23.993212
 11
-102.596428
 21
23.757512
  0
LINE
  8
型材断面
  6
CONTINUOUS
 10
-105.09643
 20
44.370555
 11
-105.332128
 21
44.134848
  0
LINE
  8
型材断面
  6
CONTINUOUS
 10
-105.758792
 20
44.797213
 11
-105.21428
 21
44.2527
  0
LINE
  8
型材断面
  6
CONTINUOUS
 10
-102.832128
 20
33.2307
 11
-102.832128
 21
41.634852
  0
LINE
  8
型材断面
  6
CONTINUOUS
 10
-102.596428
 20
41.870552
 11
-102.832128
 21
41.634852
  0
LINE
  8
型材断面
  6
CONTINUOUS
 10
-102.832128
 20
33.2307
 11
-102.832128
 21
41.634852
  0
LINE
  8
型材断面
  6
CONTINUOUS
 10
-105.332128
 20
21.493217
 11
-105.332128
 21
44.134848
  0
LINE
  8
型材断面
  6
CONTINUOUS
 10
-102.832128
 20
41.634852
 11
-105.332128
 21
44.134848
  0
LINE
  8
型材断面
  6
CONTINUOUS
 10
-105.332128
 20
21.493217
 11
-105.332128
 21
44.134848
  0
LINE
  8
型材断面
  6
CONTINUOUS
 10
-102.596425
 20
41.870555
 11
-105.096428
 21
44.370552
  0
LINE
  8
型材断面
  6
CONTINUOUS
 10
27.95356
 20
23.757512
 11
45.045207
 21
23.757512
  0
LINE
  8
型材断面
  6
CONTINUOUS
 10
27.95356
 20
41.870552
 11
45.045207
 21
41.870552
  0
LINE
  8
型材断面
  6
CONTINUOUS
 10
-85.504775
 20
41.870552
 11
-102.596422
 21
41.870552
  0
LINE
  8
型材断面
  6
CONTINUOUS
 10
47.545212
 20
44.370552
 11
-105.096428
 21
44.370552
  0
LINE
  8
型材断面
  6
CONTINUOUS
 10
-85.504775
 20
23.757512
 11
-102.596422
 21
23.757512
  0
LINE
  8
型材断面
  6
CONTINUOUS
 10
47.545212
 20
21.257512
 11
-105.096428
 21
21.257512
  0
TEXT
  7
TextStyle03
  8
文字
  6
CONTINUOUS
 10
122.775
 20
-76.7
  1
網入り6.8t
 40
3.0
 72
     5
 11
139.4625
 21
-76.7
  0
TEXT
  7
TextStyle03
  8
文字
  6
CONTINUOUS
 10
-37.125
 20
9.325
  1
可動装置側
 40
3.0
 72
     5
 11
-20.625
 21
9.325
  0
TEXT
  7
TextStyle03
  8
文字
  6
CONTINUOUS
 10
-37.125
 20
53.3
  1
可動装置側
 40
3.0
 72
     5
 11
-20.625
 21
53.3
  0
TEXT
  7
TextStyle03
  8
文字
  6
CONTINUOUS
 10
129.45
 20
-81.375
  1
×４枚
 40
3.0
 72
     5
 11
139.2
 21
-81.375
  0
TEXT
  7
TextStyle03
  8
文字
  6
CONTINUOUS
 10
-141.8
 20
79.425
  1
はケーシング位置を示す
 40
3.0
 72
     5
 11
-105.05
 21
79.425
  0
TEXT
  7
TextStyle03
  8
文字
  6
CONTINUOUS
 10
-141.8
 20
76.05
  1
４ヶ所中1ヶ所に設定
 40
3.0
 72
     5
 11
-110.1125
 21
76.05
  0
TEXT
  7
TextStyle03
  8
文字
  6
CONTINUOUS
 10
-141.8
 20
84.95
  1
は排水穴位置を示す
 40
3.0
 72
     5
 11
-111.8
 21
84.95
  0
TEXT
  7
TextStyle03
  8
文字
  6
CONTINUOUS
 10
-124.825
 20
11.275
  1
アンカーピッチ
 40
3.0
 50
90.0
 72
     5
 11
-124.825
 21
34.525
  0
TEXT
  7
TextStyle03
  8
文字
  6
CONTINUOUS
 10
-88.85
 20
79.875
  1
アンカーピッチ
 40
3.0
 72
     5
 11
-65.6
 21
79.875
  0
TEXT
  7
TextStyle03
  8
文字
  6
CONTINUOUS
 10
-145.525
 20
70.075
  1
アンカー数量　１６ヶ所
 40
3.0
 72
     5
 11
-108.775
 21
70.075
  0
TEXT
  7
TextStyle03
  8
文字
  6
CONTINUOUS
 10
-145.575
 20
64.3
  1
アームユニット数　４ヶ所
 40
3.0
 72
     5
 11
-105.45
 21
64.3
  0
LINE
  8
文字
  6
CONTINUOUS
 10
59.459637
 20
-69.222375
 11
48.909675
 21
-69.222375
  0
LINE
  8
文字
  6
CONTINUOUS
 10
59.459637
 20
-76.872425
 11
48.974755
 21
-76.872425
  0
LINE
  8
文字
  6
CONTINUOUS
 10
59.459637
 20
-61.889042
 11
48.909675
 21
-61.889042
  0
LINE
  8
文字
  6
CONTINUOUS
 10
135.287467
 20
56.049278
 11
135.287467
 21
45.499315
  0
LINE
  8
文字
  6
CONTINUOUS
 10
142.937517
 20
56.049278
 11
142.937517
 21
45.564395
  0
LINE
  8
文字
  6
CONTINUOUS
 10
141.310947
 20
-55.966093
 11
141.310947
 21
-62.45591
  0
LINE
  8
文字
  6
CONTINUOUS
 10
104.850948
 20
-55.966093
 11
104.850948
 21
-62.45591
  0
TEXT
  7
TextStyle03
  8
文字
  6
CONTINUOUS
 10
57.875
 20
125.25
  1
シリーズ：ＴＦ２ＦＬ
 40
5.0
 72
     5
 11
113.5
 21
125.25
  0
TEXT
  7
TextStyle03
  8
文字
  6
CONTINUOUS
 10
57.875
 20
119.625
  1
　　　　　（上下可動）600×4500タイプ
 40
5.0
 72
     5
 11
161.3125
 21
119.625
  0
TEXT
  7
TextStyle03
  8
文字
  6
CONTINUOUS
 10
57.875
 20
114.0
  1
図面名　：外観姿図
 40
5.0
 72
     5
 11
107.875
 21
114.0
  0
TEXT
  7
TextStyle03
  8
文字
  6
CONTINUOUS
 10
57.875
 20
108.375
  1
　　　　　　
 40
5.0
 72
     5
 11
91.0
 21
108.375
  0
TEXT
  7
TextStyle03
  8
文字
  6
CONTINUOUS
 10
58.025
 20
104.525
  1
ＮＳコード：ＮＳＦＺＬ
 40
5.0
 72
     5
 11
119.275
 21
104.525
  0
INSERT
  2
*DIM_0002
  8
寸法
  6
CONTINUOUS
 10
0.0
 20
0.0
  0
INSERT
  2
*DIM_0003
  8
寸法
  6
CONTINUOUS
 10
0.0
 20
0.0
  0
INSERT
  2
*DIM_0004
  8
寸法
  6
CONTINUOUS
 10
0.0
 20
0.0
  0
INSERT
  2
*DIM_0005
  8
寸法
  6
CONTINUOUS
 10
0.0
 20
0.0
  0
INSERT
  2
*DIM_0006
  8
寸法
  6
CONTINUOUS
 10
0.0
 20
0.0
  0
INSERT
  2
*DIM_0007
  8
寸法
  6
CONTINUOUS
 10
0.0
 20
0.0
  0
INSERT
  2
*DIM_0008
  8
寸法
  6
CONTINUOUS
 10
0.0
 20
0.0
  0
INSERT
  2
*DIM_0009
  8
寸法
  6
CONTINUOUS
 10
0.0
 20
0.0
  0
INSERT
  2
*DIM_0010
  8
寸法
  6
CONTINUOUS
 10
0.0
 20
0.0
  0
INSERT
  2
*DIM_0011
  8
寸法
  6
CONTINUOUS
 10
0.0
 20
0.0
  0
INSERT
  2
*DIM_0012
  8
寸法
  6
CONTINUOUS
 10
0.0
 20
0.0
  0
INSERT
  2
*DIM_0013
  8
寸法
  6
CONTINUOUS
 10
0.0
 20
0.0
  0
INSERT
  2
*DIM_0014
  8
寸法
  6
CONTINUOUS
 10
0.0
 20
0.0
  0
INSERT
  2
*DIM_0015
  8
寸法
  6
CONTINUOUS
 10
0.0
 20
0.0
  0
INSERT
  2
*DIM_0016
  8
寸法
  6
CONTINUOUS
 10
0.0
 20
0.0
  0
INSERT
  2
*DIM_0017
  8
寸法
  6
CONTINUOUS
 10
0.0
 20
0.0
  0
INSERT
  2
*DIM_0018
  8
寸法
  6
CONTINUOUS
 10
0.0
 20
0.0
  0
INSERT
  2
*DIM_0023
  8
寸法
  6
CONTINUOUS
 10
0.0
 20
0.0
  0
INSERT
  2
*DIM_0024
  8
寸法
  6
CONTINUOUS
 10
0.0
 20
0.0
  0
INSERT
  2
*DIM_0025
  8
寸法
  6
CONTINUOUS
 10
0.0
 20
0.0
  0
INSERT
  2
*DIM_0026
  8
寸法
  6
CONTINUOUS
 10
0.0
 20
0.0
  0
LINE
  8
別途部材
  6
CONTINUOUS
 62
    47
 10
-105.332128
 20
-69.322375
 11
-105.332128
 21
-69.389042
  0
ARC
  8
別途部材
  6
CONTINUOUS
 62
    47
 10
-105.232129
 20
-69.322375
 40
0.1
 50
90.0
 51
180.0
  0
LINE
  8
別途部材
  6
CONTINUOUS
 62
    47
 10
-105.232128
 20
-69.222375
 11
-102.86546
 21
-69.222375
  0
LINE
  8
別途部材
  6
CONTINUOUS
 62
    47
 10
-105.175605
 20
-70.889042
 11
-105.175605
 21
-69.389042
  0
LINE
  8
別途部材
  6
CONTINUOUS
 62
    47
 10
47.780912
 20
-69.322375
 11
47.780912
 21
-69.389042
  0
ARC
  8
別途部材
  6
CONTINUOUS
 62
    47
 10
47.680913
 20
-69.322375
 40
0.1
 50
0.0
 51
90.0
  0
LINE
  8
別途部材
  6
CONTINUOUS
 62
    47
 10
47.680912
 20
-69.222375
 11
45.314245
 21
-69.222375
  0
LINE
  8
別途部材
  6
CONTINUOUS
 62
    47
 10
47.62439
 20
-70.889042
 11
47.62439
 21
-69.389042
  0
LINE
  8
別途部材
  6
DOT
 62
    47
 10
-105.332128
 20
-61.989042
 11
-105.332128
 21
-62.05571
  0
ARC
  8
別途部材
  6
DOT
 62
    47
 10
-105.232129
 20
-61.989042
 40
0.1
 50
90.0
 51
180.0
  0
LINE
  8
別途部材
  6
DOT
 62
    47
 10
-105.232128
 20
-61.889042
 11
-102.86546
 21
-61.889042
  0
LINE
  8
別途部材
  6
DOT
 62
    47
 10
-105.175605
 20
-63.55571
 11
-105.175605
 21
-62.05571
  0
LINE
  8
別途部材
  6
DOT
 62
    47
 10
47.780912
 20
-61.989042
 11
47.780912
 21
-62.05571
  0
ARC
  8
別途部材
  6
DOT
 62
    47
 10
47.680913
 20
-61.989042
 40
0.1
 50
0.0
 51
90.0
  0
LINE
  8
別途部材
  6
DOT
 62
    47
 10
47.680912
 20
-61.889042
 11
45.314245
 21
-61.889042
  0
LINE
  8
別途部材
  6
DOT
 62
    47
 10
47.62439
 20
-63.55571
 11
47.62439
 21
-62.05571
  0
LINE
  8
別途部材
  6
CONTINUOUS
 62
    47
 10
135.387467
 20
44.370552
 11
135.454135
 21
44.370552
  0
ARC
  8
別途部材
  6
CONTINUOUS
 62
    47
 10
135.387467
 20
44.270553
 40
0.1
 50
90.0
 51
180.0
  0
LINE
  8
別途部材
  6
CONTINUOUS
 62
    47
 10
135.287467
 20
44.270552
 11
135.287467
 21
41.903885
  0
LINE
  8
別途部材
  6
CONTINUOUS
 62
    47
 10
136.954135
 20
44.21403
 11
135.454135
 21
44.21403
  0
LINE
  8
別途部材
  6
CONTINUOUS
 62
    47
 10
135.387467
 20
21.257512
 11
135.454135
 21
21.257512
  0
ARC
  8
別途部材
  6
CONTINUOUS
 62
    47
 10
135.387467
 20
21.357511
 40
0.1
 50
180.0
 51
270.0
  0
LINE
  8
別途部材
  6
CONTINUOUS
 62
    47
 10
135.287467
 20
21.357512
 11
135.287467
 21
23.72418
  0
LINE
  8
別途部材
  6
CONTINUOUS
 62
    47
 10
136.954135
 20
21.414035
 11
135.454135
 21
21.414035
  0
LINE
  8
曲げ物
  6
CONTINUOUS
 10
141.310947
 20
-83.118728
 11
141.310947
 21
-63.785395
  0
LINE
  8
曲げ物
  6
CONTINUOUS
 10
30.950122
 20
34.739582
 11
27.25481
 21
31.04427
  0
LINE
  8
曲げ物
  6
CONTINUOUS
 10
30.246652
 20
33.203472
 11
28.790922
 21
31.747742
  0
LINE
  8
曲げ物
  6
CONTINUOUS
 10
29.414012
 20
34.036112
 11
27.958282
 21
32.580383
  0
LINE
  8
曲げ物
  6
CONTINUOUS
 10
-8.134045
 20
34.739582
 11
-11.829357
 21
31.04427
  0
LINE
  8
曲げ物
  6
CONTINUOUS
 10
-8.837515
 20
33.203472
 11
-10.293245
 21
31.747742
  0
LINE
  8
曲げ物
  6
CONTINUOUS
 10
-9.670155
 20
34.036112
 11
-11.125885
 21
32.580383
  0
LINE
  8
曲げ物
  6
CONTINUOUS
 10
-45.385845
 20
34.739582
 11
-49.081157
 21
31.04427
  0
LINE
  8
曲げ物
  6
CONTINUOUS
 10
-46.089315
 20
33.203472
 11
-47.545045
 21
31.747742
  0
LINE
  8
曲げ物
  6
CONTINUOUS
 10
-46.921955
 20
34.036112
 11
-48.377685
 21
32.580383
  0
LINE
  8
曲げ物
  6
CONTINUOUS
 10
-82.597012
 20
34.739582
 11
-86.292325
 21
31.04427
  0
LINE
  8
曲げ物
  6
CONTINUOUS
 10
-83.300483
 20
33.203472
 11
-84.756213
 21
31.747742
  0
LINE
  8
曲げ物
  6
CONTINUOUS
 10
-84.133122
 20
34.036112
 11
-85.588853
 21
32.580383
  0
LINE
  8
曲げ物
  6
CONTINUOUS
 10
104.850948
 20
-83.118728
 11
104.850948
 21
-63.785395
  0
LINE
  8
曲げ物
  6
CONTINUOUS
 10
141.310947
 20
-63.785395
 11
104.850948
 21
-63.785395
  0
LINE
  8
曲げ物
  6
CONTINUOUS
 10
141.310947
 20
-83.118728
 11
104.850948
 21
-83.118728
  0
ENDSEC
  0
EOF
