  0
SECTION
  2
HEADER
  9
$EXTMIN
 10
-210.0
 20
-148.5
  9
$EXTMAX
 10
210.0
 20
148.5
  9
$PDMODE
 70
    32
  9
$PDSIZE
 40
1.5
  9
$LTSCALE
 40
10.0
  0
ENDSEC
  0
SECTION
  2
TABLES
  0
TABLE
  2
LTYPE
 70
    15
  0
LTYPE
  2
CONTINUOUS
 70
    64
  3
実線
 72
    65
 73
     0
 40
0.0
  0
LTYPE
  2
DASHED
 70
    64
  3
破線A
 72
    65
 73
     2
 40
0.6
 49
0.4
 49
-0.2
  0
LTYPE
  2
DASHEDX2
 70
    64
  3
破線B
 72
    65
 73
     2
 40
1.3
 49
0.9
 49
-0.4
  0
LTYPE
  2
DASHDOT
 70
    64
  3
１点鎖線A
 72
    65
 73
     4
 40
0.5375
 49
0.375
 49
-0.05
 49
0.0625
 49
-0.05
  0
LTYPE
  2
DASHDOTX2
 70
    64
  3
１点鎖線B
 72
    65
 73
     4
 40
1.075
 49
0.75
 49
-0.1
 49
0.125
 49
-0.1
  0
LTYPE
  2
DIVIDE2
 70
    64
  3
２点鎖線A
 72
    65
 73
     6
 40
0.5125
 49
0.3
 49
-0.0375
 49
0.05
 49
-0.0375
 49
0.05
 49
-0.0375
  0
LTYPE
  2
DIVIDE
 70
    64
  3
２点鎖線B
 72
    65
 73
     6
 40
1.05
 49
0.55
 49
-0.1
 49
0.1
 49
-0.1
 49
0.1
 49
-0.1
  0
LTYPE
  2
DOT
 70
    64
  3
点線A
 72
    65
 73
     2
 40
0.1125
 49
0.0625
 49
-0.05
  0
LTYPE
  2
DOTX2
 70
    64
  3
点線B
 72
    65
 73
     2
 40
0.275
 49
0.15
 49
-0.125
  0
LTYPE
  2
CONTINUOUS
 70
    64
  3
実線
 72
    65
 73
     0
 40
0.0
  0
LTYPE
  2
CONTINUOUS
 70
    64
  3
実線
 72
    65
 73
     0
 40
0.0
  0
LTYPE
  2
CONTINUOUS
 70
    64
  3
実線
 72
    65
 73
     0
 40
0.0
  0
LTYPE
  2
CONTINUOUS
 70
    64
  3
実線
 72
    65
 73
     0
 40
0.0
  0
LTYPE
  2
CONTINUOUS
 70
    64
  3
実線
 72
    65
 73
     0
 40
0.0
  0
LTYPE
  2
CONTINUOUS
 70
    64
  3
実線
 72
    65
 73
     0
 40
0.0
  0
ENDTAB
  0
TABLE
  2
LAYER
 70
    34
  0
LAYER
  2
通り芯
 70
     0
 62
    15
  6
CONTINUOUS
  0
LAYER
  2
補助線
 70
     0
 62
    16
  6
DOT
  0
LAYER
  2
躯体
 70
     0
 62
    31
  6
CONTINUOUS
  0
LAYER
  2
型材
 70
     0
 62
    32
  6
CONTINUOUS
  0
LAYER
  2
型材断面
 70
     0
 62
    47
  6
CONTINUOUS
  0
LAYER
  2
ガラス
 70
     0
 62
    48
  6
CONTINUOUS
  0
LAYER
  2
ゴム等
 70
     0
 62
    63
  6
CONTINUOUS
  0
LAYER
  2
ボルト／ビス
 70
     0
 62
    64
  6
CONTINUOUS
  0
LAYER
  2
文字
 70
     0
 62
    79
  6
CONTINUOUS
  0
LAYER
  2
寸法
 70
     0
 62
    80
  6
CONTINUOUS
  0
LAYER
  2
ﾊｯﾁﾝｸﾞ
 70
     0
 62
    95
  6
CONTINUOUS
  0
LAYER
  2
別途部材
 70
     0
 62
    96
  6
CONTINUOUS
  0
LAYER
  2
曲げ物
 70
     0
 62
   111
  6
CONTINUOUS
  0
LAYER
  2
鉄骨等
 70
     0
 62
   112
  6
CONTINUOUS
  0
LAYER
  2
St
 70
     0
 62
   127
  6
CONTINUOUS
  0
LAYER
  2
その他部品等
 70
     0
 62
   128
  6
CONTINUOUS
  0
LAYER
  2
ｶﾞｽｹｯﾄ
 70
     0
 62
   143
  6
CONTINUOUS
  0
LAYER
  2
ｽｹｯﾁ
 70
     0
 62
    14
  6
CONTINUOUS
  0
LAYER
  2
0
 70
     0
 62
    17
  6
CONTINUOUS
  0
LAYER
  2
1
 70
     0
 62
    30
  6
CONTINUOUS
  0
LAYER
  2
4
 70
     0
 62
    33
  6
CONTINUOUS
  0
LAYER
  2
ﾚｲﾔ3
 70
     0
 62
    46
  6
CONTINUOUS
  0
LAYER
  2
外形線
 70
     0
 62
    49
  6
CONTINUOUS
  0
LAYER
  2
部品
 70
     0
 62
    14
  6
CONTINUOUS
  0
LAYER
  2
サッシ芯
 70
     0
 62
    17
  6
DASHDOTX2
  0
LAYER
  2
寸法線
 70
     0
 62
    62
  6
CONTINUOUS
  0
LAYER
  2
姿図外形線
 70
     0
 62
    65
  6
CONTINUOUS
  0
LAYER
  2
姿補助線
 70
     0
 62
    30
  6
CONTINUOUS
  0
LAYER
  2
透視線
 70
     0
 62
    78
  6
DOT
  0
LAYER
  2
用紙
 70
     0
 62
    81
  6
CONTINUOUS
  0
LAYER
  2
実線図枠
 70
     0
 62
    94
  6
CONTINUOUS
  0
LAYER
  2
補助図枠
 70
     0
 62
    97
  6
CONTINUOUS
  0
LAYER
  2
建具記号
 70
     0
 62
   110
  6
CONTINUOUS
  0
LAYER
  2
補助文字
 70
     0
 62
   113
  6
CONTINUOUS
  0
ENDTAB
  0
TABLE
  2
STYLE
 70
    10
  0
STYLE
  2
STANDARD
 70
     0
 40
1.0
 41
1.0
 42
1.0
 50
0.0
 71
     0
  3
TXT
  4
BIGFONT
  0
STYLE
  2
TATE
 70
     4
 40
1.0
 41
1.0
 42
1.0
 50
0.0
 71
     0
  3
TXT
  4
BIGFONT
  0
STYLE
  2
TextStyle03
 70
     0
 40
1.0
 41
1.0
 42
1.0
 50
0.0
 71
     0
  3
MONOTXT
  4
BIGFONT
  0
STYLE
  2
TextStyle04
 70
     0
 40
1.0
 41
1.0
 42
1.0
 50
0.0
 71
     0
  3
MONOTXT
  4
BIGFONT
  0
STYLE
  2
TextStyle05
 70
     0
 40
1.0
 41
1.0
 42
1.0
 50
0.0
 71
     0
  3
MONOTXT
  4
BIGFONT
  0
STYLE
  2
TextStyle06
 70
     0
 40
1.0
 41
1.0
 42
1.0
 50
0.0
 71
     0
  3
MONOTXT
  4
BIGFONT
  0
STYLE
  2
TextStyle07
 70
     0
 40
1.0
 41
1.0
 42
1.0
 50
0.0
 71
     0
  3
MONOTXT
  4
BIGFONT
  0
STYLE
  2
TextStyle08
 70
     0
 40
1.0
 41
1.0
 42
1.0
 50
0.0
 71
     0
  3
MONOTXT
  4
BIGFONT
  0
STYLE
  2
TextStyle09
 70
     0
 40
1.0
 41
1.0
 42
1.0
 50
0.0
 71
     0
  3
MONOTXT
  4
BIGFONT
  0
STYLE
  2
TextStyle10
 70
     0
 40
1.0
 41
1.0
 42
1.0
 50
0.0
 71
     0
  3
MONOTXT
  4
BIGFONT
  0
ENDTAB
  0
ENDSEC
  0
SECTION
  2
BLOCKS
  0
BLOCK
  2
*GRP_0001
 70
    65
 10
0.0
 20
0.0
  0
LINE
  8
型材断面
  6
CONTINUOUS
 10
195.0
 20
133.5
 11
195.0
 21
-133.5
  0
LINE
  8
型材断面
  6
CONTINUOUS
 10
195.0
 20
-133.5
 11
-185.0
 21
-133.5
  0
LINE
  8
型材断面
  6
CONTINUOUS
 10
-185.0
 20
-133.5
 11
-185.0
 21
133.5
  0
LINE
  8
型材断面
  6
CONTINUOUS
 10
195.0
 20
133.5
 11
-185.0
 21
133.5
  0
LINE
  8
型材断面
  6
CONTINUOUS
 10
145.0
 20
-133.5
 11
145.0
 21
-118.5
  0
LINE
  8
型材断面
  6
CONTINUOUS
 10
195.0
 20
-118.5
 11
145.0
 21
-118.5
  0
ENDBLK
  0
BLOCK
  2
*DIM_0002
 70
    65
 10
0.0
 20
0.0
  0
LINE
  8
寸法
  6
BYBLOCK
 62
     0
 10
142.310947
 20
-63.785395
 11
150.422478
 21
-63.785395
  0
LINE
  8
寸法
  6
BYBLOCK
 62
     0
 10
142.310947
 20
-83.118728
 11
150.422478
 21
-83.118728
  0
LINE
  8
寸法
  6
BYBLOCK
 62
     0
 10
150.422478
 20
-63.785395
 11
150.422478
 21
-83.118728
  0
POINT
  8
寸法
 62
     0
 10
150.422478
 20
-63.785395
  0
POINT
  8
寸法
 62
     0
 10
150.422478
 20
-83.118728
  0
TEXT
  7
TextStyle03
  8
寸法
  6
CONTINUOUS
 62
     0
 10
150.025
 20
-75.9125
  1
580
 40
3.0
 50
90.0
 72
     5
 11
150.025
 21
-71.0375
  0
ENDBLK
  0
BLOCK
  2
*DIM_0003
 70
    65
 10
0.0
 20
0.0
  0
LINE
  8
寸法
  6
BYBLOCK
 62
     0
 10
46.224393
 20
-13.121378
 11
-120.442275
 21
-13.121378
  0
POINT
  8
寸法
 62
     0
 10
46.224393
 20
-13.121378
  0
POINT
  8
寸法
 62
     0
 10
-120.442275
 20
-13.121378
  0
TEXT
  7
TextStyle03
  8
寸法
  6
CONTINUOUS
 62
     0
 10
-48.84375
 20
-12.75
  1
呼称寸法　5000
 40
3.0
 72
     5
 11
-25.40625
 21
-12.75
  0
ENDBLK
  0
BLOCK
  2
*DIM_0004
 70
    65
 10
0.0
 20
0.0
  0
LINE
  8
寸法
  6
BYBLOCK
 62
     0
 10
-103.775608
 20
19.183902
 11
-103.775608
 21
14.041447
  0
LINE
  8
寸法
  6
BYBLOCK
 62
     0
 10
-37.10894
 20
19.183905
 11
-37.10894
 21
14.041447
  0
LINE
  8
寸法
  6
BYBLOCK
 62
     0
 10
-103.775608
 20
14.041447
 11
-37.10894
 21
14.041447
  0
POINT
  8
寸法
 62
     0
 10
-103.775608
 20
14.041447
  0
POINT
  8
寸法
 62
     0
 10
-37.10894
 20
14.041447
  0
TEXT
  7
TextStyle03
  8
寸法
  6
CONTINUOUS
 62
     0
 10
-73.73125
 20
14.4
  1
2000
 40
3.0
 72
     5
 11
-67.16875
 21
14.4
  0
ENDBLK
  0
BLOCK
  2
*DIM_0005
 70
    65
 10
0.0
 20
0.0
  0
LINE
  8
寸法
  6
BYBLOCK
 62
     0
 10
29.557727
 20
19.183902
 11
29.557727
 21
14.041447
  0
LINE
  8
寸法
  6
BYBLOCK
 62
     0
 10
-37.10894
 20
14.041447
 11
29.557727
 21
14.041447
  0
POINT
  8
寸法
 62
     0
 10
29.557727
 20
14.041447
  0
TEXT
  7
TextStyle03
  8
寸法
  6
CONTINUOUS
 62
     0
 10
-7.08125
 20
14.4
  1
2000
 40
3.0
 72
     5
 11
-0.51875
 21
14.4
  0
ENDBLK
  0
BLOCK
  2
*DIM_0006
 70
    65
 10
0.0
 20
0.0
  0
LINE
  8
寸法
  6
BYBLOCK
 62
     0
 10
47.224393
 20
42.814035
 11
56.948675
 21
42.814035
  0
LINE
  8
寸法
  6
BYBLOCK
 62
     0
 10
49.854522
 20
39.114035
 11
56.948675
 21
39.114035
  0
LINE
  8
寸法
  6
BYBLOCK
 62
     0
 10
56.948675
 20
42.814035
 11
56.948675
 21
39.114035
  0
POINT
  8
寸法
 62
     0
 10
56.948675
 20
42.814035
  0
POINT
  8
寸法
 62
     0
 10
56.948675
 20
39.114035
  0
TEXT
  7
TextStyle03
  8
寸法
  6
CONTINUOUS
 62
     0
 10
56.625
 20
43.8125
  1
111
 40
3.0
 50
90.0
 72
     5
 11
56.625
 21
48.6875
  0
ENDBLK
  0
BLOCK
  2
*DIM_0007
 70
    65
 10
0.0
 20
0.0
  0
LINE
  8
寸法
  6
BYBLOCK
 62
     0
 10
47.224393
 20
22.81403
 11
56.948675
 21
22.814027
  0
LINE
  8
寸法
  6
BYBLOCK
 62
     0
 10
49.854522
 20
26.51403
 11
56.948675
 21
26.514027
  0
LINE
  8
寸法
  6
BYBLOCK
 62
     0
 10
56.948675
 20
22.814027
 11
56.948675
 21
26.514027
  0
POINT
  8
寸法
 62
     0
 10
56.948675
 20
22.814027
  0
POINT
  8
寸法
 62
     0
 10
56.948675
 20
26.514027
  0
TEXT
  7
TextStyle03
  8
寸法
  6
CONTINUOUS
 62
     0
 10
56.95
 20
16.5625
  1
111
 40
3.0
 50
90.0
 72
     5
 11
56.95
 21
21.4375
  0
ENDBLK
  0
BLOCK
  2
*DIM_0008
 70
    65
 10
0.0
 20
0.0
  0
LINE
  8
寸法
  6
BYBLOCK
 62
     0
 10
80.244043
 20
22.814033
 11
80.244043
 21
42.814033
  0
POINT
  8
寸法
 62
     0
 10
80.244043
 20
22.814033
  0
POINT
  8
寸法
 62
     0
 10
80.244043
 20
42.814033
  0
TEXT
  7
TextStyle03
  8
寸法
  6
CONTINUOUS
 62
     0
 10
79.875
 20
21.925
  1
呼称寸法　600
 40
3.0
 50
90.0
 72
     5
 11
79.875
 21
43.675
  0
ENDBLK
  0
BLOCK
  2
*DIM_0009
 70
    65
 10
0.0
 20
0.0
  0
LINE
  8
寸法
  6
BYBLOCK
 62
     0
 10
134.134438
 20
44.79737
 11
80.244043
 21
44.79737
  0
LINE
  8
寸法
  6
BYBLOCK
 62
     0
 10
80.244043
 20
42.814033
 11
80.244043
 21
44.79737
  0
POINT
  8
寸法
 62
     0
 10
80.244043
 20
42.814033
  0
POINT
  8
寸法
 62
     0
 10
80.244043
 20
44.79737
  0
TEXT
  7
TextStyle03
  8
寸法
  6
CONTINUOUS
 62
     0
 10
79.85
 20
47.26875
  1
59.5
 40
3.0
 50
90.0
 72
     5
 11
79.85
 21
53.83125
  0
ENDBLK
  0
BLOCK
  2
*DIM_0010
 70
    65
 10
0.0
 20
0.0
  0
LINE
  8
寸法
  6
BYBLOCK
 62
     0
 10
134.134438
 20
20.830703
 11
80.244043
 21
20.830703
  0
LINE
  8
寸法
  6
BYBLOCK
 62
     0
 10
80.244043
 20
22.814033
 11
80.244043
 21
20.830703
  0
POINT
  8
寸法
 62
     0
 10
80.244043
 20
22.814033
  0
POINT
  8
寸法
 62
     0
 10
80.244043
 20
20.830703
  0
TEXT
  7
TextStyle03
  8
寸法
  6
CONTINUOUS
 62
     0
 10
79.85
 20
11.76875
  1
59.5
 40
3.0
 50
90.0
 72
     5
 11
79.85
 21
18.33125
  0
ENDBLK
  0
BLOCK
  2
*DIM_0011
 70
    65
 10
0.0
 20
0.0
  0
LINE
  8
寸法
  6
BYBLOCK
 62
     0
 10
48.207727
 20
-61.253063
 11
48.207727
 21
-13.121378
  0
LINE
  8
寸法
  6
BYBLOCK
 62
     0
 10
46.224393
 20
-13.121378
 11
48.207727
 21
-13.121378
  0
POINT
  8
寸法
 62
     0
 10
46.224393
 20
-13.121378
  0
POINT
  8
寸法
 62
     0
 10
48.207727
 20
-13.121378
  0
TEXT
  7
TextStyle03
  8
寸法
  6
CONTINUOUS
 62
     0
 10
50.66875
 20
-12.75
  1
59.5
 40
3.0
 72
     5
 11
57.23125
 21
-12.75
  0
ENDBLK
  0
BLOCK
  2
*DIM_0012
 70
    65
 10
0.0
 20
0.0
  0
LINE
  8
寸法
  6
BYBLOCK
 62
     0
 10
-122.425608
 20
-61.253063
 11
-122.425608
 21
-13.121378
  0
LINE
  8
寸法
  6
BYBLOCK
 62
     0
 10
-120.442275
 20
-13.121378
 11
-122.425608
 21
-13.121378
  0
POINT
  8
寸法
 62
     0
 10
-120.442275
 20
-13.121378
  0
POINT
  8
寸法
 62
     0
 10
-122.425608
 20
-13.121378
  0
TEXT
  7
TextStyle03
  8
寸法
  6
CONTINUOUS
 62
     0
 10
-131.48125
 20
-12.75
  1
59.5
 40
3.0
 72
     5
 11
-124.91875
 21
-12.75
  0
ENDBLK
  0
BLOCK
  2
*DIM_0013
 70
    65
 10
0.0
 20
0.0
  0
LINE
  8
寸法
  6
BYBLOCK
 62
     0
 10
-123.442275
 20
39.4807
 11
-136.735113
 21
39.4807
  0
LINE
  8
寸法
  6
BYBLOCK
 62
     0
 10
-123.442275
 20
26.147365
 11
-136.735113
 21
26.147365
  0
LINE
  8
寸法
  6
BYBLOCK
 62
     0
 10
-136.735113
 20
39.4807
 11
-136.735113
 21
26.147365
  0
POINT
  8
寸法
 62
     0
 10
-136.735113
 20
39.4807
  0
POINT
  8
寸法
 62
     0
 10
-136.735113
 20
26.147365
  0
TEXT
  7
TextStyle03
  8
寸法
  6
CONTINUOUS
 62
     0
 10
-137.125
 20
30.3625
  1
400
 40
3.0
 50
90.0
 72
     5
 11
-137.125
 21
35.2375
  0
ENDBLK
  0
BLOCK
  2
*DIM_0014
 70
    65
 10
0.0
 20
0.0
  0
LINE
  8
寸法
  6
BYBLOCK
 62
     0
 10
-112.10894
 20
45.814033
 11
-112.10894
 21
74.922105
  0
LINE
  8
寸法
  6
BYBLOCK
 62
     0
 10
-87.10894
 20
45.814033
 11
-87.10894
 21
74.922105
  0
LINE
  8
寸法
  6
BYBLOCK
 62
     0
 10
-112.10894
 20
74.922105
 11
-87.10894
 21
74.922105
  0
POINT
  8
寸法
 62
     0
 10
-112.10894
 20
74.922105
  0
POINT
  8
寸法
 62
     0
 10
-87.10894
 20
74.922105
  0
TEXT
  7
TextStyle03
  8
寸法
  6
CONTINUOUS
 62
     0
 10
-102.0875
 20
75.275
  1
750
 40
3.0
 72
     5
 11
-97.2125
 21
75.275
  0
ENDBLK
  0
BLOCK
  2
*DIM_0015
 70
    65
 10
0.0
 20
0.0
  0
LINE
  8
寸法
  6
BYBLOCK
 62
     0
 10
-62.10894
 20
45.814033
 11
-62.10894
 21
74.922105
  0
LINE
  8
寸法
  6
BYBLOCK
 62
     0
 10
-87.10894
 20
74.922105
 11
-62.10894
 21
74.922105
  0
POINT
  8
寸法
 62
     0
 10
-62.10894
 20
74.922105
  0
TEXT
  7
TextStyle03
  8
寸法
  6
CONTINUOUS
 62
     0
 10
-77.0875
 20
75.275
  1
750
 40
3.0
 72
     5
 11
-72.2125
 21
75.275
  0
ENDBLK
  0
BLOCK
  2
*DIM_0016
 70
    65
 10
0.0
 20
0.0
  0
LINE
  8
寸法
  6
BYBLOCK
 62
     0
 10
-37.10894
 20
45.814033
 11
-37.10894
 21
74.922105
  0
LINE
  8
寸法
  6
BYBLOCK
 62
     0
 10
-62.10894
 20
74.922105
 11
-37.10894
 21
74.922105
  0
POINT
  8
寸法
 62
     0
 10
-37.10894
 20
74.922105
  0
TEXT
  7
TextStyle03
  8
寸法
  6
CONTINUOUS
 62
     0
 10
-52.0875
 20
75.275
  1
750
 40
3.0
 72
     5
 11
-47.2125
 21
75.275
  0
ENDBLK
  0
BLOCK
  2
*DIM_0017
 70
    65
 10
0.0
 20
0.0
  0
LINE
  8
寸法
  6
BYBLOCK
 62
     0
 10
-12.10894
 20
45.814033
 11
-12.10894
 21
74.922105
  0
LINE
  8
寸法
  6
BYBLOCK
 62
     0
 10
-37.10894
 20
74.922105
 11
-12.10894
 21
74.922105
  0
POINT
  8
寸法
 62
     0
 10
-12.10894
 20
74.922105
  0
TEXT
  7
TextStyle03
  8
寸法
  6
CONTINUOUS
 62
     0
 10
-27.0875
 20
75.275
  1
750
 40
3.0
 72
     5
 11
-22.2125
 21
75.275
  0
ENDBLK
  0
BLOCK
  2
*DIM_0018
 70
    65
 10
0.0
 20
0.0
  0
LINE
  8
寸法
  6
BYBLOCK
 62
     0
 10
12.89106
 20
45.814033
 11
12.89106
 21
74.922105
  0
LINE
  8
寸法
  6
BYBLOCK
 62
     0
 10
-12.10894
 20
74.922105
 11
12.89106
 21
74.922105
  0
POINT
  8
寸法
 62
     0
 10
12.89106
 20
74.922105
  0
TEXT
  7
TextStyle03
  8
寸法
  6
CONTINUOUS
 62
     0
 10
-2.0875
 20
75.275
  1
750
 40
3.0
 72
     5
 11
2.7875
 21
75.275
  0
ENDBLK
  0
BLOCK
  2
*DIM_0019
 70
    65
 10
0.0
 20
0.0
  0
LINE
  8
寸法
  6
BYBLOCK
 62
     0
 10
37.89106
 20
45.814033
 11
37.89106
 21
74.922105
  0
LINE
  8
寸法
  6
BYBLOCK
 62
     0
 10
12.89106
 20
74.922105
 11
37.89106
 21
74.922105
  0
POINT
  8
寸法
 62
     0
 10
37.89106
 20
74.922105
  0
TEXT
  7
TextStyle03
  8
寸法
  6
CONTINUOUS
 62
     0
 10
22.9125
 20
75.275
  1
750
 40
3.0
 72
     5
 11
27.7875
 21
75.275
  0
ENDBLK
  0
BLOCK
  2
*DIM_0020
 70
    65
 10
0.0
 20
0.0
  0
LINE
  8
寸法
  6
CONTINUOUS
 10
135.0979
 20
56.049278
 11
142.74795
 21
56.049278
  0
POINT
  8
寸法
 10
135.0979
 20
56.049278
  0
POINT
  8
寸法
 10
142.74795
 20
56.049278
  0
TEXT
  7
TextStyle03
  8
寸法
  6
CONTINUOUS
 10
134.8
 20
56.4
  1
229.5
 40
3.0
 72
     5
 11
143.05
 21
56.4
  0
ENDBLK
  0
BLOCK
  2
*GRP_0021
 70
    65
 10
0.0
 20
0.0
  0
LINE
  8
補助線
  6
BYBLOCK
 62
    64
 10
-117.034475
 20
-73.883543
 11
-117.1834
 21
-73.958367
  0
LINE
  8
補助線
  6
BYBLOCK
 62
    64
 10
-117.14635
 20
-73.84649
 11
-117.071525
 21
-73.995417
  0
LINE
  8
補助線
  6
BYBLOCK
 62
    64
 10
-107.115995
 20
-68.900185
 11
-107.264923
 21
-68.97501
  0
LINE
  8
補助線
  6
BYBLOCK
 62
    64
 10
-107.227873
 20
-68.863133
 11
-107.153047
 21
-69.01206
  0
LINE
  8
補助線
  6
BYBLOCK
 62
    64
 10
-97.346445
 20
-63.991652
 11
-97.197517
 21
-63.916827
  0
LINE
  8
補助線
  6
BYBLOCK
 62
    64
 10
-97.309395
 20
-63.879775
 11
-97.23457
 21
-64.028702
  0
LINE
  8
型材断面
  6
CONTINUOUS
 10
-117.780915
 20
-73.325978
 11
-118.003218
 21
-73.99723
  0
LINE
  8
型材断面
  6
CONTINUOUS
 10
-118.003218
 20
-73.99723
 11
-117.703915
 21
-74.592935
  0
LINE
  8
型材断面
  6
CONTINUOUS
 10
-117.703915
 20
-74.592935
 11
-117.032662
 21
-74.815237
  0
LINE
  8
型材断面
  6
CONTINUOUS
 10
-97.348258
 20
-63.05996
 11
-96.677002
 21
-63.282262
  0
LINE
  8
型材断面
  6
CONTINUOUS
 10
-96.677002
 20
-63.282262
 11
-96.3777
 21
-63.877967
  0
LINE
  8
型材断面
  6
CONTINUOUS
 10
-96.3777
 20
-63.877967
 11
-96.600005
 21
-64.54922
  0
LINE
  8
型材断面
  6
CONTINUOUS
 10
-117.780915
 20
-73.325978
 11
-97.348258
 21
-63.05996
  0
LINE
  8
型材断面
  6
CONTINUOUS
 10
-117.032662
 20
-74.815237
 11
-96.600005
 21
-64.54922
  0
CIRCLE
  8
ボルト／ビス
  6
CONTINUOUS
 10
-117.108937
 20
-73.920955
 40
0.250185
  0
CIRCLE
  8
ボルト／ビス
  6
CONTINUOUS
 10
-117.108937
 20
-73.920955
 40
0.301025
  0
LINE
  8
ボルト／ビス
  6
CONTINUOUS
 62
    64
 10
-117.358702
 20
-73.906452
 11
-117.221257
 21
-73.697403
  0
LINE
  8
ボルト／ビス
  6
CONTINUOUS
 62
    64
 10
-116.971493
 20
-73.711905
 11
-117.221257
 21
-73.697403
  0
LINE
  8
ボルト／ビス
  6
CONTINUOUS
 62
    64
 10
-117.246382
 20
-74.130005
 11
-116.996617
 21
-74.144507
  0
LINE
  8
ボルト／ビス
  6
CONTINUOUS
 62
    64
 10
-116.859173
 20
-73.935458
 11
-116.996617
 21
-74.144507
  0
LINE
  8
ボルト／ビス
  6
CONTINUOUS
 62
    64
 10
-117.358702
 20
-73.906452
 11
-117.246382
 21
-74.130005
  0
LINE
  8
ボルト／ビス
  6
CONTINUOUS
 62
    64
 10
-116.971493
 20
-73.711905
 11
-116.859173
 21
-73.935458
  0
CIRCLE
  8
ボルト／ビス
  6
CONTINUOUS
 62
    64
 10
-117.108937
 20
-73.920955
 40
0.216668
  0
CIRCLE
  8
ボルト／ビス
  6
CONTINUOUS
 10
-107.19046
 20
-68.937597
 40
0.250185
  0
CIRCLE
  8
ボルト／ビス
  6
CONTINUOUS
 10
-107.19046
 20
-68.937597
 40
0.301025
  0
LINE
  8
ボルト／ビス
  6
CONTINUOUS
 62
    64
 10
-107.440225
 20
-68.923092
 11
-107.30278
 21
-68.714042
  0
LINE
  8
ボルト／ビス
  6
CONTINUOUS
 62
    64
 10
-107.053015
 20
-68.728545
 11
-107.30278
 21
-68.714042
  0
LINE
  8
ボルト／ビス
  6
CONTINUOUS
 62
    64
 10
-107.327905
 20
-69.146648
 11
-107.078137
 21
-69.161153
  0
LINE
  8
ボルト／ビス
  6
CONTINUOUS
 62
    64
 10
-106.940695
 20
-68.952102
 11
-107.078137
 21
-69.161153
  0
LINE
  8
ボルト／ビス
  6
CONTINUOUS
 62
    64
 10
-107.440225
 20
-68.923092
 11
-107.327905
 21
-69.146648
  0
LINE
  8
ボルト／ビス
  6
CONTINUOUS
 62
    64
 10
-107.053015
 20
-68.728545
 11
-106.940695
 21
-68.952102
  0
CIRCLE
  8
ボルト／ビス
  6
CONTINUOUS
 62
    64
 10
-107.19046
 20
-68.937597
 40
0.216668
  0
CIRCLE
  8
ボルト／ビス
  6
CONTINUOUS
 10
-97.271983
 20
-63.95424
 40
0.250185
  0
CIRCLE
  8
ボルト／ビス
  6
CONTINUOUS
 10
-97.271983
 20
-63.95424
 40
0.301025
  0
LINE
  8
ボルト／ビス
  6
CONTINUOUS
 62
    64
 10
-97.134537
 20
-63.74519
 11
-97.384303
 21
-63.730688
  0
LINE
  8
ボルト／ビス
  6
CONTINUOUS
 62
    64
 10
-97.521748
 20
-63.939737
 11
-97.384303
 21
-63.730688
  0
LINE
  8
ボルト／ビス
  6
CONTINUOUS
 62
    64
 10
-97.022217
 20
-63.968745
 11
-97.15966
 21
-64.177793
  0
LINE
  8
ボルト／ビス
  6
CONTINUOUS
 62
    64
 10
-97.409428
 20
-64.16329
 11
-97.15966
 21
-64.177793
  0
LINE
  8
ボルト／ビス
  6
CONTINUOUS
 62
    64
 10
-97.134537
 20
-63.74519
 11
-97.022217
 21
-63.968745
  0
LINE
  8
ボルト／ビス
  6
CONTINUOUS
 62
    64
 10
-97.521748
 20
-63.939737
 11
-97.409428
 21
-64.16329
  0
CIRCLE
  8
ボルト／ビス
  6
CONTINUOUS
 62
    64
 10
-97.271983
 20
-63.95424
 40
0.216668
  0
ENDBLK
  0
BLOCK
  2
*GRP_0022
 70
    65
 10
0.0
 20
0.0
  0
LINE
  8
補助線
  6
BYBLOCK
 62
    64
 10
-97.346445
 20
-73.883543
 11
-97.19752
 21
-73.958367
  0
LINE
  8
補助線
  6
BYBLOCK
 62
    64
 10
-97.23457
 20
-73.84649
 11
-97.309395
 21
-73.995417
  0
LINE
  8
補助線
  6
BYBLOCK
 62
    64
 10
-107.264925
 20
-68.900185
 11
-107.115997
 21
-68.97501
  0
LINE
  8
補助線
  6
BYBLOCK
 62
    64
 10
-107.153047
 20
-68.863133
 11
-107.227873
 21
-69.01206
  0
LINE
  8
補助線
  6
BYBLOCK
 62
    64
 10
-117.034475
 20
-63.991652
 11
-117.183403
 21
-63.916827
  0
LINE
  8
補助線
  6
BYBLOCK
 62
    64
 10
-117.071525
 20
-63.879775
 11
-117.14635
 21
-64.028702
  0
LINE
  8
型材断面
  6
CONTINUOUS
 10
-96.600005
 20
-73.325978
 11
-96.377703
 21
-73.99723
  0
LINE
  8
型材断面
  6
CONTINUOUS
 10
-96.377703
 20
-73.99723
 11
-96.677005
 21
-74.592935
  0
LINE
  8
型材断面
  6
CONTINUOUS
 10
-96.677005
 20
-74.592935
 11
-97.348258
 21
-74.815237
  0
LINE
  8
型材断面
  6
CONTINUOUS
 10
-117.032662
 20
-63.05996
 11
-117.703917
 21
-63.282262
  0
LINE
  8
型材断面
  6
CONTINUOUS
 10
-117.703917
 20
-63.282262
 11
-118.00322
 21
-63.877967
  0
LINE
  8
型材断面
  6
CONTINUOUS
 10
-118.00322
 20
-63.877967
 11
-117.780915
 21
-64.54922
  0
LINE
  8
型材断面
  6
CONTINUOUS
 10
-96.600005
 20
-73.325978
 11
-117.032662
 21
-63.05996
  0
LINE
  8
型材断面
  6
CONTINUOUS
 10
-97.348258
 20
-74.815237
 11
-117.780915
 21
-64.54922
  0
CIRCLE
  8
ボルト／ビス
  6
CONTINUOUS
 10
-97.271983
 20
-73.920955
 40
0.250185
  0
CIRCLE
  8
ボルト／ビス
  6
CONTINUOUS
 10
-97.271983
 20
-73.920955
 40
0.301025
  0
LINE
  8
ボルト／ビス
  6
CONTINUOUS
 62
    64
 10
-97.022217
 20
-73.906452
 11
-97.159663
 21
-73.697403
  0
LINE
  8
ボルト／ビス
  6
CONTINUOUS
 62
    64
 10
-97.409428
 20
-73.711905
 11
-97.159663
 21
-73.697403
  0
LINE
  8
ボルト／ビス
  6
CONTINUOUS
 62
    64
 10
-97.134537
 20
-74.130005
 11
-97.384303
 21
-74.144507
  0
LINE
  8
ボルト／ビス
  6
CONTINUOUS
 62
    64
 10
-97.521748
 20
-73.935458
 11
-97.384303
 21
-74.144507
  0
LINE
  8
ボルト／ビス
  6
CONTINUOUS
 62
    64
 10
-97.022217
 20
-73.906452
 11
-97.134537
 21
-74.130005
  0
LINE
  8
ボルト／ビス
  6
CONTINUOUS
 62
    64
 10
-97.409428
 20
-73.711905
 11
-97.521748
 21
-73.935458
  0
CIRCLE
  8
ボルト／ビス
  6
CONTINUOUS
 62
    64
 10
-97.271983
 20
-73.920955
 40
0.216668
  0
CIRCLE
  8
ボルト／ビス
  6
CONTINUOUS
 10
-107.19046
 20
-68.937597
 40
0.250185
  0
CIRCLE
  8
ボルト／ビス
  6
CONTINUOUS
 10
-107.19046
 20
-68.937597
 40
0.301025
  0
LINE
  8
ボルト／ビス
  6
CONTINUOUS
 62
    64
 10
-106.940695
 20
-68.923092
 11
-107.07814
 21
-68.714042
  0
LINE
  8
ボルト／ビス
  6
CONTINUOUS
 62
    64
 10
-107.327905
 20
-68.728545
 11
-107.07814
 21
-68.714042
  0
LINE
  8
ボルト／ビス
  6
CONTINUOUS
 62
    64
 10
-107.053015
 20
-69.146648
 11
-107.302783
 21
-69.161153
  0
LINE
  8
ボルト／ビス
  6
CONTINUOUS
 62
    64
 10
-107.440225
 20
-68.952102
 11
-107.302783
 21
-69.161153
  0
LINE
  8
ボルト／ビス
  6
CONTINUOUS
 62
    64
 10
-106.940695
 20
-68.923092
 11
-107.053015
 21
-69.146648
  0
LINE
  8
ボルト／ビス
  6
CONTINUOUS
 62
    64
 10
-107.327905
 20
-68.728545
 11
-107.440225
 21
-68.952102
  0
CIRCLE
  8
ボルト／ビス
  6
CONTINUOUS
 62
    64
 10
-107.19046
 20
-68.937597
 40
0.216668
  0
CIRCLE
  8
ボルト／ビス
  6
CONTINUOUS
 10
-117.108937
 20
-63.95424
 40
0.250185
  0
CIRCLE
  8
ボルト／ビス
  6
CONTINUOUS
 10
-117.108937
 20
-63.95424
 40
0.301025
  0
LINE
  8
ボルト／ビス
  6
CONTINUOUS
 62
    64
 10
-117.246382
 20
-63.74519
 11
-116.996617
 21
-63.730688
  0
LINE
  8
ボルト／ビス
  6
CONTINUOUS
 62
    64
 10
-116.859173
 20
-63.939737
 11
-116.996617
 21
-63.730688
  0
LINE
  8
ボルト／ビス
  6
CONTINUOUS
 62
    64
 10
-117.358702
 20
-63.968745
 11
-117.22126
 21
-64.177793
  0
LINE
  8
ボルト／ビス
  6
CONTINUOUS
 62
    64
 10
-116.971493
 20
-64.16329
 11
-117.22126
 21
-64.177793
  0
LINE
  8
ボルト／ビス
  6
CONTINUOUS
 62
    64
 10
-117.246382
 20
-63.74519
 11
-117.358702
 21
-63.968745
  0
LINE
  8
ボルト／ビス
  6
CONTINUOUS
 62
    64
 10
-116.859173
 20
-63.939737
 11
-116.971493
 21
-64.16329
  0
CIRCLE
  8
ボルト／ビス
  6
CONTINUOUS
 62
    64
 10
-117.108937
 20
-63.95424
 40
0.216668
  0
ENDBLK
  0
BLOCK
  2
*GRP_0023
 70
    65
 10
0.0
 20
0.0
  0
LINE
  8
補助線
  6
BYBLOCK
 62
    64
 10
42.8166
 20
-73.883543
 11
42.965525
 21
-73.958367
  0
LINE
  8
補助線
  6
BYBLOCK
 62
    64
 10
42.928475
 20
-73.84649
 11
42.85365
 21
-73.995417
  0
LINE
  8
補助線
  6
BYBLOCK
 62
    64
 10
32.89812
 20
-68.900185
 11
33.047048
 21
-68.97501
  0
LINE
  8
補助線
  6
BYBLOCK
 62
    64
 10
33.009997
 20
-68.863133
 11
32.935173
 21
-69.01206
  0
LINE
  8
補助線
  6
BYBLOCK
 62
    64
 10
23.12857
 20
-63.991652
 11
22.979643
 21
-63.916827
  0
LINE
  8
補助線
  6
BYBLOCK
 62
    64
 10
23.09152
 20
-63.879775
 11
23.016695
 21
-64.028702
  0
LINE
  8
型材断面
  6
CONTINUOUS
 10
43.56304
 20
-73.325978
 11
43.785342
 21
-73.99723
  0
LINE
  8
型材断面
  6
CONTINUOUS
 10
43.785342
 20
-73.99723
 11
43.48604
 21
-74.592935
  0
LINE
  8
型材断面
  6
CONTINUOUS
 10
43.48604
 20
-74.592935
 11
42.814788
 21
-74.815237
  0
LINE
  8
型材断面
  6
CONTINUOUS
 10
23.130383
 20
-63.05996
 11
22.459128
 21
-63.282262
  0
LINE
  8
型材断面
  6
CONTINUOUS
 10
22.459128
 20
-63.282262
 11
22.159825
 21
-63.877967
  0
LINE
  8
型材断面
  6
CONTINUOUS
 10
22.159825
 20
-63.877967
 11
22.38213
 21
-64.54922
  0
LINE
  8
型材断面
  6
CONTINUOUS
 10
43.56304
 20
-73.325978
 11
23.130383
 21
-63.05996
  0
LINE
  8
型材断面
  6
CONTINUOUS
 10
42.814788
 20
-74.815237
 11
22.38213
 21
-64.54922
  0
CIRCLE
  8
ボルト／ビス
  6
CONTINUOUS
 10
42.891063
 20
-73.920955
 40
0.250185
  0
CIRCLE
  8
ボルト／ビス
  6
CONTINUOUS
 10
42.891063
 20
-73.920955
 40
0.301025
  0
LINE
  8
ボルト／ビス
  6
CONTINUOUS
 62
    64
 10
43.140827
 20
-73.906452
 11
43.003383
 21
-73.697403
  0
LINE
  8
ボルト／ビス
  6
CONTINUOUS
 62
    64
 10
42.753617
 20
-73.711905
 11
43.003383
 21
-73.697403
  0
LINE
  8
ボルト／ビス
  6
CONTINUOUS
 62
    64
 10
43.028507
 20
-74.130005
 11
42.778743
 21
-74.144507
  0
LINE
  8
ボルト／ビス
  6
CONTINUOUS
 62
    64
 10
42.641297
 20
-73.935458
 11
42.778743
 21
-74.144507
  0
LINE
  8
ボルト／ビス
  6
CONTINUOUS
 62
    64
 10
43.140827
 20
-73.906452
 11
43.028507
 21
-74.130005
  0
LINE
  8
ボルト／ビス
  6
CONTINUOUS
 62
    64
 10
42.753617
 20
-73.711905
 11
42.641297
 21
-73.935458
  0
CIRCLE
  8
ボルト／ビス
  6
CONTINUOUS
 62
    64
 10
42.891063
 20
-73.920955
 40
0.216668
  0
CIRCLE
  8
ボルト／ビス
  6
CONTINUOUS
 10
32.972585
 20
-68.937597
 40
0.250185
  0
CIRCLE
  8
ボルト／ビス
  6
CONTINUOUS
 10
32.972585
 20
-68.937597
 40
0.301025
  0
LINE
  8
ボルト／ビス
  6
CONTINUOUS
 62
    64
 10
33.22235
 20
-68.923092
 11
33.084905
 21
-68.714042
  0
LINE
  8
ボルト／ビス
  6
CONTINUOUS
 62
    64
 10
32.83514
 20
-68.728545
 11
33.084905
 21
-68.714042
  0
LINE
  8
ボルト／ビス
  6
CONTINUOUS
 62
    64
 10
33.11003
 20
-69.146648
 11
32.860262
 21
-69.161153
  0
LINE
  8
ボルト／ビス
  6
CONTINUOUS
 62
    64
 10
32.72282
 20
-68.952102
 11
32.860262
 21
-69.161153
  0
LINE
  8
ボルト／ビス
  6
CONTINUOUS
 62
    64
 10
33.22235
 20
-68.923092
 11
33.11003
 21
-69.146648
  0
LINE
  8
ボルト／ビス
  6
CONTINUOUS
 62
    64
 10
32.83514
 20
-68.728545
 11
32.72282
 21
-68.952102
  0
CIRCLE
  8
ボルト／ビス
  6
CONTINUOUS
 62
    64
 10
32.972585
 20
-68.937597
 40
0.216668
  0
CIRCLE
  8
ボルト／ビス
  6
CONTINUOUS
 10
23.054107
 20
-63.95424
 40
0.250185
  0
CIRCLE
  8
ボルト／ビス
  6
CONTINUOUS
 10
23.054107
 20
-63.95424
 40
0.301025
  0
LINE
  8
ボルト／ビス
  6
CONTINUOUS
 62
    64
 10
22.916662
 20
-63.74519
 11
23.166427
 21
-63.730688
  0
LINE
  8
ボルト／ビス
  6
CONTINUOUS
 62
    64
 10
23.303873
 20
-63.939737
 11
23.166427
 21
-63.730688
  0
LINE
  8
ボルト／ビス
  6
CONTINUOUS
 62
    64
 10
22.804342
 20
-63.968745
 11
22.941785
 21
-64.177793
  0
LINE
  8
ボルト／ビス
  6
CONTINUOUS
 62
    64
 10
23.191553
 20
-64.16329
 11
22.941785
 21
-64.177793
  0
LINE
  8
ボルト／ビス
  6
CONTINUOUS
 62
    64
 10
22.916662
 20
-63.74519
 11
22.804342
 21
-63.968745
  0
LINE
  8
ボルト／ビス
  6
CONTINUOUS
 62
    64
 10
23.303873
 20
-63.939737
 11
23.191553
 21
-64.16329
  0
CIRCLE
  8
ボルト／ビス
  6
CONTINUOUS
 62
    64
 10
23.054107
 20
-63.95424
 40
0.216668
  0
ENDBLK
  0
BLOCK
  2
*GRP_0024
 70
    65
 10
0.0
 20
0.0
  0
LINE
  8
補助線
  6
BYBLOCK
 62
    64
 10
23.12857
 20
-73.883543
 11
22.979645
 21
-73.958367
  0
LINE
  8
補助線
  6
BYBLOCK
 62
    64
 10
23.016695
 20
-73.84649
 11
23.09152
 21
-73.995417
  0
LINE
  8
補助線
  6
BYBLOCK
 62
    64
 10
33.04705
 20
-68.900185
 11
32.898122
 21
-68.97501
  0
LINE
  8
補助線
  6
BYBLOCK
 62
    64
 10
32.935173
 20
-68.863133
 11
33.009997
 21
-69.01206
  0
LINE
  8
補助線
  6
BYBLOCK
 62
    64
 10
42.8166
 20
-63.991652
 11
42.965527
 21
-63.916827
  0
LINE
  8
補助線
  6
BYBLOCK
 62
    64
 10
42.85365
 20
-63.879775
 11
42.928475
 21
-64.028702
  0
LINE
  8
型材断面
  6
CONTINUOUS
 10
22.38213
 20
-73.325978
 11
22.159828
 21
-73.99723
  0
LINE
  8
型材断面
  6
CONTINUOUS
 10
22.159828
 20
-73.99723
 11
22.45913
 21
-74.592935
  0
LINE
  8
型材断面
  6
CONTINUOUS
 10
22.45913
 20
-74.592935
 11
23.130383
 21
-74.815237
  0
LINE
  8
型材断面
  6
CONTINUOUS
 10
42.814788
 20
-63.05996
 11
43.486043
 21
-63.282262
  0
LINE
  8
型材断面
  6
CONTINUOUS
 10
43.486043
 20
-63.282262
 11
43.785345
 21
-63.877967
  0
LINE
  8
型材断面
  6
CONTINUOUS
 10
43.785345
 20
-63.877967
 11
43.56304
 21
-64.54922
  0
LINE
  8
型材断面
  6
CONTINUOUS
 10
22.38213
 20
-73.325978
 11
42.814788
 21
-63.05996
  0
LINE
  8
型材断面
  6
CONTINUOUS
 10
23.130383
 20
-74.815237
 11
43.56304
 21
-64.54922
  0
CIRCLE
  8
ボルト／ビス
  6
CONTINUOUS
 10
23.054107
 20
-73.920955
 40
0.250185
  0
CIRCLE
  8
ボルト／ビス
  6
CONTINUOUS
 10
23.054107
 20
-73.920955
 40
0.301025
  0
LINE
  8
ボルト／ビス
  6
CONTINUOUS
 62
    64
 10
22.804342
 20
-73.906452
 11
22.941787
 21
-73.697403
  0
LINE
  8
ボルト／ビス
  6
CONTINUOUS
 62
    64
 10
23.191553
 20
-73.711905
 11
22.941787
 21
-73.697403
  0
LINE
  8
ボルト／ビス
  6
CONTINUOUS
 62
    64
 10
22.916662
 20
-74.130005
 11
23.166427
 21
-74.144507
  0
LINE
  8
ボルト／ビス
  6
CONTINUOUS
 62
    64
 10
23.303873
 20
-73.935458
 11
23.166427
 21
-74.144507
  0
LINE
  8
ボルト／ビス
  6
CONTINUOUS
 62
    64
 10
22.804342
 20
-73.906452
 11
22.916662
 21
-74.130005
  0
LINE
  8
ボルト／ビス
  6
CONTINUOUS
 62
    64
 10
23.191553
 20
-73.711905
 11
23.303873
 21
-73.935458
  0
CIRCLE
  8
ボルト／ビス
  6
CONTINUOUS
 62
    64
 10
23.054107
 20
-73.920955
 40
0.216668
  0
CIRCLE
  8
ボルト／ビス
  6
CONTINUOUS
 10
32.972585
 20
-68.937597
 40
0.250185
  0
CIRCLE
  8
ボルト／ビス
  6
CONTINUOUS
 10
32.972585
 20
-68.937597
 40
0.301025
  0
LINE
  8
ボルト／ビス
  6
CONTINUOUS
 62
    64
 10
32.72282
 20
-68.923092
 11
32.860265
 21
-68.714042
  0
LINE
  8
ボルト／ビス
  6
CONTINUOUS
 62
    64
 10
33.11003
 20
-68.728545
 11
32.860265
 21
-68.714042
  0
LINE
  8
ボルト／ビス
  6
CONTINUOUS
 62
    64
 10
32.83514
 20
-69.146648
 11
33.084908
 21
-69.161153
  0
LINE
  8
ボルト／ビス
  6
CONTINUOUS
 62
    64
 10
33.22235
 20
-68.952102
 11
33.084908
 21
-69.161153
  0
LINE
  8
ボルト／ビス
  6
CONTINUOUS
 62
    64
 10
32.72282
 20
-68.923092
 11
32.83514
 21
-69.146648
  0
LINE
  8
ボルト／ビス
  6
CONTINUOUS
 62
    64
 10
33.11003
 20
-68.728545
 11
33.22235
 21
-68.952102
  0
CIRCLE
  8
ボルト／ビス
  6
CONTINUOUS
 62
    64
 10
32.972585
 20
-68.937597
 40
0.216668
  0
CIRCLE
  8
ボルト／ビス
  6
CONTINUOUS
 10
42.891063
 20
-63.95424
 40
0.250185
  0
CIRCLE
  8
ボルト／ビス
  6
CONTINUOUS
 10
42.891063
 20
-63.95424
 40
0.301025
  0
LINE
  8
ボルト／ビス
  6
CONTINUOUS
 62
    64
 10
43.028507
 20
-63.74519
 11
42.778743
 21
-63.730688
  0
LINE
  8
ボルト／ビス
  6
CONTINUOUS
 62
    64
 10
42.641297
 20
-63.939737
 11
42.778743
 21
-63.730688
  0
LINE
  8
ボルト／ビス
  6
CONTINUOUS
 62
    64
 10
43.140827
 20
-63.968745
 11
43.003385
 21
-64.177793
  0
LINE
  8
ボルト／ビス
  6
CONTINUOUS
 62
    64
 10
42.753617
 20
-64.16329
 11
43.003385
 21
-64.177793
  0
LINE
  8
ボルト／ビス
  6
CONTINUOUS
 62
    64
 10
43.028507
 20
-63.74519
 11
43.140827
 21
-63.968745
  0
LINE
  8
ボルト／ビス
  6
CONTINUOUS
 62
    64
 10
42.641297
 20
-63.939737
 11
42.753617
 21
-64.16329
  0
CIRCLE
  8
ボルト／ビス
  6
CONTINUOUS
 62
    64
 10
42.891063
 20
-63.95424
 40
0.216668
  0
ENDBLK
  0
BLOCK
  2
*DIM_0025
 70
    65
 10
0.0
 20
0.0
  0
LINE
  8
寸法
  6
CONTINUOUS
 10
59.459637
 20
-68.344237
 11
59.459637
 21
-75.994287
  0
POINT
  8
寸法
 10
59.459637
 20
-68.344237
  0
POINT
  8
寸法
 10
59.459637
 20
-75.994287
  0
TEXT
  7
TextStyle03
  8
寸法
  6
CONTINUOUS
 10
63.525
 20
-76.275
  1
229.5
 40
3.0
 50
90.0
 72
     5
 11
63.525
 21
-68.025
  0
ENDBLK
  0
BLOCK
  2
*DIM_0026
 70
    65
 10
0.0
 20
0.0
  0
LINE
  8
寸法
  6
CONTINUOUS
 10
141.310947
 20
-55.635042
 11
109.04428
 21
-55.635042
  0
POINT
  8
寸法
 10
141.310947
 20
-55.635042
  0
POINT
  8
寸法
 10
109.04428
 20
-55.635042
  0
TEXT
  7
TextStyle03
  8
寸法
  6
CONTINUOUS
 10
122.7375
 20
-55.3
  1
968
 40
3.0
 72
     5
 11
127.6125
 21
-55.3
  0
ENDBLK
  0
BLOCK
  2
*DIM_0027
 70
    65
 10
0.0
 20
0.0
  0
LINE
  8
寸法
  6
BYBLOCK
 62
     0
 10
59.459637
 20
-68.344237
 11
59.459637
 21
-61.010905
  0
POINT
  8
寸法
 62
     0
 10
59.459637
 20
-68.344237
  0
POINT
  8
寸法
 62
     0
 10
59.459637
 20
-61.010905
  0
TEXT
  7
TextStyle03
  8
寸法
  6
CONTINUOUS
 62
     0
 10
59.7
 20
-58.54375
  1
上昇207以上
 40
3.0
 50
90.0
 72
     5
 11
59.7
 21
-40.35625
  0
ENDBLK
  0
ENDSEC
  0
SECTION
  2
ENTITIES
  0
POLYLINE
  8
通り芯
  6
CONTINUOUS
 66
     1
 70
     1
  0
VERTEX
  8
通り芯
 10
-210.0
 20
-148.5
  0
VERTEX
  8
通り芯
 10
210.0
 20
-148.5
  0
VERTEX
  8
通り芯
 10
210.0
 20
148.5
  0
VERTEX
  8
通り芯
 10
-210.0
 20
148.5
  0
SEQEND
  0
INSERT
  2
*GRP_0001
  8
型材断面
  6
CONTINUOUS
 10
0.0
 20
0.0
  0
LINE
  8
型材断面
  6
DASHDOT
 10
46.224393
 20
-77.836442
 11
46.224393
 21
42.814033
  0
LINE
  8
型材断面
  6
DASHDOT
 10
-37.10894
 20
-77.836442
 11
-37.10894
 21
42.814033
  0
LINE
  8
型材断面
  6
DASHDOT
 10
-120.442275
 20
-77.836442
 11
-120.442275
 21
42.814033
  0
LINE
  8
型材断面
  6
DASHDOT
 10
143.901155
 20
22.814033
 11
-120.442275
 21
22.814033
  0
LINE
  8
型材断面
  6
DASHDOT
 10
143.901155
 20
32.814033
 11
-120.442275
 21
32.814033
  0
LINE
  8
型材断面
  6
DASHDOT
 10
143.901155
 20
42.814033
 11
-120.442275
 21
42.814033
  0
POLYLINE
  8
型材断面
  6
CONTINUOUS
 66
     1
 70
     1
  0
VERTEX
  8
型材断面
 10
-27.309977
 20
13.03811
  0
VERTEX
  8
型材断面
 10
-46.081908
 20
13.03811
  0
VERTEX
  8
型材断面
 10
-46.081908
 20
8.301267
  0
VERTEX
  8
型材断面
 10
-27.309977
 20
8.301267
  0
SEQEND
  0
POLYLINE
  8
型材断面
  6
CONTINUOUS
 66
     1
 70
     1
  0
VERTEX
  8
型材断面
 10
-27.309977
 20
52.589955
  0
VERTEX
  8
型材断面
 10
-46.081908
 20
52.589955
  0
VERTEX
  8
型材断面
 10
-46.081908
 20
57.326798
  0
VERTEX
  8
型材断面
 10
-27.309977
 20
57.326798
  0
SEQEND
  0
LINE
  8
型材断面
  6
CONTINUOUS
 10
-103.775608
 20
45.444162
 11
-105.271238
 21
48.03467
  0
LINE
  8
型材断面
  6
CONTINUOUS
 10
-103.775608
 20
45.444162
 11
-102.279978
 21
48.03467
  0
LINE
  8
型材断面
  6
CONTINUOUS
 10
-102.279978
 20
48.03467
 11
-105.271238
 21
48.03467
  0
LINE
  8
型材断面
  6
CONTINUOUS
 10
-161.294482
 20
80.791505
 11
-160.698427
 21
78.200998
  0
LINE
  8
型材断面
  6
CONTINUOUS
 10
-161.294482
 20
80.791505
 11
-161.89054
 21
78.200998
  0
LINE
  8
型材断面
  6
CONTINUOUS
 10
-161.89054
 20
78.200998
 11
-160.698427
 21
78.200998
  0
LINE
  8
型材断面
  6
CONTINUOUS
 10
-167.31707
 20
74.922105
 11
-121.075292
 21
74.922105
  0
LINE
  8
型材断面
  6
CONTINUOUS
 10
-161.294482
 20
87.32138
 11
-162.790113
 21
84.730873
  0
LINE
  8
型材断面
  6
CONTINUOUS
 10
-161.294482
 20
87.32138
 11
-159.798852
 21
84.730873
  0
LINE
  8
型材断面
  6
CONTINUOUS
 10
-159.798852
 20
84.730873
 11
-162.790113
 21
84.730873
  0
LINE
  8
型材断面
  6
CONTINUOUS
 10
-167.31707
 20
83.792277
 11
-121.075292
 21
83.792277
  0
LINE
  8
型材断面
  6
CONTINUOUS
 10
-167.31707
 20
69.134073
 11
-121.075292
 21
69.134073
  0
LINE
  8
型材断面
  6
CONTINUOUS
 10
-123.072405
 20
32.814033
 11
-125.662913
 21
34.309663
  0
LINE
  8
型材断面
  6
CONTINUOUS
 10
-123.072405
 20
32.814033
 11
-125.662913
 21
31.318403
  0
LINE
  8
型材断面
  6
CONTINUOUS
 10
-125.662913
 20
31.318403
 11
-125.662913
 21
34.309663
  0
LINE
  8
型材断面
  6
CONTINUOUS
 10
-103.775608
 20
20.183902
 11
-105.271238
 21
17.593395
  0
LINE
  8
型材断面
  6
CONTINUOUS
 10
-103.775608
 20
20.183902
 11
-102.279978
 21
17.593395
  0
LINE
  8
型材断面
  6
CONTINUOUS
 10
-102.279978
 20
17.593395
 11
-105.271238
 21
17.593395
  0
LINE
  8
型材断面
  6
CONTINUOUS
 10
29.557727
 20
45.444162
 11
31.053357
 21
48.03467
  0
LINE
  8
型材断面
  6
CONTINUOUS
 10
29.557727
 20
45.444162
 11
28.062097
 21
48.03467
  0
LINE
  8
型材断面
  6
CONTINUOUS
 10
28.062097
 20
48.03467
 11
31.053357
 21
48.03467
  0
LINE
  8
型材断面
  6
CONTINUOUS
 10
48.854525
 20
32.814033
 11
51.445032
 21
34.309663
  0
LINE
  8
型材断面
  6
CONTINUOUS
 10
48.854525
 20
32.814033
 11
51.445032
 21
31.318403
  0
LINE
  8
型材断面
  6
CONTINUOUS
 10
51.445032
 20
31.318403
 11
51.445032
 21
34.309663
  0
LINE
  8
型材断面
  6
CONTINUOUS
 10
29.557727
 20
20.183902
 11
31.053357
 21
17.593395
  0
LINE
  8
型材断面
  6
CONTINUOUS
 10
29.557727
 20
20.183902
 11
28.062097
 21
17.593395
  0
LINE
  8
型材断面
  6
CONTINUOUS
 10
28.062097
 20
17.593395
 11
31.053357
 21
17.593395
  0
LINE
  8
型材断面
  6
CONTINUOUS
 10
-37.10894
 20
45.44416
 11
-35.61331
 21
48.034668
  0
LINE
  8
型材断面
  6
CONTINUOUS
 10
-37.10894
 20
45.44416
 11
-38.60457
 21
48.034668
  0
LINE
  8
型材断面
  6
CONTINUOUS
 10
-38.60457
 20
48.034668
 11
-35.61331
 21
48.034668
  0
LINE
  8
型材断面
  6
CONTINUOUS
 10
-37.10894
 20
20.1839
 11
-35.61331
 21
17.593392
  0
LINE
  8
型材断面
  6
CONTINUOUS
 10
-37.10894
 20
20.1839
 11
-38.60457
 21
17.593392
  0
LINE
  8
型材断面
  6
CONTINUOUS
 10
-38.60457
 20
17.593392
 11
-35.61331
 21
17.593392
  0
LINE
  8
型材断面
  6
CONTINUOUS
 10
48.854522
 20
39.114035
 11
51.445032
 21
38.517982
  0
LINE
  8
型材断面
  6
CONTINUOUS
 10
48.854522
 20
39.114035
 11
51.44503
 21
39.710095
  0
LINE
  8
型材断面
  6
CONTINUOUS
 10
51.44503
 20
39.710095
 11
51.445032
 21
38.517982
  0
LINE
  8
型材断面
  6
CONTINUOUS
 10
48.854522
 20
26.51403
 11
51.445032
 21
27.110082
  0
LINE
  8
型材断面
  6
CONTINUOUS
 10
48.854522
 20
26.51403
 11
51.44503
 21
25.91797
  0
LINE
  8
型材断面
  6
CONTINUOUS
 10
51.44503
 20
25.91797
 11
51.445032
 21
27.110082
  0
LINE
  8
型材断面
  6
CONTINUOUS
 10
-123.072403
 20
39.114035
 11
-125.662913
 21
38.517982
  0
LINE
  8
型材断面
  6
CONTINUOUS
 10
-123.072403
 20
39.114035
 11
-125.66291
 21
39.710095
  0
LINE
  8
型材断面
  6
CONTINUOUS
 10
-125.66291
 20
39.710095
 11
-125.662913
 21
38.517982
  0
LINE
  8
型材断面
  6
CONTINUOUS
 10
-123.072403
 20
26.51403
 11
-125.662913
 21
27.110082
  0
LINE
  8
型材断面
  6
CONTINUOUS
 10
-123.072403
 20
26.51403
 11
-125.66291
 21
25.91797
  0
LINE
  8
型材断面
  6
CONTINUOUS
 10
-125.66291
 20
25.91797
 11
-125.662913
 21
27.110082
  0
LINE
  8
型材断面
  6
CONTINUOUS
 10
-122.42546
 20
20.830853
 11
-37.10894
 21
20.830853
  0
LINE
  8
型材断面
  6
CONTINUOUS
 10
-122.42546
 20
44.797213
 11
-37.10894
 21
44.797213
  0
LINE
  8
型材断面
  6
CONTINUOUS
 10
48.20758
 20
44.797213
 11
-37.10894
 21
44.797213
  0
LINE
  8
型材断面
  6
CONTINUOUS
 10
48.20758
 20
20.830853
 11
-37.10894
 21
20.830853
  0
LINE
  8
型材断面
  6
CONTINUOUS
 10
-167.31707
 20
63.34604
 11
-121.075292
 21
63.34604
  0
LINE
  8
型材断面
  6
CONTINUOUS
 10
135.264567
 20
44.370552
 11
135.264567
 21
32.814033
  0
LINE
  8
型材断面
  6
CONTINUOUS
 10
135.0979
 20
32.814033
 11
135.0979
 21
44.21403
  0
LINE
  8
型材断面
  6
CONTINUOUS
 10
136.764567
 20
32.814033
 11
136.764567
 21
44.21403
  0
ARC
  8
型材断面
  6
CONTINUOUS
 62
    47
 10
139.214562
 20
44.797368
 40
0.016668
 50
90.0
 51
180.000877
  0
ARC
  8
型材断面
  6
CONTINUOUS
 62
    47
 10
139.254563
 20
44.804034
 40
0.010002
 50
0.208374
 51
90.0
  0
LINE
  8
型材断面
  6
CONTINUOUS
 62
    47
 10
139.431283
 20
44.76403
 11
139.431283
 21
43.913885
  0
LINE
  8
型材断面
  6
CONTINUOUS
 10
139.431283
 20
32.814033
 11
139.431283
 21
44.797365
  0
LINE
  8
型材断面
  6
CONTINUOUS
 10
142.74795
 20
32.814033
 11
142.74795
 21
44.797365
  0
LINE
  8
型材断面
  6
CONTINUOUS
 10
143.24795
 20
32.814033
 11
143.24795
 21
44.297365
  0
LINE
  8
型材断面
  6
CONTINUOUS
 62
    47
 10
139.197895
 20
44.79737
 11
137.091235
 21
44.79737
  0
LINE
  8
型材断面
  6
CONTINUOUS
 10
137.091235
 20
32.814033
 11
137.091235
 21
44.79737
  0
LINE
  8
型材断面
  6
CONTINUOUS
 62
    47
 10
139.431283
 20
44.797365
 11
142.74795
 21
44.797365
  0
LINE
  8
型材断面
  6
CONTINUOUS
 62
    47
 10
143.24795
 20
44.297365
 11
142.74795
 21
44.297365
  0
LINE
  8
型材断面
  6
CONTINUOUS
 62
    47
 10
137.091235
 20
43.91403
 11
136.764567
 21
43.91403
  0
LINE
  8
型材断面
  6
CONTINUOUS
 10
135.264567
 20
21.257512
 11
135.264567
 21
32.814033
  0
LINE
  8
型材断面
  6
CONTINUOUS
 10
135.0979
 20
32.814033
 11
135.0979
 21
21.414035
  0
LINE
  8
型材断面
  6
CONTINUOUS
 10
136.764567
 20
32.814033
 11
136.764567
 21
21.414035
  0
ARC
  8
型材断面
  6
CONTINUOUS
 62
    47
 10
139.214562
 20
20.830696
 40
0.016668
 50
179.999123
 51
270.0
  0
ARC
  8
型材断面
  6
CONTINUOUS
 62
    47
 10
139.254563
 20
20.82403
 40
0.010002
 50
270.0
 51
359.791626
  0
LINE
  8
型材断面
  6
CONTINUOUS
 62
    47
 10
139.431283
 20
20.864035
 11
139.431283
 21
21.71418
  0
LINE
  8
型材断面
  6
CONTINUOUS
 10
139.431283
 20
32.814033
 11
139.431283
 21
20.8307
  0
LINE
  8
型材断面
  6
CONTINUOUS
 10
142.74795
 20
32.814033
 11
142.74795
 21
20.8307
  0
LINE
  8
型材断面
  6
CONTINUOUS
 10
143.24795
 20
32.814033
 11
143.24795
 21
21.3307
  0
LINE
  8
型材断面
  6
CONTINUOUS
 62
    47
 10
139.197895
 20
20.830695
 11
137.091235
 21
20.830695
  0
LINE
  8
型材断面
  6
CONTINUOUS
 10
137.091235
 20
32.814033
 11
137.091235
 21
20.830695
  0
LINE
  8
型材断面
  6
CONTINUOUS
 62
    47
 10
139.431283
 20
20.8307
 11
142.74795
 21
20.8307
  0
LINE
  8
型材断面
  6
CONTINUOUS
 62
    47
 10
143.24795
 20
21.3307
 11
142.74795
 21
21.3307
  0
LINE
  8
型材断面
  6
CONTINUOUS
 62
    47
 10
137.091235
 20
21.714035
 11
136.764567
 21
21.714035
  0
LINE
  8
型材断面
  6
CONTINUOUS
 10
139.264567
 20
32.814033
 11
139.264567
 21
44.804035
  0
LINE
  8
型材断面
  6
CONTINUOUS
 62
    47
 10
139.214562
 20
44.81403
 11
139.254222
 21
44.81403
  0
LINE
  8
型材断面
  6
CONTINUOUS
 62
    47
 10
139.214562
 20
20.814035
 11
139.254222
 21
20.814035
  0
LINE
  8
型材断面
  6
CONTINUOUS
 10
139.264567
 20
32.814033
 11
139.264567
 21
20.82403
  0
ARC
  8
型材断面
  6
CONTINUOUS
 62
    47
 10
-122.425611
 20
-72.460901
 40
0.016668
 50
89.999123
 51
180.0
  0
ARC
  8
型材断面
  6
CONTINUOUS
 62
    47
 10
-122.432277
 20
-72.500903
 40
0.010002
 50
180.0
 51
269.791626
  0
LINE
  8
型材断面
  6
CONTINUOUS
 62
    47
 10
-122.392273
 20
-72.677622
 11
-121.542125
 21
-72.677622
  0
LINE
  8
型材断面
  6
CONTINUOUS
 62
    47
 10
-122.42561
 20
-72.444232
 11
-122.42561
 21
-70.337572
  0
LINE
  8
型材断面
  6
CONTINUOUS
 62
    47
 10
-122.425605
 20
-72.677622
 11
-122.425605
 21
-75.994287
  0
LINE
  8
型材断面
  6
CONTINUOUS
 62
    47
 10
-121.925605
 20
-76.494287
 11
-121.925605
 21
-75.994287
  0
LINE
  8
型材断面
  6
CONTINUOUS
 62
    47
 10
-121.54227
 20
-70.337572
 11
-121.54227
 21
-70.010905
  0
LINE
  8
型材断面
  6
CONTINUOUS
 62
    47
 10
-122.442273
 20
-72.4609
 11
-122.442273
 21
-72.50056
  0
ARC
  8
型材断面
  6
CONTINUOUS
 62
    47
 10
48.207729
 20
-72.460901
 40
0.016668
 50
0.0
 51
90.000877
  0
ARC
  8
型材断面
  6
CONTINUOUS
 62
    47
 10
48.214395
 20
-72.500903
 40
0.010002
 50
270.208374
 51
360.0
  0
LINE
  8
型材断面
  6
CONTINUOUS
 62
    47
 10
48.17439
 20
-72.677622
 11
47.324245
 21
-72.677622
  0
LINE
  8
型材断面
  6
CONTINUOUS
 62
    47
 10
48.20773
 20
-72.444232
 11
48.20773
 21
-70.337572
  0
LINE
  8
型材断面
  6
CONTINUOUS
 62
    47
 10
48.207725
 20
-72.677622
 11
48.207725
 21
-75.994287
  0
LINE
  8
型材断面
  6
CONTINUOUS
 62
    47
 10
47.707725
 20
-76.494287
 11
47.707725
 21
-75.994287
  0
LINE
  8
型材断面
  6
CONTINUOUS
 62
    47
 10
47.32439
 20
-70.337572
 11
47.32439
 21
-70.010905
  0
LINE
  8
型材断面
  6
CONTINUOUS
 62
    47
 10
48.22439
 20
-72.4609
 11
48.22439
 21
-72.50056
  0
LINE
  8
型材断面
  6
CONTINUOUS
 10
-121.842273
 20
-68.344237
 11
-37.10894
 21
-68.344237
  0
LINE
  8
型材断面
  6
CONTINUOUS
 10
-121.998795
 20
-68.510905
 11
-37.10894
 21
-68.510905
  0
LINE
  8
型材断面
  6
CONTINUOUS
 10
-121.842273
 20
-70.010905
 11
-37.10894
 21
-70.010905
  0
LINE
  8
型材断面
  6
CONTINUOUS
 10
-122.42561
 20
-70.337572
 11
-37.10894
 21
-70.337572
  0
LINE
  8
型材断面
  6
CONTINUOUS
 10
-122.425605
 20
-72.677622
 11
-37.10894
 21
-72.677622
  0
LINE
  8
型材断面
  6
CONTINUOUS
 10
-122.432275
 20
-72.510905
 11
-37.10894
 21
-72.510905
  0
LINE
  8
型材断面
  6
CONTINUOUS
 10
-121.925605
 20
-76.494287
 11
-37.10894
 21
-76.494287
  0
LINE
  8
型材断面
  6
CONTINUOUS
 10
-122.425605
 20
-75.994287
 11
-37.10894
 21
-75.994287
  0
LINE
  8
型材断面
  6
CONTINUOUS
 10
47.62439
 20
-68.344237
 11
-37.10894
 21
-68.344237
  0
LINE
  8
型材断面
  6
CONTINUOUS
 10
47.780912
 20
-68.510905
 11
-37.10894
 21
-68.510905
  0
LINE
  8
型材断面
  6
CONTINUOUS
 10
47.62439
 20
-70.010905
 11
-37.10894
 21
-70.010905
  0
LINE
  8
型材断面
  6
CONTINUOUS
 10
48.20773
 20
-70.337572
 11
-37.10894
 21
-70.337572
  0
LINE
  8
型材断面
  6
CONTINUOUS
 10
48.207725
 20
-72.677622
 11
-37.10894
 21
-72.677622
  0
LINE
  8
型材断面
  6
CONTINUOUS
 10
48.214395
 20
-72.510905
 11
-37.10894
 21
-72.510905
  0
LINE
  8
型材断面
  6
CONTINUOUS
 10
48.207725
 20
-75.994287
 11
-37.10894
 21
-75.994287
  0
LINE
  8
型材断面
  6
CONTINUOUS
 10
47.707725
 20
-76.494287
 11
-37.10894
 21
-76.494287
  0
ARC
  8
型材断面
  6
DOT
 62
    47
 10
-122.425611
 20
-65.127568
 40
0.016668
 50
89.999123
 51
180.0
  0
ARC
  8
型材断面
  6
DOT
 62
    47
 10
-122.432277
 20
-65.167569
 40
0.010002
 50
180.0
 51
269.791626
  0
LINE
  8
型材断面
  6
DOT
 62
    47
 10
-122.42561
 20
-65.1109
 11
-122.42561
 21
-63.00424
  0
LINE
  8
型材断面
  6
DOT
 62
    47
 10
-121.54227
 20
-63.00424
 11
-121.54227
 21
-62.677573
  0
LINE
  8
型材断面
  6
DOT
 62
    47
 10
-122.442273
 20
-65.127567
 11
-122.442273
 21
-65.167227
  0
ARC
  8
型材断面
  6
DOT
 62
    47
 10
48.207729
 20
-65.127568
 40
0.016668
 50
0.0
 51
90.000877
  0
ARC
  8
型材断面
  6
DOT
 62
    47
 10
48.214395
 20
-65.167569
 40
0.010002
 50
270.208374
 51
360.0
  0
LINE
  8
型材断面
  6
DOT
 62
    47
 10
48.20773
 20
-65.1109
 11
48.20773
 21
-63.00424
  0
LINE
  8
型材断面
  6
DOT
 62
    47
 10
47.32439
 20
-63.00424
 11
47.32439
 21
-62.677573
  0
LINE
  8
型材断面
  6
DOT
 62
    47
 10
48.22439
 20
-65.127567
 11
48.22439
 21
-65.167227
  0
LINE
  8
型材断面
  6
DOT
 10
-121.842273
 20
-61.010905
 11
-37.10894
 21
-61.010905
  0
LINE
  8
型材断面
  6
DOT
 10
-121.998795
 20
-61.177573
 11
-37.10894
 21
-61.177573
  0
LINE
  8
型材断面
  6
DOT
 10
-121.842273
 20
-62.677573
 11
-37.10894
 21
-62.677573
  0
LINE
  8
型材断面
  6
DOT
 10
-122.432275
 20
-65.177573
 11
-37.10894
 21
-65.177573
  0
LINE
  8
型材断面
  6
DOT
 10
-122.42561
 20
-63.00424
 11
-37.10894
 21
-63.00424
  0
LINE
  8
型材断面
  6
DOT
 10
47.62439
 20
-62.677573
 11
-37.10894
 21
-62.677573
  0
LINE
  8
型材断面
  6
DOT
 10
47.780912
 20
-61.177573
 11
-37.10894
 21
-61.177573
  0
LINE
  8
型材断面
  6
DOT
 10
47.62439
 20
-61.010905
 11
-37.10894
 21
-61.010905
  0
LINE
  8
型材断面
  6
DOT
 10
48.20773
 20
-63.00424
 11
-37.10894
 21
-63.00424
  0
LINE
  8
型材断面
  6
DOT
 10
48.214395
 20
-65.177573
 11
-37.10894
 21
-65.177573
  0
INSERT
  2
*GRP_0021
  8
型材断面
  6
CONTINUOUS
 10
0.0
 20
0.0
  0
INSERT
  2
*GRP_0022
  8
型材断面
  6
CONTINUOUS
 10
0.0
 20
0.0
  0
INSERT
  2
*GRP_0023
  8
型材断面
  6
CONTINUOUS
 10
0.0
 20
0.0
  0
INSERT
  2
*GRP_0024
  8
型材断面
  6
CONTINUOUS
 10
0.0
 20
0.0
  0
LINE
  8
型材断面
  6
DASHDOT
 10
-87.25894
 20
22.814033
 11
-87.25894
 21
42.814033
  0
LINE
  8
型材断面
  6
DASHDOT
 10
-53.825605
 20
22.814033
 11
-53.825605
 21
42.814033
  0
LINE
  8
型材断面
  6
DASHDOT
 10
13.04106
 20
22.814033
 11
13.04106
 21
42.814033
  0
LINE
  8
型材断面
  6
DASHDOT
 10
-20.392275
 20
22.814033
 11
-20.392275
 21
42.814033
  0
LINE
  8
型材断面
  6
CONTINUOUS
 10
30.049393
 20
41.870552
 11
30.049393
 21
44.370552
  0
LINE
  8
型材断面
  6
CONTINUOUS
 10
29.216057
 20
41.870552
 11
29.216057
 21
44.370552
  0
LINE
  8
型材断面
  6
CONTINUOUS
 10
-3.25894
 20
41.870552
 11
-3.25894
 21
44.370552
  0
LINE
  8
型材断面
  6
CONTINUOUS
 10
-4.092275
 20
41.870552
 11
-4.092275
 21
44.370552
  0
LINE
  8
型材断面
  6
CONTINUOUS
 10
-36.692275
 20
41.870552
 11
-36.692275
 21
44.370552
  0
LINE
  8
型材断面
  6
CONTINUOUS
 10
-37.52561
 20
41.870552
 11
-37.52561
 21
44.370552
  0
LINE
  8
型材断面
  6
CONTINUOUS
 10
-104.267273
 20
41.870552
 11
-104.267273
 21
44.370552
  0
LINE
  8
型材断面
  6
CONTINUOUS
 10
-103.433937
 20
41.870552
 11
-103.433937
 21
44.370552
  0
LINE
  8
型材断面
  6
CONTINUOUS
 10
-70.95894
 20
41.870552
 11
-70.95894
 21
44.370552
  0
LINE
  8
型材断面
  6
CONTINUOUS
 10
-70.125605
 20
41.870552
 11
-70.125605
 21
44.370552
  0
LINE
  8
型材断面
  6
CONTINUOUS
 10
30.049393
 20
23.757512
 11
30.049393
 21
21.257512
  0
LINE
  8
型材断面
  6
CONTINUOUS
 10
29.216057
 20
23.757512
 11
29.216057
 21
21.257512
  0
LINE
  8
型材断面
  6
CONTINUOUS
 10
-3.25894
 20
23.757512
 11
-3.25894
 21
21.257512
  0
LINE
  8
型材断面
  6
CONTINUOUS
 10
-4.092275
 20
23.757512
 11
-4.092275
 21
21.257512
  0
LINE
  8
型材断面
  6
CONTINUOUS
 10
-36.692275
 20
23.757512
 11
-36.692275
 21
21.257512
  0
LINE
  8
型材断面
  6
CONTINUOUS
 10
-37.52561
 20
23.757512
 11
-37.52561
 21
21.257512
  0
LINE
  8
型材断面
  6
CONTINUOUS
 10
-104.267273
 20
23.757512
 11
-104.267273
 21
21.257512
  0
LINE
  8
型材断面
  6
CONTINUOUS
 10
-103.433937
 20
23.757512
 11
-103.433937
 21
21.257512
  0
LINE
  8
型材断面
  6
CONTINUOUS
 10
-70.95894
 20
23.757512
 11
-70.95894
 21
21.257512
  0
LINE
  8
型材断面
  6
CONTINUOUS
 10
-70.125605
 20
23.757512
 11
-70.125605
 21
21.257512
  0
LINE
  8
型材断面
  6
CONTINUOUS
 10
-103.433937
 20
23.757512
 11
-70.95894
 21
23.757512
  0
LINE
  8
型材断面
  6
CONTINUOUS
 10
-103.433937
 20
41.870552
 11
-70.95894
 21
41.870552
  0
LINE
  8
型材断面
  6
CONTINUOUS
 10
-70.125605
 20
41.870552
 11
-37.52561
 21
41.870552
  0
LINE
  8
型材断面
  6
CONTINUOUS
 10
-70.125605
 20
23.757512
 11
-37.52561
 21
23.757512
  0
LINE
  8
型材断面
  6
CONTINUOUS
 10
-36.692275
 20
23.757512
 11
-4.092275
 21
23.757512
  0
LINE
  8
型材断面
  6
CONTINUOUS
 10
-36.692275
 20
41.870552
 11
-4.092275
 21
41.870552
  0
LINE
  8
型材断面
  6
CONTINUOUS
 10
-3.25894
 20
41.870552
 11
29.216057
 21
41.870552
  0
LINE
  8
型材断面
  6
CONTINUOUS
 10
-3.25894
 20
23.757512
 11
29.216057
 21
23.757512
  0
LINE
  8
型材断面
  6
CONTINUOUS
 10
11.79106
 20
24.590845
 11
14.29106
 21
24.590845
  0
LINE
  8
型材断面
  6
CONTINUOUS
 10
14.29106
 20
24.590845
 11
14.29106
 21
41.03722
  0
LINE
  8
型材断面
  6
CONTINUOUS
 10
11.79106
 20
24.590845
 11
11.79106
 21
41.03722
  0
LINE
  8
型材断面
  6
CONTINUOUS
 10
14.29106
 20
41.03722
 11
11.79106
 21
41.03722
  0
LINE
  8
型材断面
  6
CONTINUOUS
 10
-21.642275
 20
24.590845
 11
-19.142275
 21
24.590845
  0
LINE
  8
型材断面
  6
CONTINUOUS
 10
-19.142275
 20
24.590845
 11
-19.142275
 21
41.03722
  0
LINE
  8
型材断面
  6
CONTINUOUS
 10
-21.642275
 20
24.590845
 11
-21.642275
 21
41.03722
  0
LINE
  8
型材断面
  6
CONTINUOUS
 10
-19.142275
 20
41.03722
 11
-21.642275
 21
41.03722
  0
LINE
  8
型材断面
  6
CONTINUOUS
 10
-86.00894
 20
24.590845
 11
-88.50894
 21
24.590845
  0
LINE
  8
型材断面
  6
CONTINUOUS
 10
-88.50894
 20
24.590845
 11
-88.50894
 21
41.03722
  0
LINE
  8
型材断面
  6
CONTINUOUS
 10
-86.00894
 20
24.590845
 11
-86.00894
 21
41.03722
  0
LINE
  8
型材断面
  6
CONTINUOUS
 10
-88.50894
 20
41.03722
 11
-86.00894
 21
41.03722
  0
LINE
  8
型材断面
  6
CONTINUOUS
 10
-52.575605
 20
24.590845
 11
-55.075605
 21
24.590845
  0
LINE
  8
型材断面
  6
CONTINUOUS
 10
-55.075605
 20
24.590845
 11
-55.075605
 21
41.03722
  0
LINE
  8
型材断面
  6
CONTINUOUS
 10
-52.575605
 20
24.590845
 11
-52.575605
 21
41.03722
  0
LINE
  8
型材断面
  6
CONTINUOUS
 10
-55.075605
 20
41.03722
 11
-52.575605
 21
41.03722
  0
LINE
  8
型材断面
  6
CONTINUOUS
 10
48.207577
 20
32.814033
 11
48.207577
 21
20.830853
  0
LINE
  8
型材断面
  6
CONTINUOUS
 10
48.207577
 20
32.814033
 11
48.207577
 21
44.797213
  0
LINE
  8
型材断面
  6
CONTINUOUS
 10
45.280912
 20
32.397365
 11
47.780912
 21
32.397365
  0
LINE
  8
型材断面
  6
CONTINUOUS
 10
45.280912
 20
33.2307
 11
47.780912
 21
33.2307
  0
LINE
  8
型材断面
  6
CONTINUOUS
 10
47.545215
 20
21.25751
 11
47.780912
 21
21.493217
  0
LINE
  8
型材断面
  6
CONTINUOUS
 10
48.207577
 20
20.830853
 11
47.663065
 21
21.375365
  0
LINE
  8
型材断面
  6
CONTINUOUS
 10
45.280912
 20
23.993212
 11
47.780912
 21
21.493217
  0
LINE
  8
型材断面
  6
CONTINUOUS
 10
45.04521
 20
23.75751
 11
47.545212
 21
21.257512
  0
LINE
  8
型材断面
  6
CONTINUOUS
 10
45.280912
 20
32.397365
 11
45.280912
 21
23.993212
  0
LINE
  8
型材断面
  6
CONTINUOUS
 10
45.280912
 20
32.397365
 11
45.280912
 21
23.993212
  0
LINE
  8
型材断面
  6
CONTINUOUS
 10
45.280912
 20
23.993212
 11
45.045212
 21
23.757512
  0
LINE
  8
型材断面
  6
CONTINUOUS
 10
47.545215
 20
44.370555
 11
47.780912
 21
44.134848
  0
LINE
  8
型材断面
  6
CONTINUOUS
 10
48.207577
 20
44.797213
 11
47.663065
 21
44.2527
  0
LINE
  8
型材断面
  6
CONTINUOUS
 10
45.280912
 20
33.2307
 11
45.280912
 21
41.634852
  0
LINE
  8
型材断面
  6
CONTINUOUS
 10
45.045212
 20
41.870552
 11
45.280912
 21
41.634852
  0
LINE
  8
型材断面
  6
CONTINUOUS
 10
45.280912
 20
33.2307
 11
45.280912
 21
41.634852
  0
LINE
  8
型材断面
  6
CONTINUOUS
 10
47.780912
 20
21.493217
 11
47.780912
 21
44.134848
  0
LINE
  8
型材断面
  6
CONTINUOUS
 10
45.280912
 20
41.634852
 11
47.780912
 21
44.134848
  0
LINE
  8
型材断面
  6
CONTINUOUS
 10
47.780912
 20
21.493217
 11
47.780912
 21
44.134848
  0
LINE
  8
型材断面
  6
CONTINUOUS
 10
45.04521
 20
41.870555
 11
47.545212
 21
44.370552
  0
LINE
  8
型材断面
  6
CONTINUOUS
 10
-122.425457
 20
32.814033
 11
-122.425457
 21
20.830853
  0
LINE
  8
型材断面
  6
CONTINUOUS
 10
-122.425457
 20
32.814033
 11
-122.425457
 21
44.797213
  0
LINE
  8
型材断面
  6
CONTINUOUS
 10
-119.498793
 20
32.397365
 11
-121.998793
 21
32.397365
  0
LINE
  8
型材断面
  6
CONTINUOUS
 10
-119.498793
 20
33.2307
 11
-121.998793
 21
33.2307
  0
LINE
  8
型材断面
  6
CONTINUOUS
 10
-121.763095
 20
21.25751
 11
-121.998793
 21
21.493217
  0
LINE
  8
型材断面
  6
CONTINUOUS
 10
-122.425457
 20
20.830853
 11
-121.880945
 21
21.375365
  0
LINE
  8
型材断面
  6
CONTINUOUS
 10
-119.498793
 20
23.993212
 11
-121.998793
 21
21.493217
  0
LINE
  8
型材断面
  6
CONTINUOUS
 10
-119.26309
 20
23.75751
 11
-121.763093
 21
21.257512
  0
LINE
  8
型材断面
  6
CONTINUOUS
 10
-119.498793
 20
32.397365
 11
-119.498793
 21
23.993212
  0
LINE
  8
型材断面
  6
CONTINUOUS
 10
-119.498793
 20
32.397365
 11
-119.498793
 21
23.993212
  0
LINE
  8
型材断面
  6
CONTINUOUS
 10
-119.498793
 20
23.993212
 11
-119.263093
 21
23.757512
  0
LINE
  8
型材断面
  6
CONTINUOUS
 10
-121.763095
 20
44.370555
 11
-121.998793
 21
44.134848
  0
LINE
  8
型材断面
  6
CONTINUOUS
 10
-122.425457
 20
44.797213
 11
-121.880945
 21
44.2527
  0
LINE
  8
型材断面
  6
CONTINUOUS
 10
-119.498793
 20
33.2307
 11
-119.498793
 21
41.634852
  0
LINE
  8
型材断面
  6
CONTINUOUS
 10
-119.263093
 20
41.870552
 11
-119.498793
 21
41.634852
  0
LINE
  8
型材断面
  6
CONTINUOUS
 10
-119.498793
 20
33.2307
 11
-119.498793
 21
41.634852
  0
LINE
  8
型材断面
  6
CONTINUOUS
 10
-121.998793
 20
21.493217
 11
-121.998793
 21
44.134848
  0
LINE
  8
型材断面
  6
CONTINUOUS
 10
-119.498793
 20
41.634852
 11
-121.998793
 21
44.134848
  0
LINE
  8
型材断面
  6
CONTINUOUS
 10
-121.998793
 20
21.493217
 11
-121.998793
 21
44.134848
  0
LINE
  8
型材断面
  6
CONTINUOUS
 10
-119.26309
 20
41.870555
 11
-121.763093
 21
44.370552
  0
LINE
  8
型材断面
  6
CONTINUOUS
 10
30.049393
 20
23.757512
 11
45.045207
 21
23.757512
  0
LINE
  8
型材断面
  6
CONTINUOUS
 10
30.049393
 20
41.870552
 11
45.045207
 21
41.870552
  0
LINE
  8
型材断面
  6
CONTINUOUS
 10
-104.267273
 20
41.870552
 11
-119.263087
 21
41.870552
  0
LINE
  8
型材断面
  6
CONTINUOUS
 10
47.545212
 20
44.370552
 11
-121.763093
 21
44.370552
  0
LINE
  8
型材断面
  6
CONTINUOUS
 10
-104.267273
 20
23.757512
 11
-119.263087
 21
23.757512
  0
LINE
  8
型材断面
  6
CONTINUOUS
 10
47.545212
 20
21.257512
 11
-121.763093
 21
21.257512
  0
TEXT
  7
TextStyle03
  8
文字
  6
CONTINUOUS
 10
122.775
 20
-76.7
  1
網入り6.8t
 40
3.0
 72
     5
 11
139.4625
 21
-76.7
  0
TEXT
  7
TextStyle03
  8
文字
  6
CONTINUOUS
 10
129.45
 20
-81.375
  1
×５枚
 40
3.0
 72
     5
 11
139.2
 21
-81.375
  0
TEXT
  7
TextStyle03
  8
文字
  6
CONTINUOUS
 10
-45.025
 20
9.325
  1
可動装置側
 40
3.0
 72
     5
 11
-28.525
 21
9.325
  0
TEXT
  7
TextStyle03
  8
文字
  6
CONTINUOUS
 10
-45.025
 20
53.3
  1
可動装置側
 40
3.0
 72
     5
 11
-28.525
 21
53.3
  0
TEXT
  7
TextStyle03
  8
文字
  6
CONTINUOUS
 10
-158.45
 20
79.425
  1
はケーシング位置を示す
 40
3.0
 72
     5
 11
-121.7
 21
79.425
  0
TEXT
  7
TextStyle03
  8
文字
  6
CONTINUOUS
 10
-158.45
 20
76.05
  1
４ヶ所中1ヶ所に設定
 40
3.0
 72
     5
 11
-126.7625
 21
76.05
  0
TEXT
  7
TextStyle03
  8
文字
  6
CONTINUOUS
 10
-158.45
 20
84.95
  1
は排水穴位置を示す
 40
3.0
 72
     5
 11
-128.45
 21
84.95
  0
TEXT
  7
TextStyle03
  8
文字
  6
CONTINUOUS
 10
-141.475
 20
11.275
  1
アンカーピッチ
 40
3.0
 50
90.0
 72
     5
 11
-141.475
 21
34.525
  0
TEXT
  7
TextStyle03
  8
文字
  6
CONTINUOUS
 10
-109.725
 20
80.25
  1
アンカーピッチ
 40
3.0
 72
     5
 11
-86.475
 21
80.25
  0
TEXT
  7
TextStyle03
  8
文字
  6
CONTINUOUS
 10
-162.175
 20
70.075
  1
アンカー数量　１８ヶ所
 40
3.0
 72
     5
 11
-125.425
 21
70.075
  0
TEXT
  7
TextStyle03
  8
文字
  6
CONTINUOUS
 10
-162.225
 20
64.3
  1
アームユニット数　４ヶ所
 40
3.0
 72
     5
 11
-122.1
 21
64.3
  0
LINE
  8
文字
  6
CONTINUOUS
 10
135.0979
 20
56.049278
 11
135.0979
 21
45.499315
  0
LINE
  8
文字
  6
CONTINUOUS
 10
142.74795
 20
56.049278
 11
142.74795
 21
45.564395
  0
LINE
  8
文字
  6
CONTINUOUS
 10
59.459637
 20
-68.344237
 11
48.909675
 21
-68.344237
  0
LINE
  8
文字
  6
CONTINUOUS
 10
59.459637
 20
-75.994287
 11
48.974755
 21
-75.994287
  0
LINE
  8
文字
  6
CONTINUOUS
 10
59.459637
 20
-61.010905
 11
48.909675
 21
-61.010905
  0
LINE
  8
文字
  6
CONTINUOUS
 10
141.310947
 20
-55.635042
 11
141.310947
 21
-62.25788
  0
LINE
  8
文字
  6
CONTINUOUS
 10
109.04428
 20
-55.635042
 11
109.04428
 21
-62.25788
  0
TEXT
  7
TextStyle03
  8
文字
  6
CONTINUOUS
 10
59.5
 20
125.25
  1
シリーズ：ＴＦ２ＦＬ
 40
5.0
 72
     5
 11
115.125
 21
125.25
  0
TEXT
  7
TextStyle03
  8
文字
  6
CONTINUOUS
 10
59.5
 20
119.625
  1
　　　　　（上下可動）600×5000タイプ
 40
5.0
 72
     5
 11
162.9375
 21
119.625
  0
TEXT
  7
TextStyle03
  8
文字
  6
CONTINUOUS
 10
59.5
 20
114.0
  1
図面名　：外観姿図
 40
5.0
 72
     5
 11
109.5
 21
114.0
  0
TEXT
  7
TextStyle03
  8
文字
  6
CONTINUOUS
 10
59.5
 20
108.375
  1
　　　　　　
 40
5.0
 72
     5
 11
92.625
 21
108.375
  0
TEXT
  7
TextStyle03
  8
文字
  6
CONTINUOUS
 10
59.65
 20
104.525
  1
ＮＳコード：ＮＳＦＺＬ
 40
5.0
 72
     5
 11
120.9
 21
104.525
  0
INSERT
  2
*DIM_0002
  8
寸法
  6
CONTINUOUS
 10
0.0
 20
0.0
  0
INSERT
  2
*DIM_0003
  8
寸法
  6
CONTINUOUS
 10
0.0
 20
0.0
  0
INSERT
  2
*DIM_0004
  8
寸法
  6
CONTINUOUS
 10
0.0
 20
0.0
  0
INSERT
  2
*DIM_0005
  8
寸法
  6
CONTINUOUS
 10
0.0
 20
0.0
  0
INSERT
  2
*DIM_0006
  8
寸法
  6
CONTINUOUS
 10
0.0
 20
0.0
  0
INSERT
  2
*DIM_0007
  8
寸法
  6
CONTINUOUS
 10
0.0
 20
0.0
  0
INSERT
  2
*DIM_0008
  8
寸法
  6
CONTINUOUS
 10
0.0
 20
0.0
  0
INSERT
  2
*DIM_0009
  8
寸法
  6
CONTINUOUS
 10
0.0
 20
0.0
  0
INSERT
  2
*DIM_0010
  8
寸法
  6
CONTINUOUS
 10
0.0
 20
0.0
  0
INSERT
  2
*DIM_0011
  8
寸法
  6
CONTINUOUS
 10
0.0
 20
0.0
  0
INSERT
  2
*DIM_0012
  8
寸法
  6
CONTINUOUS
 10
0.0
 20
0.0
  0
INSERT
  2
*DIM_0013
  8
寸法
  6
CONTINUOUS
 10
0.0
 20
0.0
  0
INSERT
  2
*DIM_0014
  8
寸法
  6
CONTINUOUS
 10
0.0
 20
0.0
  0
INSERT
  2
*DIM_0015
  8
寸法
  6
CONTINUOUS
 10
0.0
 20
0.0
  0
INSERT
  2
*DIM_0016
  8
寸法
  6
CONTINUOUS
 10
0.0
 20
0.0
  0
INSERT
  2
*DIM_0017
  8
寸法
  6
CONTINUOUS
 10
0.0
 20
0.0
  0
INSERT
  2
*DIM_0018
  8
寸法
  6
CONTINUOUS
 10
0.0
 20
0.0
  0
INSERT
  2
*DIM_0019
  8
寸法
  6
CONTINUOUS
 10
0.0
 20
0.0
  0
INSERT
  2
*DIM_0020
  8
寸法
  6
CONTINUOUS
 10
0.0
 20
0.0
  0
INSERT
  2
*DIM_0025
  8
寸法
  6
CONTINUOUS
 10
0.0
 20
0.0
  0
INSERT
  2
*DIM_0026
  8
寸法
  6
CONTINUOUS
 10
0.0
 20
0.0
  0
INSERT
  2
*DIM_0027
  8
寸法
  6
CONTINUOUS
 10
0.0
 20
0.0
  0
LINE
  8
別途部材
  6
CONTINUOUS
 62
    47
 10
135.1979
 20
44.370552
 11
135.264567
 21
44.370552
  0
ARC
  8
別途部材
  6
CONTINUOUS
 62
    47
 10
135.197899
 20
44.270553
 40
0.1
 50
90.0
 51
180.0
  0
LINE
  8
別途部材
  6
CONTINUOUS
 62
    47
 10
135.0979
 20
44.270552
 11
135.0979
 21
41.903885
  0
LINE
  8
別途部材
  6
CONTINUOUS
 62
    47
 10
136.764567
 20
44.21403
 11
135.264567
 21
44.21403
  0
LINE
  8
別途部材
  6
CONTINUOUS
 62
    47
 10
135.1979
 20
21.257512
 11
135.264567
 21
21.257512
  0
ARC
  8
別途部材
  6
CONTINUOUS
 62
    47
 10
135.197899
 20
21.357511
 40
0.1
 50
180.0
 51
270.0
  0
LINE
  8
別途部材
  6
CONTINUOUS
 62
    47
 10
135.0979
 20
21.357512
 11
135.0979
 21
23.72418
  0
LINE
  8
別途部材
  6
CONTINUOUS
 62
    47
 10
136.764567
 20
21.414035
 11
135.264567
 21
21.414035
  0
LINE
  8
別途部材
  6
CONTINUOUS
 62
    47
 10
-121.998795
 20
-68.444237
 11
-121.998795
 21
-68.510905
  0
ARC
  8
別途部材
  6
CONTINUOUS
 62
    47
 10
-121.898795
 20
-68.444239
 40
0.1
 50
90.0
 51
180.0
  0
LINE
  8
別途部材
  6
CONTINUOUS
 62
    47
 10
-121.898795
 20
-68.344237
 11
-119.532128
 21
-68.344237
  0
LINE
  8
別途部材
  6
CONTINUOUS
 62
    47
 10
-121.842273
 20
-70.010905
 11
-121.842273
 21
-68.510905
  0
LINE
  8
別途部材
  6
CONTINUOUS
 62
    47
 10
47.780912
 20
-68.444237
 11
47.780912
 21
-68.510905
  0
ARC
  8
別途部材
  6
CONTINUOUS
 62
    47
 10
47.680913
 20
-68.444239
 40
0.1
 50
0.0
 51
90.0
  0
LINE
  8
別途部材
  6
CONTINUOUS
 62
    47
 10
47.680912
 20
-68.344237
 11
45.314245
 21
-68.344237
  0
LINE
  8
別途部材
  6
CONTINUOUS
 62
    47
 10
47.62439
 20
-70.010905
 11
47.62439
 21
-68.510905
  0
LINE
  8
別途部材
  6
DOT
 62
    47
 10
-121.998795
 20
-61.110905
 11
-121.998795
 21
-61.177573
  0
ARC
  8
別途部材
  6
DOT
 62
    47
 10
-121.898795
 20
-61.110905
 40
0.1
 50
90.0
 51
180.0
  0
LINE
  8
別途部材
  6
DOT
 62
    47
 10
-121.898795
 20
-61.010905
 11
-119.532128
 21
-61.010905
  0
LINE
  8
別途部材
  6
DOT
 62
    47
 10
-121.842273
 20
-62.677573
 11
-121.842273
 21
-61.177573
  0
LINE
  8
別途部材
  6
DOT
 62
    47
 10
47.780912
 20
-61.110905
 11
47.780912
 21
-61.177573
  0
ARC
  8
別途部材
  6
DOT
 62
    47
 10
47.680913
 20
-61.110905
 40
0.1
 50
0.0
 51
90.0
  0
LINE
  8
別途部材
  6
DOT
 62
    47
 10
47.680912
 20
-61.010905
 11
45.314245
 21
-61.010905
  0
LINE
  8
別途部材
  6
DOT
 62
    47
 10
47.62439
 20
-62.677573
 11
47.62439
 21
-61.177573
  0
LINE
  8
曲げ物
  6
CONTINUOUS
 10
141.310947
 20
-83.118728
 11
141.310947
 21
-63.785395
  0
LINE
  8
曲げ物
  6
CONTINUOUS
 10
30.950122
 20
34.739582
 11
27.25481
 21
31.04427
  0
LINE
  8
曲げ物
  6
CONTINUOUS
 10
30.246652
 20
33.203472
 11
28.790922
 21
31.747742
  0
LINE
  8
曲げ物
  6
CONTINUOUS
 10
29.414012
 20
34.036112
 11
27.958282
 21
32.580383
  0
LINE
  8
曲げ物
  6
CONTINUOUS
 10
-1.454618
 20
34.739582
 11
-5.14993
 21
31.04427
  0
LINE
  8
曲げ物
  6
CONTINUOUS
 10
-2.158087
 20
33.203472
 11
-3.613818
 21
31.747742
  0
LINE
  8
曲げ物
  6
CONTINUOUS
 10
-2.990727
 20
34.036112
 11
-4.446457
 21
32.580383
  0
LINE
  8
曲げ物
  6
CONTINUOUS
 10
-35.12204
 20
34.739582
 11
-38.817353
 21
31.04427
  0
LINE
  8
曲げ物
  6
CONTINUOUS
 10
-35.82551
 20
33.203472
 11
-37.28124
 21
31.747742
  0
LINE
  8
曲げ物
  6
CONTINUOUS
 10
-36.65815
 20
34.036112
 11
-38.11388
 21
32.580383
  0
LINE
  8
曲げ物
  6
CONTINUOUS
 10
-67.45992
 20
34.739582
 11
-71.155232
 21
31.04427
  0
LINE
  8
曲げ物
  6
CONTINUOUS
 10
-68.16339
 20
33.203472
 11
-69.61912
 21
31.747742
  0
LINE
  8
曲げ物
  6
CONTINUOUS
 10
-68.99603
 20
34.036112
 11
-70.45176
 21
32.580383
  0
LINE
  8
曲げ物
  6
CONTINUOUS
 10
-102.618253
 20
34.739582
 11
-106.313565
 21
31.04427
  0
LINE
  8
曲げ物
  6
CONTINUOUS
 10
-103.321723
 20
33.203472
 11
-104.777452
 21
31.747742
  0
LINE
  8
曲げ物
  6
CONTINUOUS
 10
-104.154363
 20
34.036112
 11
-105.610092
 21
32.580383
  0
LINE
  8
曲げ物
  6
CONTINUOUS
 10
109.04428
 20
-83.118728
 11
109.04428
 21
-63.785395
  0
LINE
  8
曲げ物
  6
CONTINUOUS
 10
141.310947
 20
-63.785395
 11
109.04428
 21
-63.785395
  0
LINE
  8
曲げ物
  6
CONTINUOUS
 10
141.310947
 20
-83.118728
 11
109.04428
 21
-83.118728
  0
ENDSEC
  0
EOF
