  0
SECTION
  2
HEADER
  9
$EXTMIN
 10
-210.0
 20
-148.5
  9
$EXTMAX
 10
210.0
 20
148.5
  9
$PDMODE
 70
    32
  9
$PDSIZE
 40
1.5
  9
$LTSCALE
 40
10.0
  0
ENDSEC
  0
SECTION
  2
TABLES
  0
TABLE
  2
LTYPE
 70
    15
  0
LTYPE
  2
CONTINUOUS
 70
    64
  3
実線
 72
    65
 73
     0
 40
0.0
  0
LTYPE
  2
DASHED
 70
    64
  3
破線A
 72
    65
 73
     2
 40
0.6
 49
0.4
 49
-0.2
  0
LTYPE
  2
DASHEDX2
 70
    64
  3
破線B
 72
    65
 73
     2
 40
1.3
 49
0.9
 49
-0.4
  0
LTYPE
  2
DASHDOT
 70
    64
  3
１点鎖線A
 72
    65
 73
     4
 40
0.5375
 49
0.375
 49
-0.05
 49
0.0625
 49
-0.05
  0
LTYPE
  2
DASHDOTX2
 70
    64
  3
１点鎖線B
 72
    65
 73
     4
 40
1.075
 49
0.75
 49
-0.1
 49
0.125
 49
-0.1
  0
LTYPE
  2
DIVIDE2
 70
    64
  3
２点鎖線A
 72
    65
 73
     6
 40
0.5125
 49
0.3
 49
-0.0375
 49
0.05
 49
-0.0375
 49
0.05
 49
-0.0375
  0
LTYPE
  2
DIVIDE
 70
    64
  3
２点鎖線B
 72
    65
 73
     6
 40
1.05
 49
0.55
 49
-0.1
 49
0.1
 49
-0.1
 49
0.1
 49
-0.1
  0
LTYPE
  2
DOT
 70
    64
  3
点線A
 72
    65
 73
     2
 40
0.1125
 49
0.0625
 49
-0.05
  0
LTYPE
  2
DOTX2
 70
    64
  3
点線B
 72
    65
 73
     2
 40
0.275
 49
0.15
 49
-0.125
  0
LTYPE
  2
CONTINUOUS
 70
    64
  3
実線
 72
    65
 73
     0
 40
0.0
  0
LTYPE
  2
CONTINUOUS
 70
    64
  3
実線
 72
    65
 73
     0
 40
0.0
  0
LTYPE
  2
CONTINUOUS
 70
    64
  3
実線
 72
    65
 73
     0
 40
0.0
  0
LTYPE
  2
CONTINUOUS
 70
    64
  3
実線
 72
    65
 73
     0
 40
0.0
  0
LTYPE
  2
CONTINUOUS
 70
    64
  3
実線
 72
    65
 73
     0
 40
0.0
  0
LTYPE
  2
CONTINUOUS
 70
    64
  3
実線
 72
    65
 73
     0
 40
0.0
  0
ENDTAB
  0
TABLE
  2
LAYER
 70
    34
  0
LAYER
  2
通り芯
 70
     0
 62
    15
  6
CONTINUOUS
  0
LAYER
  2
補助線
 70
     0
 62
    16
  6
DOT
  0
LAYER
  2
躯体
 70
     0
 62
    31
  6
CONTINUOUS
  0
LAYER
  2
型材
 70
     0
 62
    32
  6
CONTINUOUS
  0
LAYER
  2
型材断面
 70
     0
 62
    47
  6
CONTINUOUS
  0
LAYER
  2
ガラス
 70
     0
 62
    48
  6
CONTINUOUS
  0
LAYER
  2
ゴム等
 70
     0
 62
    63
  6
CONTINUOUS
  0
LAYER
  2
ボルト／ビス
 70
     0
 62
    64
  6
CONTINUOUS
  0
LAYER
  2
文字
 70
     0
 62
    79
  6
CONTINUOUS
  0
LAYER
  2
寸法
 70
     0
 62
    80
  6
CONTINUOUS
  0
LAYER
  2
ﾊｯﾁﾝｸﾞ
 70
     0
 62
    95
  6
CONTINUOUS
  0
LAYER
  2
別途部材
 70
     0
 62
    96
  6
CONTINUOUS
  0
LAYER
  2
曲げ物
 70
     0
 62
   111
  6
CONTINUOUS
  0
LAYER
  2
鉄骨等
 70
     0
 62
   112
  6
CONTINUOUS
  0
LAYER
  2
St
 70
     0
 62
   127
  6
CONTINUOUS
  0
LAYER
  2
その他部品等
 70
     0
 62
   128
  6
CONTINUOUS
  0
LAYER
  2
ｶﾞｽｹｯﾄ
 70
     0
 62
   143
  6
CONTINUOUS
  0
LAYER
  2
ｽｹｯﾁ
 70
     0
 62
    14
  6
CONTINUOUS
  0
LAYER
  2
0
 70
     0
 62
    17
  6
CONTINUOUS
  0
LAYER
  2
1
 70
     0
 62
    30
  6
CONTINUOUS
  0
LAYER
  2
4
 70
     0
 62
    33
  6
CONTINUOUS
  0
LAYER
  2
ﾚｲﾔ3
 70
     0
 62
    46
  6
CONTINUOUS
  0
LAYER
  2
外形線
 70
     0
 62
    49
  6
CONTINUOUS
  0
LAYER
  2
部品
 70
     0
 62
    14
  6
CONTINUOUS
  0
LAYER
  2
サッシ芯
 70
     0
 62
    17
  6
DASHDOTX2
  0
LAYER
  2
寸法線
 70
     0
 62
    62
  6
CONTINUOUS
  0
LAYER
  2
姿図外形線
 70
     0
 62
    65
  6
CONTINUOUS
  0
LAYER
  2
姿補助線
 70
     0
 62
    30
  6
CONTINUOUS
  0
LAYER
  2
透視線
 70
     0
 62
    78
  6
DOT
  0
LAYER
  2
用紙
 70
     0
 62
    81
  6
CONTINUOUS
  0
LAYER
  2
実線図枠
 70
     0
 62
    94
  6
CONTINUOUS
  0
LAYER
  2
補助図枠
 70
     0
 62
    97
  6
CONTINUOUS
  0
LAYER
  2
建具記号
 70
     0
 62
   110
  6
CONTINUOUS
  0
LAYER
  2
補助文字
 70
     0
 62
   113
  6
CONTINUOUS
  0
ENDTAB
  0
TABLE
  2
STYLE
 70
    10
  0
STYLE
  2
STANDARD
 70
     0
 40
1.0
 41
1.0
 42
1.0
 50
0.0
 71
     0
  3
TXT
  4
BIGFONT
  0
STYLE
  2
TATE
 70
     4
 40
1.0
 41
1.0
 42
1.0
 50
0.0
 71
     0
  3
TXT
  4
BIGFONT
  0
STYLE
  2
TextStyle03
 70
     0
 40
1.0
 41
1.0
 42
1.0
 50
0.0
 71
     0
  3
MONOTXT
  4
BIGFONT
  0
STYLE
  2
TextStyle04
 70
     0
 40
1.0
 41
1.0
 42
1.0
 50
0.0
 71
     0
  3
MONOTXT
  4
BIGFONT
  0
STYLE
  2
TextStyle05
 70
     0
 40
1.0
 41
1.0
 42
1.0
 50
0.0
 71
     0
  3
MONOTXT
  4
BIGFONT
  0
STYLE
  2
TextStyle06
 70
     0
 40
1.0
 41
1.0
 42
1.0
 50
0.0
 71
     0
  3
MONOTXT
  4
BIGFONT
  0
STYLE
  2
TextStyle07
 70
     0
 40
1.0
 41
1.0
 42
1.0
 50
0.0
 71
     0
  3
MONOTXT
  4
BIGFONT
  0
STYLE
  2
TextStyle08
 70
     0
 40
1.0
 41
1.0
 42
1.0
 50
0.0
 71
     0
  3
MONOTXT
  4
BIGFONT
  0
STYLE
  2
TextStyle09
 70
     0
 40
1.0
 41
1.0
 42
1.0
 50
0.0
 71
     0
  3
MONOTXT
  4
BIGFONT
  0
STYLE
  2
TextStyle10
 70
     0
 40
1.0
 41
1.0
 42
1.0
 50
0.0
 71
     0
  3
MONOTXT
  4
BIGFONT
  0
ENDTAB
  0
ENDSEC
  0
SECTION
  2
BLOCKS
  0
BLOCK
  2
*GRP_0001
 70
    65
 10
0.0
 20
0.0
  0
LINE
  8
型材断面
  6
CONTINUOUS
 10
195.0
 20
133.5
 11
195.0
 21
-133.5
  0
LINE
  8
型材断面
  6
CONTINUOUS
 10
195.0
 20
-133.5
 11
-185.0
 21
-133.5
  0
LINE
  8
型材断面
  6
CONTINUOUS
 10
-185.0
 20
-133.5
 11
-185.0
 21
133.5
  0
LINE
  8
型材断面
  6
CONTINUOUS
 10
195.0
 20
133.5
 11
-185.0
 21
133.5
  0
LINE
  8
型材断面
  6
CONTINUOUS
 10
145.0
 20
-133.5
 11
145.0
 21
-118.5
  0
LINE
  8
型材断面
  6
CONTINUOUS
 10
195.0
 20
-118.5
 11
145.0
 21
-118.5
  0
ENDBLK
  0
BLOCK
  2
*DIM_0002
 70
    65
 10
0.0
 20
0.0
  0
LINE
  8
寸法
  6
BYBLOCK
 62
     0
 10
117.489623
 20
-53.785395
 11
125.547912
 21
-53.785395
  0
LINE
  8
寸法
  6
BYBLOCK
 62
     0
 10
117.489623
 20
-83.118728
 11
125.547912
 21
-83.118728
  0
LINE
  8
寸法
  6
BYBLOCK
 62
     0
 10
125.547912
 20
-53.785395
 11
125.547912
 21
-83.118728
  0
POINT
  8
寸法
 62
     0
 10
125.547912
 20
-53.785395
  0
POINT
  8
寸法
 62
     0
 10
125.547912
 20
-83.118728
  0
TEXT
  7
TextStyle03
  8
寸法
  6
CONTINUOUS
 62
     0
 10
125.225
 20
-70.9125
  1
880
 40
3.0
 50
90.0
 72
     5
 11
125.225
 21
-66.0375
  0
ENDBLK
  0
BLOCK
  2
*DIM_0003
 70
    65
 10
0.0
 20
0.0
  0
LINE
  8
寸法
  6
BYBLOCK
 62
     0
 10
-61.930265
 20
-13.511205
 11
-61.930265
 21
-13.121378
  0
LINE
  8
寸法
  6
BYBLOCK
 62
     0
 10
21.403067
 20
-13.121378
 11
-61.930265
 21
-13.121378
  0
POINT
  8
寸法
 62
     0
 10
21.403067
 20
-13.121378
  0
POINT
  8
寸法
 62
     0
 10
-61.930265
 20
-13.121378
  0
TEXT
  7
TextStyle03
  8
寸法
  6
CONTINUOUS
 62
     0
 10
-31.99375
 20
-12.75
  1
呼称寸法　2500
 40
3.0
 72
     5
 11
-8.55625
 21
-12.75
  0
ENDBLK
  0
BLOCK
  2
*DIM_0004
 70
    65
 10
0.0
 20
0.0
  0
LINE
  8
寸法
  6
BYBLOCK
 62
     0
 10
-45.263598
 20
19.183902
 11
-45.263598
 21
14.01842
  0
LINE
  8
寸法
  6
BYBLOCK
 62
     0
 10
4.736398
 20
19.183902
 11
4.736398
 21
14.01842
  0
LINE
  8
寸法
  6
BYBLOCK
 62
     0
 10
-45.263598
 20
14.01842
 11
4.736398
 21
14.01842
  0
POINT
  8
寸法
 62
     0
 10
-45.263598
 20
14.01842
  0
POINT
  8
寸法
 62
     0
 10
4.736398
 20
14.01842
  0
TEXT
  7
TextStyle03
  8
寸法
  6
CONTINUOUS
 62
     0
 10
-23.55625
 20
14.375
  1
1500
 40
3.0
 72
     5
 11
-16.99375
 21
14.375
  0
ENDBLK
  0
BLOCK
  2
*DIM_0005
 70
    65
 10
0.0
 20
0.0
  0
LINE
  8
寸法
  6
BYBLOCK
 62
     0
 10
22.403067
 20
52.814035
 11
32.12735
 21
52.814035
  0
LINE
  8
寸法
  6
BYBLOCK
 62
     0
 10
25.033197
 20
49.114035
 11
32.12735
 21
49.114035
  0
LINE
  8
寸法
  6
BYBLOCK
 62
     0
 10
32.12735
 20
52.814035
 11
32.12735
 21
49.114035
  0
POINT
  8
寸法
 62
     0
 10
32.12735
 20
52.814035
  0
POINT
  8
寸法
 62
     0
 10
32.12735
 20
49.114035
  0
TEXT
  7
TextStyle03
  8
寸法
  6
CONTINUOUS
 62
     0
 10
31.8
 20
53.8125
  1
111
 40
3.0
 50
90.0
 72
     5
 11
31.8
 21
58.6875
  0
ENDBLK
  0
BLOCK
  2
*DIM_0006
 70
    65
 10
0.0
 20
0.0
  0
LINE
  8
寸法
  6
BYBLOCK
 62
     0
 10
22.403067
 20
22.81403
 11
32.12735
 21
22.814027
  0
LINE
  8
寸法
  6
BYBLOCK
 62
     0
 10
25.033197
 20
26.51403
 11
32.12735
 21
26.514027
  0
LINE
  8
寸法
  6
BYBLOCK
 62
     0
 10
32.12735
 20
22.814027
 11
32.12735
 21
26.514027
  0
POINT
  8
寸法
 62
     0
 10
32.12735
 20
22.814027
  0
POINT
  8
寸法
 62
     0
 10
32.12735
 20
26.514027
  0
TEXT
  7
TextStyle03
  8
寸法
  6
CONTINUOUS
 62
     0
 10
31.8
 20
16.9375
  1
111
 40
3.0
 50
90.0
 72
     5
 11
31.8
 21
21.8125
  0
ENDBLK
  0
BLOCK
  2
*DIM_0007
 70
    65
 10
0.0
 20
0.0
  0
LINE
  8
寸法
  6
BYBLOCK
 62
     0
 10
55.422717
 20
22.814033
 11
55.422717
 21
52.814033
  0
POINT
  8
寸法
 62
     0
 10
55.422717
 20
22.814033
  0
POINT
  8
寸法
 62
     0
 10
55.422717
 20
52.814033
  0
TEXT
  7
TextStyle03
  8
寸法
  6
CONTINUOUS
 62
     0
 10
55.1
 20
26.9
  1
呼称寸法　900
 40
3.0
 50
90.0
 72
     5
 11
55.1
 21
48.65
  0
ENDBLK
  0
BLOCK
  2
*DIM_0008
 70
    65
 10
0.0
 20
0.0
  0
LINE
  8
寸法
  6
BYBLOCK
 62
     0
 10
109.313112
 20
54.797365
 11
55.422717
 21
54.797365
  0
LINE
  8
寸法
  6
BYBLOCK
 62
     0
 10
55.422717
 20
52.814033
 11
55.422717
 21
54.797365
  0
POINT
  8
寸法
 62
     0
 10
55.422717
 20
52.814033
  0
POINT
  8
寸法
 62
     0
 10
55.422717
 20
54.797365
  0
TEXT
  7
TextStyle03
  8
寸法
  6
CONTINUOUS
 62
     0
 10
55.025
 20
57.26875
  1
59.5
 40
3.0
 50
90.0
 72
     5
 11
55.025
 21
63.83125
  0
ENDBLK
  0
BLOCK
  2
*DIM_0009
 70
    65
 10
0.0
 20
0.0
  0
LINE
  8
寸法
  6
BYBLOCK
 62
     0
 10
109.313112
 20
20.8307
 11
55.422717
 21
20.8307
  0
LINE
  8
寸法
  6
BYBLOCK
 62
     0
 10
55.422717
 20
22.814033
 11
55.422717
 21
20.8307
  0
POINT
  8
寸法
 62
     0
 10
55.422717
 20
22.814033
  0
POINT
  8
寸法
 62
     0
 10
55.422717
 20
20.8307
  0
TEXT
  7
TextStyle03
  8
寸法
  6
CONTINUOUS
 62
     0
 10
55.025
 20
11.76875
  1
59.5
 40
3.0
 50
90.0
 72
     5
 11
55.025
 21
18.33125
  0
ENDBLK
  0
BLOCK
  2
*DIM_0010
 70
    65
 10
0.0
 20
0.0
  0
LINE
  8
寸法
  6
BYBLOCK
 62
     0
 10
23.386398
 20
-58.586395
 11
23.386398
 21
-13.121378
  0
LINE
  8
寸法
  6
BYBLOCK
 62
     0
 10
21.403067
 20
-13.121378
 11
23.386398
 21
-13.121378
  0
POINT
  8
寸法
 62
     0
 10
21.403067
 20
-13.121378
  0
POINT
  8
寸法
 62
     0
 10
23.386398
 20
-13.121378
  0
TEXT
  7
TextStyle03
  8
寸法
  6
CONTINUOUS
 62
     0
 10
25.84375
 20
-12.75
  1
59.5
 40
3.0
 72
     5
 11
32.40625
 21
-12.75
  0
ENDBLK
  0
BLOCK
  2
*DIM_0011
 70
    65
 10
0.0
 20
0.0
  0
LINE
  8
寸法
  6
BYBLOCK
 62
     0
 10
-63.913598
 20
-58.586395
 11
-63.913598
 21
-13.121378
  0
LINE
  8
寸法
  6
BYBLOCK
 62
     0
 10
-61.930265
 20
-13.121378
 11
-63.913598
 21
-13.121378
  0
POINT
  8
寸法
 62
     0
 10
-61.930265
 20
-13.121378
  0
POINT
  8
寸法
 62
     0
 10
-63.913598
 20
-13.121378
  0
TEXT
  7
TextStyle03
  8
寸法
  6
CONTINUOUS
 62
     0
 10
-72.95625
 20
-12.75
  1
59.5
 40
3.0
 72
     5
 11
-66.39375
 21
-12.75
  0
ENDBLK
  0
BLOCK
  2
*DIM_0012
 70
    65
 10
0.0
 20
0.0
  0
LINE
  8
寸法
  6
BYBLOCK
 62
     0
 10
-64.930265
 20
47.814033
 11
-78.223103
 21
47.814033
  0
LINE
  8
寸法
  6
BYBLOCK
 62
     0
 10
-64.930265
 20
27.814033
 11
-78.223103
 21
27.814033
  0
LINE
  8
寸法
  6
BYBLOCK
 62
     0
 10
-78.223103
 20
47.814033
 11
-78.223103
 21
27.814033
  0
POINT
  8
寸法
 62
     0
 10
-78.223103
 20
47.814033
  0
POINT
  8
寸法
 62
     0
 10
-78.223103
 20
27.814033
  0
TEXT
  7
TextStyle03
  8
寸法
  6
CONTINUOUS
 62
     0
 10
-78.6
 20
35.3625
  1
600
 40
3.0
 50
90.0
 72
     5
 11
-78.6
 21
40.2375
  0
ENDBLK
  0
BLOCK
  2
*DIM_0013
 70
    65
 10
0.0
 20
0.0
  0
LINE
  8
寸法
  6
BYBLOCK
 62
     0
 10
-55.2636
 20
55.814033
 11
-55.2636
 21
85.561652
  0
LINE
  8
寸法
  6
BYBLOCK
 62
     0
 10
-31.930267
 20
55.814033
 11
-31.930267
 21
85.561652
  0
LINE
  8
寸法
  6
BYBLOCK
 62
     0
 10
-55.2636
 20
85.561652
 11
-31.930267
 21
85.561652
  0
POINT
  8
寸法
 62
     0
 10
-55.2636
 20
85.561652
  0
POINT
  8
寸法
 62
     0
 10
-31.930267
 20
85.561652
  0
TEXT
  7
TextStyle03
  8
寸法
  6
CONTINUOUS
 62
     0
 10
-46.0375
 20
85.925
  1
700
 40
3.0
 72
     5
 11
-41.1625
 21
85.925
  0
ENDBLK
  0
BLOCK
  2
*DIM_0014
 70
    65
 10
0.0
 20
0.0
  0
LINE
  8
寸法
  6
BYBLOCK
 62
     0
 10
-8.596933
 20
55.814033
 11
-8.596933
 21
85.561652
  0
LINE
  8
寸法
  6
BYBLOCK
 62
     0
 10
-31.930267
 20
85.561652
 11
-8.596933
 21
85.561652
  0
POINT
  8
寸法
 62
     0
 10
-8.596933
 20
85.561652
  0
TEXT
  7
TextStyle03
  8
寸法
  6
CONTINUOUS
 62
     0
 10
-22.7125
 20
85.925
  1
700
 40
3.0
 72
     5
 11
-17.8375
 21
85.925
  0
ENDBLK
  0
BLOCK
  2
*DIM_0015
 70
    65
 10
0.0
 20
0.0
  0
LINE
  8
寸法
  6
BYBLOCK
 62
     0
 10
14.7364
 20
55.814033
 11
14.7364
 21
85.561652
  0
LINE
  8
寸法
  6
BYBLOCK
 62
     0
 10
-8.596933
 20
85.561652
 11
14.7364
 21
85.561652
  0
POINT
  8
寸法
 62
     0
 10
14.7364
 20
85.561652
  0
TEXT
  7
TextStyle03
  8
寸法
  6
CONTINUOUS
 62
     0
 10
0.6375
 20
85.925
  1
700
 40
3.0
 72
     5
 11
5.5125
 21
85.925
  0
ENDBLK
  0
BLOCK
  2
*DIM_0016
 70
    65
 10
0.0
 20
0.0
  0
LINE
  8
寸法
  6
CONTINUOUS
 10
108.96238
 20
66.643603
 11
116.61243
 21
66.643603
  0
POINT
  8
寸法
 10
108.96238
 20
66.643603
  0
POINT
  8
寸法
 10
116.61243
 20
66.643603
  0
TEXT
  7
TextStyle03
  8
寸法
  6
CONTINUOUS
 10
108.65
 20
67.0
  1
229.5
 40
3.0
 72
     5
 11
116.9
 21
67.0
  0
ENDBLK
  0
BLOCK
  2
*GRP_0017
 70
    65
 10
0.0
 20
0.0
  0
LINE
  8
補助線
  6
BYBLOCK
 62
    64
 10
-58.528402
 20
-73.840855
 11
-58.665452
 21
-73.9357
  0
LINE
  8
補助線
  6
BYBLOCK
 62
    64
 10
-58.64435
 20
-73.81975
 11
-58.549505
 21
-73.956802
  0
LINE
  8
補助線
  6
BYBLOCK
 62
    64
 10
-49.401
 20
-67.524165
 11
-49.53805
 21
-67.619008
  0
LINE
  8
補助線
  6
BYBLOCK
 62
    64
 10
-49.516947
 20
-67.50306
 11
-49.422102
 21
-67.64011
  0
LINE
  8
補助線
  6
BYBLOCK
 62
    64
 10
-40.410647
 20
-61.302318
 11
-40.2736
 21
-61.207473
  0
LINE
  8
補助線
  6
BYBLOCK
 62
    64
 10
-40.389548
 20
-61.186367
 11
-40.2947
 21
-61.32342
  0
LINE
  8
型材断面
  6
CONTINUOUS
 10
-59.345248
 20
-73.39273
 11
-59.471857
 21
-74.08841
  0
LINE
  8
型材断面
  6
CONTINUOUS
 10
-59.471857
 20
-74.08841
 11
-59.092475
 21
-74.6366
  0
LINE
  8
型材断面
  6
CONTINUOUS
 10
-59.092475
 20
-74.6366
 11
-58.396795
 21
-74.76321
  0
LINE
  8
型材断面
  6
CONTINUOUS
 10
-40.542255
 20
-60.379965
 11
-39.846575
 21
-60.506575
  0
LINE
  8
型材断面
  6
CONTINUOUS
 10
-39.846575
 20
-60.506575
 11
-39.467192
 21
-61.054765
  0
LINE
  8
型材断面
  6
CONTINUOUS
 10
-39.467192
 20
-61.054765
 11
-39.593803
 21
-61.750445
  0
LINE
  8
型材断面
  6
CONTINUOUS
 10
-59.345248
 20
-73.39273
 11
-40.542255
 21
-60.379965
  0
LINE
  8
型材断面
  6
CONTINUOUS
 10
-58.396795
 20
-74.76321
 11
-39.593803
 21
-61.750445
  0
CIRCLE
  8
ボルト／ビス
  6
CONTINUOUS
 10
-58.596928
 20
-73.888278
 40
0.250185
  0
CIRCLE
  8
ボルト／ビス
  6
CONTINUOUS
 10
-58.596928
 20
-73.888278
 40
0.301025
  0
LINE
  8
ボルト／ビス
  6
CONTINUOUS
 62
    64
 10
-58.846277
 20
-73.908715
 11
-58.7393
 21
-73.682555
  0
LINE
  8
ボルト／ビス
  6
CONTINUOUS
 62
    64
 10
-58.48995
 20
-73.662118
 11
-58.7393
 21
-73.682555
  0
LINE
  8
ボルト／ビス
  6
CONTINUOUS
 62
    64
 10
-58.703905
 20
-74.114437
 11
-58.454555
 21
-74.094
  0
LINE
  8
ボルト／ビス
  6
CONTINUOUS
 62
    64
 10
-58.347577
 20
-73.86784
 11
-58.454555
 21
-74.094
  0
LINE
  8
ボルト／ビス
  6
CONTINUOUS
 62
    64
 10
-58.846277
 20
-73.908715
 11
-58.703905
 21
-74.114437
  0
LINE
  8
ボルト／ビス
  6
CONTINUOUS
 62
    64
 10
-58.48995
 20
-73.662118
 11
-58.347577
 21
-73.86784
  0
CIRCLE
  8
ボルト／ビス
  6
CONTINUOUS
 62
    64
 10
-58.596928
 20
-73.888278
 40
0.216668
  0
CIRCLE
  8
ボルト／ビス
  6
CONTINUOUS
 10
-49.469525
 20
-67.571585
 40
0.250185
  0
CIRCLE
  8
ボルト／ビス
  6
CONTINUOUS
 10
-49.469525
 20
-67.571585
 40
0.301025
  0
LINE
  8
ボルト／ビス
  6
CONTINUOUS
 62
    64
 10
-49.718877
 20
-67.592022
 11
-49.6119
 21
-67.365863
  0
LINE
  8
ボルト／ビス
  6
CONTINUOUS
 62
    64
 10
-49.362547
 20
-67.345425
 11
-49.6119
 21
-67.365863
  0
LINE
  8
ボルト／ビス
  6
CONTINUOUS
 62
    64
 10
-49.576502
 20
-67.797747
 11
-49.327153
 21
-67.77731
  0
LINE
  8
ボルト／ビス
  6
CONTINUOUS
 62
    64
 10
-49.220178
 20
-67.55115
 11
-49.327153
 21
-67.77731
  0
LINE
  8
ボルト／ビス
  6
CONTINUOUS
 62
    64
 10
-49.718877
 20
-67.592022
 11
-49.576502
 21
-67.797747
  0
LINE
  8
ボルト／ビス
  6
CONTINUOUS
 62
    64
 10
-49.362547
 20
-67.345425
 11
-49.220178
 21
-67.55115
  0
CIRCLE
  8
ボルト／ビス
  6
CONTINUOUS
 62
    64
 10
-49.469525
 20
-67.571585
 40
0.216668
  0
CIRCLE
  8
ボルト／ビス
  6
CONTINUOUS
 10
-40.342123
 20
-61.254895
 40
0.250185
  0
CIRCLE
  8
ボルト／ビス
  6
CONTINUOUS
 10
-40.342123
 20
-61.254895
 40
0.301025
  0
LINE
  8
ボルト／ビス
  6
CONTINUOUS
 62
    64
 10
-40.235145
 20
-61.028733
 11
-40.484495
 21
-61.049172
  0
LINE
  8
ボルト／ビス
  6
CONTINUOUS
 62
    64
 10
-40.591472
 20
-61.275332
 11
-40.484495
 21
-61.049172
  0
LINE
  8
ボルト／ビス
  6
CONTINUOUS
 62
    64
 10
-40.092775
 20
-61.234458
 11
-40.19975
 21
-61.460617
  0
LINE
  8
ボルト／ビス
  6
CONTINUOUS
 62
    64
 10
-40.4491
 20
-61.481055
 11
-40.19975
 21
-61.460617
  0
LINE
  8
ボルト／ビス
  6
CONTINUOUS
 62
    64
 10
-40.235145
 20
-61.028733
 11
-40.092775
 21
-61.234458
  0
LINE
  8
ボルト／ビス
  6
CONTINUOUS
 62
    64
 10
-40.591472
 20
-61.275332
 11
-40.4491
 21
-61.481055
  0
CIRCLE
  8
ボルト／ビス
  6
CONTINUOUS
 62
    64
 10
-40.342123
 20
-61.254895
 40
0.216668
  0
ENDBLK
  0
BLOCK
  2
*GRP_0018
 70
    65
 10
0.0
 20
0.0
  0
LINE
  8
補助線
  6
BYBLOCK
 62
    64
 10
-40.410647
 20
-73.840855
 11
-40.273597
 21
-73.9357
  0
LINE
  8
補助線
  6
BYBLOCK
 62
    64
 10
-40.2947
 20
-73.81975
 11
-40.389545
 21
-73.956802
  0
LINE
  8
補助線
  6
BYBLOCK
 62
    64
 10
-49.53805
 20
-67.524165
 11
-49.401
 21
-67.619008
  0
LINE
  8
補助線
  6
BYBLOCK
 62
    64
 10
-49.422102
 20
-67.50306
 11
-49.516947
 21
-67.64011
  0
LINE
  8
補助線
  6
BYBLOCK
 62
    64
 10
-58.528402
 20
-61.302318
 11
-58.66545
 21
-61.207473
  0
LINE
  8
補助線
  6
BYBLOCK
 62
    64
 10
-58.549503
 20
-61.186367
 11
-58.64435
 21
-61.32342
  0
LINE
  8
型材断面
  6
CONTINUOUS
 10
-39.593803
 20
-73.39273
 11
-39.467192
 21
-74.08841
  0
LINE
  8
型材断面
  6
CONTINUOUS
 10
-39.467192
 20
-74.08841
 11
-39.846575
 21
-74.6366
  0
LINE
  8
型材断面
  6
CONTINUOUS
 10
-39.846575
 20
-74.6366
 11
-40.542255
 21
-74.76321
  0
LINE
  8
型材断面
  6
CONTINUOUS
 10
-58.396795
 20
-60.379965
 11
-59.092475
 21
-60.506575
  0
LINE
  8
型材断面
  6
CONTINUOUS
 10
-59.092475
 20
-60.506575
 11
-59.471857
 21
-61.054765
  0
LINE
  8
型材断面
  6
CONTINUOUS
 10
-59.471857
 20
-61.054765
 11
-59.345248
 21
-61.750445
  0
LINE
  8
型材断面
  6
CONTINUOUS
 10
-39.593803
 20
-73.39273
 11
-58.396795
 21
-60.379965
  0
LINE
  8
型材断面
  6
CONTINUOUS
 10
-40.542255
 20
-74.76321
 11
-59.345248
 21
-61.750445
  0
CIRCLE
  8
ボルト／ビス
  6
CONTINUOUS
 10
-40.342123
 20
-73.888278
 40
0.250185
  0
CIRCLE
  8
ボルト／ビス
  6
CONTINUOUS
 10
-40.342123
 20
-73.888278
 40
0.301025
  0
LINE
  8
ボルト／ビス
  6
CONTINUOUS
 62
    64
 10
-40.092772
 20
-73.908715
 11
-40.19975
 21
-73.682555
  0
LINE
  8
ボルト／ビス
  6
CONTINUOUS
 62
    64
 10
-40.4491
 20
-73.662118
 11
-40.19975
 21
-73.682555
  0
LINE
  8
ボルト／ビス
  6
CONTINUOUS
 62
    64
 10
-40.235145
 20
-74.114437
 11
-40.484495
 21
-74.094
  0
LINE
  8
ボルト／ビス
  6
CONTINUOUS
 62
    64
 10
-40.591472
 20
-73.86784
 11
-40.484495
 21
-74.094
  0
LINE
  8
ボルト／ビス
  6
CONTINUOUS
 62
    64
 10
-40.092772
 20
-73.908715
 11
-40.235145
 21
-74.114437
  0
LINE
  8
ボルト／ビス
  6
CONTINUOUS
 62
    64
 10
-40.4491
 20
-73.662118
 11
-40.591472
 21
-73.86784
  0
CIRCLE
  8
ボルト／ビス
  6
CONTINUOUS
 62
    64
 10
-40.342123
 20
-73.888278
 40
0.216668
  0
CIRCLE
  8
ボルト／ビス
  6
CONTINUOUS
 10
-49.469525
 20
-67.571585
 40
0.250185
  0
CIRCLE
  8
ボルト／ビス
  6
CONTINUOUS
 10
-49.469525
 20
-67.571585
 40
0.301025
  0
LINE
  8
ボルト／ビス
  6
CONTINUOUS
 62
    64
 10
-49.220172
 20
-67.592022
 11
-49.32715
 21
-67.365863
  0
LINE
  8
ボルト／ビス
  6
CONTINUOUS
 62
    64
 10
-49.576502
 20
-67.345425
 11
-49.32715
 21
-67.365863
  0
LINE
  8
ボルト／ビス
  6
CONTINUOUS
 62
    64
 10
-49.362547
 20
-67.797747
 11
-49.611898
 21
-67.77731
  0
LINE
  8
ボルト／ビス
  6
CONTINUOUS
 62
    64
 10
-49.718872
 20
-67.55115
 11
-49.611898
 21
-67.77731
  0
LINE
  8
ボルト／ビス
  6
CONTINUOUS
 62
    64
 10
-49.220172
 20
-67.592022
 11
-49.362547
 21
-67.797747
  0
LINE
  8
ボルト／ビス
  6
CONTINUOUS
 62
    64
 10
-49.576502
 20
-67.345425
 11
-49.718872
 21
-67.55115
  0
CIRCLE
  8
ボルト／ビス
  6
CONTINUOUS
 62
    64
 10
-49.469525
 20
-67.571585
 40
0.216668
  0
CIRCLE
  8
ボルト／ビス
  6
CONTINUOUS
 10
-58.596928
 20
-61.254895
 40
0.250185
  0
CIRCLE
  8
ボルト／ビス
  6
CONTINUOUS
 10
-58.596928
 20
-61.254895
 40
0.301025
  0
LINE
  8
ボルト／ビス
  6
CONTINUOUS
 62
    64
 10
-58.703905
 20
-61.028733
 11
-58.454555
 21
-61.049172
  0
LINE
  8
ボルト／ビス
  6
CONTINUOUS
 62
    64
 10
-58.347577
 20
-61.275332
 11
-58.454555
 21
-61.049172
  0
LINE
  8
ボルト／ビス
  6
CONTINUOUS
 62
    64
 10
-58.846275
 20
-61.234458
 11
-58.7393
 21
-61.460617
  0
LINE
  8
ボルト／ビス
  6
CONTINUOUS
 62
    64
 10
-58.48995
 20
-61.481055
 11
-58.7393
 21
-61.460617
  0
LINE
  8
ボルト／ビス
  6
CONTINUOUS
 62
    64
 10
-58.703905
 20
-61.028733
 11
-58.846275
 21
-61.234458
  0
LINE
  8
ボルト／ビス
  6
CONTINUOUS
 62
    64
 10
-58.347577
 20
-61.275332
 11
-58.48995
 21
-61.481055
  0
CIRCLE
  8
ボルト／ビス
  6
CONTINUOUS
 62
    64
 10
-58.596928
 20
-61.254895
 40
0.216668
  0
ENDBLK
  0
BLOCK
  2
*GRP_0019
 70
    65
 10
0.0
 20
0.0
  0
LINE
  8
補助線
  6
BYBLOCK
 62
    64
 10
18.001217
 20
-73.840855
 11
18.138268
 21
-73.9357
  0
LINE
  8
補助線
  6
BYBLOCK
 62
    64
 10
18.117165
 20
-73.81975
 11
18.02232
 21
-73.956802
  0
LINE
  8
補助線
  6
BYBLOCK
 62
    64
 10
8.873815
 20
-67.524165
 11
9.010865
 21
-67.619008
  0
LINE
  8
補助線
  6
BYBLOCK
 62
    64
 10
8.989762
 20
-67.50306
 11
8.894917
 21
-67.64011
  0
LINE
  8
補助線
  6
BYBLOCK
 62
    64
 10
-0.116537
 20
-61.302318
 11
-0.253585
 21
-61.207473
  0
LINE
  8
補助線
  6
BYBLOCK
 62
    64
 10
-0.137637
 20
-61.186367
 11
-0.232485
 21
-61.32342
  0
LINE
  8
型材断面
  6
CONTINUOUS
 10
18.818063
 20
-73.39273
 11
18.944672
 21
-74.08841
  0
LINE
  8
型材断面
  6
CONTINUOUS
 10
18.944672
 20
-74.08841
 11
18.56529
 21
-74.6366
  0
LINE
  8
型材断面
  6
CONTINUOUS
 10
18.56529
 20
-74.6366
 11
17.86961
 21
-74.76321
  0
LINE
  8
型材断面
  6
CONTINUOUS
 10
0.01507
 20
-60.379965
 11
-0.68061
 21
-60.506575
  0
LINE
  8
型材断面
  6
CONTINUOUS
 10
-0.68061
 20
-60.506575
 11
-1.059993
 21
-61.054765
  0
LINE
  8
型材断面
  6
CONTINUOUS
 10
-1.059993
 20
-61.054765
 11
-0.933382
 21
-61.750445
  0
LINE
  8
型材断面
  6
CONTINUOUS
 10
18.818063
 20
-73.39273
 11
0.01507
 21
-60.379965
  0
LINE
  8
型材断面
  6
CONTINUOUS
 10
17.86961
 20
-74.76321
 11
-0.933382
 21
-61.750445
  0
CIRCLE
  8
ボルト／ビス
  6
CONTINUOUS
 10
18.069743
 20
-73.888278
 40
0.250185
  0
CIRCLE
  8
ボルト／ビス
  6
CONTINUOUS
 10
18.069743
 20
-73.888278
 40
0.301025
  0
LINE
  8
ボルト／ビス
  6
CONTINUOUS
 62
    64
 10
18.319093
 20
-73.908715
 11
18.212115
 21
-73.682555
  0
LINE
  8
ボルト／ビス
  6
CONTINUOUS
 62
    64
 10
17.962765
 20
-73.662118
 11
18.212115
 21
-73.682555
  0
LINE
  8
ボルト／ビス
  6
CONTINUOUS
 62
    64
 10
18.17672
 20
-74.114437
 11
17.92737
 21
-74.094
  0
LINE
  8
ボルト／ビス
  6
CONTINUOUS
 62
    64
 10
17.820392
 20
-73.86784
 11
17.92737
 21
-74.094
  0
LINE
  8
ボルト／ビス
  6
CONTINUOUS
 62
    64
 10
18.319093
 20
-73.908715
 11
18.17672
 21
-74.114437
  0
LINE
  8
ボルト／ビス
  6
CONTINUOUS
 62
    64
 10
17.962765
 20
-73.662118
 11
17.820392
 21
-73.86784
  0
CIRCLE
  8
ボルト／ビス
  6
CONTINUOUS
 62
    64
 10
18.069743
 20
-73.888278
 40
0.216668
  0
CIRCLE
  8
ボルト／ビス
  6
CONTINUOUS
 10
8.94234
 20
-67.571585
 40
0.250185
  0
CIRCLE
  8
ボルト／ビス
  6
CONTINUOUS
 10
8.94234
 20
-67.571585
 40
0.301025
  0
LINE
  8
ボルト／ビス
  6
CONTINUOUS
 62
    64
 10
9.191692
 20
-67.592022
 11
9.084715
 21
-67.365863
  0
LINE
  8
ボルト／ビス
  6
CONTINUOUS
 62
    64
 10
8.835362
 20
-67.345425
 11
9.084715
 21
-67.365863
  0
LINE
  8
ボルト／ビス
  6
CONTINUOUS
 62
    64
 10
9.049317
 20
-67.797747
 11
8.799967
 21
-67.77731
  0
LINE
  8
ボルト／ビス
  6
CONTINUOUS
 62
    64
 10
8.692993
 20
-67.55115
 11
8.799967
 21
-67.77731
  0
LINE
  8
ボルト／ビス
  6
CONTINUOUS
 62
    64
 10
9.191692
 20
-67.592022
 11
9.049317
 21
-67.797747
  0
LINE
  8
ボルト／ビス
  6
CONTINUOUS
 62
    64
 10
8.835362
 20
-67.345425
 11
8.692993
 21
-67.55115
  0
CIRCLE
  8
ボルト／ビス
  6
CONTINUOUS
 62
    64
 10
8.94234
 20
-67.571585
 40
0.216668
  0
CIRCLE
  8
ボルト／ビス
  6
CONTINUOUS
 10
-0.185063
 20
-61.254895
 40
0.250185
  0
CIRCLE
  8
ボルト／ビス
  6
CONTINUOUS
 10
-0.185063
 20
-61.254895
 40
0.301025
  0
LINE
  8
ボルト／ビス
  6
CONTINUOUS
 62
    64
 10
-0.29204
 20
-61.028733
 11
-0.04269
 21
-61.049172
  0
LINE
  8
ボルト／ビス
  6
CONTINUOUS
 62
    64
 10
0.064287
 20
-61.275332
 11
-0.04269
 21
-61.049172
  0
LINE
  8
ボルト／ビス
  6
CONTINUOUS
 62
    64
 10
-0.43441
 20
-61.234458
 11
-0.327435
 21
-61.460617
  0
LINE
  8
ボルト／ビス
  6
CONTINUOUS
 62
    64
 10
-0.078085
 20
-61.481055
 11
-0.327435
 21
-61.460617
  0
LINE
  8
ボルト／ビス
  6
CONTINUOUS
 62
    64
 10
-0.29204
 20
-61.028733
 11
-0.43441
 21
-61.234458
  0
LINE
  8
ボルト／ビス
  6
CONTINUOUS
 62
    64
 10
0.064287
 20
-61.275332
 11
-0.078085
 21
-61.481055
  0
CIRCLE
  8
ボルト／ビス
  6
CONTINUOUS
 62
    64
 10
-0.185063
 20
-61.254895
 40
0.216668
  0
ENDBLK
  0
BLOCK
  2
*GRP_0020
 70
    65
 10
0.0
 20
0.0
  0
LINE
  8
補助線
  6
BYBLOCK
 62
    64
 10
-0.116537
 20
-73.840855
 11
-0.253587
 21
-73.9357
  0
LINE
  8
補助線
  6
BYBLOCK
 62
    64
 10
-0.232485
 20
-73.81975
 11
-0.13764
 21
-73.956802
  0
LINE
  8
補助線
  6
BYBLOCK
 62
    64
 10
9.010865
 20
-67.524165
 11
8.873815
 21
-67.619008
  0
LINE
  8
補助線
  6
BYBLOCK
 62
    64
 10
8.894917
 20
-67.50306
 11
8.989762
 21
-67.64011
  0
LINE
  8
補助線
  6
BYBLOCK
 62
    64
 10
18.001217
 20
-61.302318
 11
18.138265
 21
-61.207473
  0
LINE
  8
補助線
  6
BYBLOCK
 62
    64
 10
18.022317
 20
-61.186367
 11
18.117165
 21
-61.32342
  0
LINE
  8
型材断面
  6
CONTINUOUS
 10
-0.933382
 20
-73.39273
 11
-1.059993
 21
-74.08841
  0
LINE
  8
型材断面
  6
CONTINUOUS
 10
-1.059993
 20
-74.08841
 11
-0.68061
 21
-74.6366
  0
LINE
  8
型材断面
  6
CONTINUOUS
 10
-0.68061
 20
-74.6366
 11
0.01507
 21
-74.76321
  0
LINE
  8
型材断面
  6
CONTINUOUS
 10
17.86961
 20
-60.379965
 11
18.56529
 21
-60.506575
  0
LINE
  8
型材断面
  6
CONTINUOUS
 10
18.56529
 20
-60.506575
 11
18.944672
 21
-61.054765
  0
LINE
  8
型材断面
  6
CONTINUOUS
 10
18.944672
 20
-61.054765
 11
18.818063
 21
-61.750445
  0
LINE
  8
型材断面
  6
CONTINUOUS
 10
-0.933382
 20
-73.39273
 11
17.86961
 21
-60.379965
  0
LINE
  8
型材断面
  6
CONTINUOUS
 10
0.01507
 20
-74.76321
 11
18.818063
 21
-61.750445
  0
CIRCLE
  8
ボルト／ビス
  6
CONTINUOUS
 10
-0.185063
 20
-73.888278
 40
0.250185
  0
CIRCLE
  8
ボルト／ビス
  6
CONTINUOUS
 10
-0.185063
 20
-73.888278
 40
0.301025
  0
LINE
  8
ボルト／ビス
  6
CONTINUOUS
 62
    64
 10
-0.434412
 20
-73.908715
 11
-0.327435
 21
-73.682555
  0
LINE
  8
ボルト／ビス
  6
CONTINUOUS
 62
    64
 10
-0.078085
 20
-73.662118
 11
-0.327435
 21
-73.682555
  0
LINE
  8
ボルト／ビス
  6
CONTINUOUS
 62
    64
 10
-0.29204
 20
-74.114437
 11
-0.04269
 21
-74.094
  0
LINE
  8
ボルト／ビス
  6
CONTINUOUS
 62
    64
 10
0.064287
 20
-73.86784
 11
-0.04269
 21
-74.094
  0
LINE
  8
ボルト／ビス
  6
CONTINUOUS
 62
    64
 10
-0.434412
 20
-73.908715
 11
-0.29204
 21
-74.114437
  0
LINE
  8
ボルト／ビス
  6
CONTINUOUS
 62
    64
 10
-0.078085
 20
-73.662118
 11
0.064287
 21
-73.86784
  0
CIRCLE
  8
ボルト／ビス
  6
CONTINUOUS
 62
    64
 10
-0.185063
 20
-73.888278
 40
0.216668
  0
CIRCLE
  8
ボルト／ビス
  6
CONTINUOUS
 10
8.94234
 20
-67.571585
 40
0.250185
  0
CIRCLE
  8
ボルト／ビス
  6
CONTINUOUS
 10
8.94234
 20
-67.571585
 40
0.301025
  0
LINE
  8
ボルト／ビス
  6
CONTINUOUS
 62
    64
 10
8.692987
 20
-67.592022
 11
8.799965
 21
-67.365863
  0
LINE
  8
ボルト／ビス
  6
CONTINUOUS
 62
    64
 10
9.049317
 20
-67.345425
 11
8.799965
 21
-67.365863
  0
LINE
  8
ボルト／ビス
  6
CONTINUOUS
 62
    64
 10
8.835362
 20
-67.797747
 11
9.084713
 21
-67.77731
  0
LINE
  8
ボルト／ビス
  6
CONTINUOUS
 62
    64
 10
9.191688
 20
-67.55115
 11
9.084713
 21
-67.77731
  0
LINE
  8
ボルト／ビス
  6
CONTINUOUS
 62
    64
 10
8.692987
 20
-67.592022
 11
8.835362
 21
-67.797747
  0
LINE
  8
ボルト／ビス
  6
CONTINUOUS
 62
    64
 10
9.049317
 20
-67.345425
 11
9.191688
 21
-67.55115
  0
CIRCLE
  8
ボルト／ビス
  6
CONTINUOUS
 62
    64
 10
8.94234
 20
-67.571585
 40
0.216668
  0
CIRCLE
  8
ボルト／ビス
  6
CONTINUOUS
 10
18.069743
 20
-61.254895
 40
0.250185
  0
CIRCLE
  8
ボルト／ビス
  6
CONTINUOUS
 10
18.069743
 20
-61.254895
 40
0.301025
  0
LINE
  8
ボルト／ビス
  6
CONTINUOUS
 62
    64
 10
18.17672
 20
-61.028733
 11
17.92737
 21
-61.049172
  0
LINE
  8
ボルト／ビス
  6
CONTINUOUS
 62
    64
 10
17.820392
 20
-61.275332
 11
17.92737
 21
-61.049172
  0
LINE
  8
ボルト／ビス
  6
CONTINUOUS
 62
    64
 10
18.31909
 20
-61.234458
 11
18.212115
 21
-61.460617
  0
LINE
  8
ボルト／ビス
  6
CONTINUOUS
 62
    64
 10
17.962765
 20
-61.481055
 11
18.212115
 21
-61.460617
  0
LINE
  8
ボルト／ビス
  6
CONTINUOUS
 62
    64
 10
18.17672
 20
-61.028733
 11
18.31909
 21
-61.234458
  0
LINE
  8
ボルト／ビス
  6
CONTINUOUS
 62
    64
 10
17.820392
 20
-61.275332
 11
17.962765
 21
-61.481055
  0
CIRCLE
  8
ボルト／ビス
  6
CONTINUOUS
 62
    64
 10
18.069743
 20
-61.254895
 40
0.216668
  0
ENDBLK
  0
BLOCK
  2
*DIM_0021
 70
    65
 10
0.0
 20
0.0
  0
LINE
  8
寸法
  6
CONTINUOUS
 10
34.638313
 20
-68.31156
 11
34.638313
 21
-75.96161
  0
POINT
  8
寸法
 10
34.638313
 20
-68.31156
  0
POINT
  8
寸法
 10
34.638313
 20
-75.96161
  0
TEXT
  7
TextStyle03
  8
寸法
  6
CONTINUOUS
 10
38.875
 20
-76.225
  1
229.5
 40
3.0
 50
90.0
 72
     5
 11
38.875
 21
-67.975
  0
ENDBLK
  0
BLOCK
  2
*DIM_0022
 70
    65
 10
0.0
 20
0.0
  0
LINE
  8
寸法
  6
CONTINUOUS
 10
116.489623
 20
-45.12514
 11
75.739623
 21
-45.12514
  0
POINT
  8
寸法
 10
116.489623
 20
-45.12514
  0
POINT
  8
寸法
 10
75.739623
 20
-45.12514
  0
TEXT
  7
TextStyle03
  8
寸法
  6
CONTINUOUS
 10
91.13125
 20
-44.775
  1
1222.5
 40
3.0
 72
     5
 11
101.06875
 21
-44.775
  0
ENDBLK
  0
BLOCK
  2
*DIM_0023
 70
    65
 10
0.0
 20
0.0
  0
LINE
  8
寸法
  6
BYBLOCK
 62
     0
 10
34.638313
 20
-68.31156
 11
34.638313
 21
-58.31156
  0
POINT
  8
寸法
 62
     0
 10
34.638313
 20
-68.31156
  0
POINT
  8
寸法
 62
     0
 10
34.638313
 20
-58.31156
  0
TEXT
  7
TextStyle03
  8
寸法
  6
CONTINUOUS
 62
     0
 10
34.125
 20
-56.64375
  1
上昇266以上
 40
3.0
 50
90.0
 72
     5
 11
34.125
 21
-38.45625
  0
ENDBLK
  0
ENDSEC
  0
SECTION
  2
ENTITIES
  0
POLYLINE
  8
通り芯
  6
CONTINUOUS
 66
     1
 70
     1
  0
VERTEX
  8
通り芯
 10
-210.0
 20
-148.5
  0
VERTEX
  8
通り芯
 10
210.0
 20
-148.5
  0
VERTEX
  8
通り芯
 10
210.0
 20
148.5
  0
VERTEX
  8
通り芯
 10
-210.0
 20
148.5
  0
SEQEND
  0
INSERT
  2
*GRP_0001
  8
型材断面
  6
CONTINUOUS
 10
0.0
 20
0.0
  0
LINE
  8
型材断面
  6
DASHDOT
 10
21.403067
 20
-77.836442
 11
21.403067
 21
52.814033
  0
LINE
  8
型材断面
  6
DASHDOT
 10
-20.2636
 20
-77.836442
 11
-20.2636
 21
52.814033
  0
LINE
  8
型材断面
  6
DASHDOT
 10
-61.930265
 20
-77.836442
 11
-61.930265
 21
52.814033
  0
LINE
  8
型材断面
  6
DASHDOT
 10
119.07983
 20
52.814033
 11
-61.930265
 21
52.814033
  0
LINE
  8
型材断面
  6
DASHDOT
 10
119.07983
 20
37.814033
 11
-61.930265
 21
37.814033
  0
LINE
  8
型材断面
  6
DASHDOT
 10
119.07983
 20
22.814033
 11
-61.930265
 21
22.814033
  0
LINE
  8
型材断面
  6
DASHDOT
 10
-20.2636
 20
22.814033
 11
-20.2636
 21
52.814033
  0
POLYLINE
  8
型材断面
  6
CONTINUOUS
 66
     1
 70
     1
  0
VERTEX
  8
型材断面
 10
-10.779187
 20
13.03811
  0
VERTEX
  8
型材断面
 10
-29.551117
 20
13.03811
  0
VERTEX
  8
型材断面
 10
-29.551117
 20
8.301267
  0
VERTEX
  8
型材断面
 10
-10.779187
 20
8.301267
  0
SEQEND
  0
POLYLINE
  8
型材断面
  6
CONTINUOUS
 66
     1
 70
     1
  0
VERTEX
  8
型材断面
 10
-10.779187
 20
62.589955
  0
VERTEX
  8
型材断面
 10
-29.551117
 20
62.589955
  0
VERTEX
  8
型材断面
 10
-29.551117
 20
67.326798
  0
VERTEX
  8
型材断面
 10
-10.779187
 20
67.326798
  0
SEQEND
  0
LINE
  8
型材断面
  6
CONTINUOUS
 10
-45.263598
 20
55.444162
 11
-46.759227
 21
58.03467
  0
LINE
  8
型材断面
  6
CONTINUOUS
 10
-45.263598
 20
55.444162
 11
-43.767968
 21
58.03467
  0
LINE
  8
型材断面
  6
CONTINUOUS
 10
-43.767968
 20
58.03467
 11
-46.759227
 21
58.03467
  0
LINE
  8
型材断面
  6
CONTINUOUS
 10
-64.560395
 20
37.814033
 11
-67.150903
 21
39.309663
  0
LINE
  8
型材断面
  6
CONTINUOUS
 10
-64.560395
 20
37.814033
 11
-67.150903
 21
36.318403
  0
LINE
  8
型材断面
  6
CONTINUOUS
 10
-67.150903
 20
36.318403
 11
-67.150903
 21
39.309663
  0
LINE
  8
型材断面
  6
CONTINUOUS
 10
-45.263598
 20
20.183902
 11
-46.759227
 21
17.593395
  0
LINE
  8
型材断面
  6
CONTINUOUS
 10
-45.263598
 20
20.183902
 11
-43.767968
 21
17.593395
  0
LINE
  8
型材断面
  6
CONTINUOUS
 10
-43.767968
 20
17.593395
 11
-46.759227
 21
17.593395
  0
LINE
  8
型材断面
  6
CONTINUOUS
 10
-115.808788
 20
90.791505
 11
-115.212733
 21
88.200998
  0
LINE
  8
型材断面
  6
CONTINUOUS
 10
-115.808788
 20
90.791505
 11
-116.404845
 21
88.200998
  0
LINE
  8
型材断面
  6
CONTINUOUS
 10
-116.404845
 20
88.200998
 11
-115.212733
 21
88.200998
  0
LINE
  8
型材断面
  6
CONTINUOUS
 10
-121.831375
 20
84.922105
 11
-75.589598
 21
84.922105
  0
LINE
  8
型材断面
  6
CONTINUOUS
 10
-115.808788
 20
97.32138
 11
-117.304418
 21
94.730873
  0
LINE
  8
型材断面
  6
CONTINUOUS
 10
-115.808788
 20
97.32138
 11
-114.313158
 21
94.730873
  0
LINE
  8
型材断面
  6
CONTINUOUS
 10
-114.313158
 20
94.730873
 11
-117.304418
 21
94.730873
  0
LINE
  8
型材断面
  6
CONTINUOUS
 10
-121.831375
 20
93.792277
 11
-75.589598
 21
93.792277
  0
LINE
  8
型材断面
  6
CONTINUOUS
 10
-121.831375
 20
79.134073
 11
-75.589598
 21
79.134073
  0
LINE
  8
型材断面
  6
CONTINUOUS
 10
4.736398
 20
55.444162
 11
6.232028
 21
58.03467
  0
LINE
  8
型材断面
  6
CONTINUOUS
 10
4.736398
 20
55.444162
 11
3.240768
 21
58.03467
  0
LINE
  8
型材断面
  6
CONTINUOUS
 10
3.240768
 20
58.03467
 11
6.232028
 21
58.03467
  0
LINE
  8
型材断面
  6
CONTINUOUS
 10
24.033195
 20
37.814033
 11
26.623703
 21
39.309663
  0
LINE
  8
型材断面
  6
CONTINUOUS
 10
24.033195
 20
37.814033
 11
26.623703
 21
36.318403
  0
LINE
  8
型材断面
  6
CONTINUOUS
 10
26.623703
 20
36.318403
 11
26.623703
 21
39.309663
  0
LINE
  8
型材断面
  6
CONTINUOUS
 10
4.736398
 20
20.183902
 11
6.232028
 21
17.593395
  0
LINE
  8
型材断面
  6
CONTINUOUS
 10
4.736398
 20
20.183902
 11
3.240768
 21
17.593395
  0
LINE
  8
型材断面
  6
CONTINUOUS
 10
3.240768
 20
17.593395
 11
6.232028
 21
17.593395
  0
LINE
  8
型材断面
  6
CONTINUOUS
 10
24.033197
 20
49.114035
 11
26.623707
 21
48.517982
  0
LINE
  8
型材断面
  6
CONTINUOUS
 10
24.033197
 20
49.114035
 11
26.623705
 21
49.710095
  0
LINE
  8
型材断面
  6
CONTINUOUS
 10
26.623705
 20
49.710095
 11
26.623707
 21
48.517982
  0
LINE
  8
型材断面
  6
CONTINUOUS
 10
24.033197
 20
26.51403
 11
26.623707
 21
27.110082
  0
LINE
  8
型材断面
  6
CONTINUOUS
 10
24.033197
 20
26.51403
 11
26.623705
 21
25.91797
  0
LINE
  8
型材断面
  6
CONTINUOUS
 10
26.623705
 20
25.91797
 11
26.623707
 21
27.110082
  0
LINE
  8
型材断面
  6
CONTINUOUS
 10
-64.560397
 20
49.114035
 11
-67.150907
 21
48.517982
  0
LINE
  8
型材断面
  6
CONTINUOUS
 10
-64.560397
 20
49.114035
 11
-67.150905
 21
49.710095
  0
LINE
  8
型材断面
  6
CONTINUOUS
 10
-67.150905
 20
49.710095
 11
-67.150907
 21
48.517982
  0
LINE
  8
型材断面
  6
CONTINUOUS
 10
-64.560397
 20
26.51403
 11
-67.150907
 21
27.110082
  0
LINE
  8
型材断面
  6
CONTINUOUS
 10
-64.560397
 20
26.51403
 11
-67.150905
 21
25.91797
  0
LINE
  8
型材断面
  6
CONTINUOUS
 10
-67.150905
 20
25.91797
 11
-67.150907
 21
27.110082
  0
LINE
  8
型材断面
  6
CONTINUOUS
 10
-63.91345
 20
20.830853
 11
-20.2636
 21
20.830853
  0
LINE
  8
型材断面
  6
CONTINUOUS
 10
23.38625
 20
20.830853
 11
-20.2636
 21
20.830853
  0
LINE
  8
型材断面
  6
CONTINUOUS
 10
23.38625
 20
54.797213
 11
-20.2636
 21
54.797213
  0
LINE
  8
型材断面
  6
CONTINUOUS
 10
-63.91345
 20
54.797213
 11
-20.2636
 21
54.797213
  0
LINE
  8
型材断面
  6
CONTINUOUS
 10
-121.831375
 20
73.34604
 11
-75.589598
 21
73.34604
  0
ARC
  8
型材断面
  6
CONTINUOUS
 62
    47
 10
113.079041
 20
20.830696
 40
0.016668
 50
179.999123
 51
270.0
  0
ARC
  8
型材断面
  6
CONTINUOUS
 62
    47
 10
113.119043
 20
20.82403
 40
0.010002
 50
270.0
 51
359.791626
  0
LINE
  8
型材断面
  6
CONTINUOUS
 62
    47
 10
113.295765
 20
20.864033
 11
113.295765
 21
21.71418
  0
LINE
  8
型材断面
  6
CONTINUOUS
 62
    47
 10
113.062375
 20
20.830695
 11
110.955715
 21
20.830695
  0
LINE
  8
型材断面
  6
CONTINUOUS
 62
    47
 10
113.295765
 20
20.8307
 11
116.61243
 21
20.8307
  0
LINE
  8
型材断面
  6
CONTINUOUS
 62
    47
 10
117.11243
 20
21.3307
 11
116.61243
 21
21.3307
  0
LINE
  8
型材断面
  6
CONTINUOUS
 62
    47
 10
110.955715
 20
21.714035
 11
110.629047
 21
21.714035
  0
LINE
  8
型材断面
  6
CONTINUOUS
 62
    47
 10
113.079042
 20
20.814033
 11
113.118702
 21
20.814033
  0
ARC
  8
型材断面
  6
CONTINUOUS
 62
    47
 10
113.079041
 20
54.797368
 40
0.016668
 50
90.0
 51
180.000877
  0
ARC
  8
型材断面
  6
CONTINUOUS
 62
    47
 10
113.119043
 20
54.804034
 40
0.010002
 50
0.208374
 51
90.0
  0
LINE
  8
型材断面
  6
CONTINUOUS
 62
    47
 10
113.295765
 20
54.76403
 11
113.295765
 21
53.913883
  0
LINE
  8
型材断面
  6
CONTINUOUS
 62
    47
 10
113.062375
 20
54.797367
 11
110.955715
 21
54.797367
  0
LINE
  8
型材断面
  6
CONTINUOUS
 62
    47
 10
113.295765
 20
54.797363
 11
116.61243
 21
54.797363
  0
LINE
  8
型材断面
  6
CONTINUOUS
 62
    47
 10
117.11243
 20
54.297363
 11
116.61243
 21
54.297363
  0
LINE
  8
型材断面
  6
CONTINUOUS
 62
    47
 10
110.955715
 20
53.914027
 11
110.629047
 21
53.914027
  0
LINE
  8
型材断面
  6
CONTINUOUS
 62
    47
 10
113.079042
 20
54.81403
 11
113.118702
 21
54.81403
  0
LINE
  8
型材断面
  6
CONTINUOUS
 10
108.96238
 20
54.21403
 11
108.96238
 21
37.814033
  0
LINE
  8
型材断面
  6
CONTINUOUS
 10
109.129047
 20
54.370552
 11
109.129047
 21
37.814033
  0
LINE
  8
型材断面
  6
CONTINUOUS
 10
110.629047
 20
54.21403
 11
110.629047
 21
37.814033
  0
LINE
  8
型材断面
  6
CONTINUOUS
 10
110.955715
 20
54.797367
 11
110.955715
 21
37.814033
  0
LINE
  8
型材断面
  6
CONTINUOUS
 10
113.129047
 20
54.804032
 11
113.129047
 21
37.814033
  0
LINE
  8
型材断面
  6
CONTINUOUS
 10
113.295765
 20
54.797363
 11
113.295765
 21
37.814033
  0
LINE
  8
型材断面
  6
CONTINUOUS
 10
116.61243
 20
54.797363
 11
116.61243
 21
37.814033
  0
LINE
  8
型材断面
  6
CONTINUOUS
 10
117.11243
 20
54.297363
 11
117.11243
 21
37.814033
  0
LINE
  8
型材断面
  6
CONTINUOUS
 10
117.11243
 20
21.3307
 11
117.11243
 21
37.814033
  0
LINE
  8
型材断面
  6
CONTINUOUS
 10
116.61243
 20
20.8307
 11
116.61243
 21
37.814033
  0
LINE
  8
型材断面
  6
CONTINUOUS
 10
113.129047
 20
20.82403
 11
113.129047
 21
37.814033
  0
LINE
  8
型材断面
  6
CONTINUOUS
 10
113.295765
 20
20.8307
 11
113.295765
 21
37.814033
  0
LINE
  8
型材断面
  6
CONTINUOUS
 10
110.955715
 20
20.830695
 11
110.955715
 21
37.814033
  0
LINE
  8
型材断面
  6
CONTINUOUS
 10
110.629047
 20
21.414033
 11
110.629047
 21
37.814033
  0
LINE
  8
型材断面
  6
CONTINUOUS
 10
109.129047
 20
21.257512
 11
109.129047
 21
37.814033
  0
LINE
  8
型材断面
  6
CONTINUOUS
 10
108.96238
 20
21.414033
 11
108.96238
 21
37.814033
  0
ARC
  8
型材断面
  6
CONTINUOUS
 62
    47
 10
-63.913602
 20
-72.428222
 40
0.016668
 50
89.999123
 51
180.0
  0
ARC
  8
型材断面
  6
CONTINUOUS
 62
    47
 10
-63.920267
 20
-72.468224
 40
0.010002
 50
180.0
 51
269.791626
  0
LINE
  8
型材断面
  6
CONTINUOUS
 62
    47
 10
-63.880263
 20
-72.644942
 11
-63.030117
 21
-72.644942
  0
LINE
  8
型材断面
  6
CONTINUOUS
 62
    47
 10
-63.913602
 20
-72.411555
 11
-63.913602
 21
-70.304895
  0
LINE
  8
型材断面
  6
CONTINUOUS
 62
    47
 10
-63.913598
 20
-72.644942
 11
-63.913598
 21
-75.96161
  0
LINE
  8
型材断面
  6
CONTINUOUS
 62
    47
 10
-63.413598
 20
-76.46161
 11
-63.413598
 21
-75.96161
  0
LINE
  8
型材断面
  6
CONTINUOUS
 62
    47
 10
-63.030263
 20
-70.304895
 11
-63.030263
 21
-69.978225
  0
LINE
  8
型材断面
  6
CONTINUOUS
 62
    47
 10
-63.930263
 20
-72.42822
 11
-63.930263
 21
-72.46788
  0
ARC
  8
型材断面
  6
CONTINUOUS
 62
    47
 10
23.386404
 20
-72.428222
 40
0.016668
 50
0.0
 51
90.000877
  0
ARC
  8
型材断面
  6
CONTINUOUS
 62
    47
 10
23.39307
 20
-72.468224
 40
0.010002
 50
270.208374
 51
360.0
  0
LINE
  8
型材断面
  6
CONTINUOUS
 62
    47
 10
23.353067
 20
-72.644942
 11
22.50292
 21
-72.644942
  0
LINE
  8
型材断面
  6
CONTINUOUS
 62
    47
 10
23.386405
 20
-72.411555
 11
23.386405
 21
-70.304895
  0
LINE
  8
型材断面
  6
CONTINUOUS
 62
    47
 10
23.3864
 20
-72.644942
 11
23.3864
 21
-75.96161
  0
LINE
  8
型材断面
  6
CONTINUOUS
 62
    47
 10
22.8864
 20
-76.46161
 11
22.8864
 21
-75.96161
  0
LINE
  8
型材断面
  6
CONTINUOUS
 62
    47
 10
22.503065
 20
-70.304895
 11
22.503065
 21
-69.978225
  0
LINE
  8
型材断面
  6
CONTINUOUS
 62
    47
 10
23.403067
 20
-72.42822
 11
23.403067
 21
-72.46788
  0
LINE
  8
型材断面
  6
CONTINUOUS
 10
-63.330263
 20
-68.31156
 11
-20.263598
 21
-68.31156
  0
LINE
  8
型材断面
  6
CONTINUOUS
 10
-63.486785
 20
-68.478225
 11
-20.263598
 21
-68.478225
  0
LINE
  8
型材断面
  6
CONTINUOUS
 10
-63.913602
 20
-70.304895
 11
-20.263598
 21
-70.304895
  0
LINE
  8
型材断面
  6
CONTINUOUS
 10
-63.330263
 20
-69.978225
 11
-20.263598
 21
-69.978225
  0
LINE
  8
型材断面
  6
CONTINUOUS
 10
-63.913598
 20
-72.644942
 11
-20.263598
 21
-72.644942
  0
LINE
  8
型材断面
  6
CONTINUOUS
 10
-63.920268
 20
-72.478225
 11
-20.263598
 21
-72.478225
  0
LINE
  8
型材断面
  6
CONTINUOUS
 10
-63.913598
 20
-75.96161
 11
-20.263598
 21
-75.96161
  0
LINE
  8
型材断面
  6
CONTINUOUS
 10
-63.413598
 20
-76.46161
 11
-20.263598
 21
-76.46161
  0
LINE
  8
型材断面
  6
CONTINUOUS
 10
22.8864
 20
-76.46161
 11
-20.263598
 21
-76.46161
  0
LINE
  8
型材断面
  6
CONTINUOUS
 10
23.3864
 20
-75.96161
 11
-20.263598
 21
-75.96161
  0
LINE
  8
型材断面
  6
CONTINUOUS
 10
23.3864
 20
-72.644942
 11
-20.263598
 21
-72.644942
  0
LINE
  8
型材断面
  6
CONTINUOUS
 10
23.39307
 20
-72.478225
 11
-20.263598
 21
-72.478225
  0
LINE
  8
型材断面
  6
CONTINUOUS
 10
23.386405
 20
-70.304895
 11
-20.263598
 21
-70.304895
  0
LINE
  8
型材断面
  6
CONTINUOUS
 10
22.803067
 20
-69.978225
 11
-20.263598
 21
-69.978225
  0
LINE
  8
型材断面
  6
CONTINUOUS
 10
22.803067
 20
-68.31156
 11
-20.263598
 21
-68.31156
  0
LINE
  8
型材断面
  6
CONTINUOUS
 10
22.959588
 20
-68.478225
 11
-20.263598
 21
-68.478225
  0
ARC
  8
型材断面
  6
DOT
 62
    47
 10
-63.913602
 20
-62.428222
 40
0.016668
 50
89.999123
 51
180.0
  0
ARC
  8
型材断面
  6
DOT
 62
    47
 10
-63.920267
 20
-62.468224
 40
0.010002
 50
180.0
 51
269.791626
  0
LINE
  8
型材断面
  6
DOT
 62
    47
 10
-63.913602
 20
-62.411555
 11
-63.913602
 21
-60.304895
  0
LINE
  8
型材断面
  6
DOT
 62
    47
 10
-63.030263
 20
-60.304895
 11
-63.030263
 21
-59.978225
  0
LINE
  8
型材断面
  6
DOT
 62
    47
 10
-63.930263
 20
-62.42822
 11
-63.930263
 21
-62.46788
  0
ARC
  8
型材断面
  6
DOT
 62
    47
 10
23.386404
 20
-62.428222
 40
0.016668
 50
0.0
 51
90.000877
  0
ARC
  8
型材断面
  6
DOT
 62
    47
 10
23.39307
 20
-62.468224
 40
0.010002
 50
270.208374
 51
360.0
  0
LINE
  8
型材断面
  6
DOT
 62
    47
 10
23.386405
 20
-62.411555
 11
23.386405
 21
-60.304895
  0
LINE
  8
型材断面
  6
DOT
 62
    47
 10
22.503065
 20
-60.304895
 11
22.503065
 21
-59.978225
  0
LINE
  8
型材断面
  6
DOT
 62
    47
 10
23.403067
 20
-62.42822
 11
23.403067
 21
-62.46788
  0
LINE
  8
型材断面
  6
DOT
 10
-63.486785
 20
-58.478225
 11
-20.263598
 21
-58.478225
  0
LINE
  8
型材断面
  6
DOT
 10
-63.330263
 20
-58.31156
 11
-20.263598
 21
-58.31156
  0
LINE
  8
型材断面
  6
DOT
 10
-63.913602
 20
-60.304895
 11
-20.263598
 21
-60.304895
  0
LINE
  8
型材断面
  6
DOT
 10
-63.330263
 20
-59.978225
 11
-20.263598
 21
-59.978225
  0
LINE
  8
型材断面
  6
DOT
 10
-63.920268
 20
-62.478225
 11
-20.263598
 21
-62.478225
  0
LINE
  8
型材断面
  6
DOT
 10
23.39307
 20
-62.478225
 11
-20.263598
 21
-62.478225
  0
LINE
  8
型材断面
  6
DOT
 10
22.803067
 20
-59.978225
 11
-20.263598
 21
-59.978225
  0
LINE
  8
型材断面
  6
DOT
 10
23.386405
 20
-60.304895
 11
-20.263598
 21
-60.304895
  0
LINE
  8
型材断面
  6
DOT
 10
22.803067
 20
-58.31156
 11
-20.263598
 21
-58.31156
  0
LINE
  8
型材断面
  6
DOT
 10
22.959588
 20
-58.478225
 11
-20.263598
 21
-58.478225
  0
INSERT
  2
*GRP_0017
  8
型材断面
  6
CONTINUOUS
 10
0.0
 20
0.0
  0
INSERT
  2
*GRP_0018
  8
型材断面
  6
CONTINUOUS
 10
0.0
 20
0.0
  0
INSERT
  2
*GRP_0019
  8
型材断面
  6
CONTINUOUS
 10
0.0
 20
0.0
  0
INSERT
  2
*GRP_0020
  8
型材断面
  6
CONTINUOUS
 10
0.0
 20
0.0
  0
LINE
  8
型材断面
  6
CONTINUOUS
 10
0.153067
 20
21.257512
 11
0.153067
 21
23.757512
  0
LINE
  8
型材断面
  6
CONTINUOUS
 10
0.986403
 20
21.257512
 11
0.986403
 21
23.757512
  0
LINE
  8
型材断面
  6
CONTINUOUS
 10
-40.680267
 20
21.257512
 11
-40.680267
 21
23.757512
  0
LINE
  8
型材断面
  6
CONTINUOUS
 10
-41.513602
 20
21.257512
 11
-41.513602
 21
23.757512
  0
LINE
  8
型材断面
  6
CONTINUOUS
 10
0.153067
 20
54.370552
 11
0.153067
 21
51.870552
  0
LINE
  8
型材断面
  6
CONTINUOUS
 10
0.986403
 20
54.370552
 11
0.986403
 21
51.870552
  0
LINE
  8
型材断面
  6
CONTINUOUS
 10
-40.680267
 20
54.370552
 11
-40.680267
 21
51.870552
  0
LINE
  8
型材断面
  6
CONTINUOUS
 10
-41.513602
 20
54.370552
 11
-41.513602
 21
51.870552
  0
LINE
  8
型材断面
  6
CONTINUOUS
 10
-40.680267
 20
51.870552
 11
0.153067
 21
51.870552
  0
LINE
  8
型材断面
  6
CONTINUOUS
 10
-40.680267
 20
23.757512
 11
0.153067
 21
23.757512
  0
LINE
  8
型材断面
  6
CONTINUOUS
 10
23.386253
 20
54.797213
 11
23.386253
 21
37.814033
  0
LINE
  8
型材断面
  6
CONTINUOUS
 10
23.386253
 20
20.830853
 11
23.386253
 21
37.814033
  0
LINE
  8
型材断面
  6
CONTINUOUS
 10
22.959588
 20
37.397365
 11
20.459588
 21
37.397365
  0
LINE
  8
型材断面
  6
CONTINUOUS
 10
22.959588
 20
38.2307
 11
20.459588
 21
38.2307
  0
LINE
  8
型材断面
  6
CONTINUOUS
 10
22.72389
 20
21.25751
 11
22.959588
 21
21.493217
  0
LINE
  8
型材断面
  6
CONTINUOUS
 10
23.386253
 20
20.830853
 11
22.84174
 21
21.375365
  0
LINE
  8
型材断面
  6
CONTINUOUS
 10
20.459588
 20
37.397365
 11
20.459588
 21
23.993212
  0
LINE
  8
型材断面
  6
CONTINUOUS
 10
20.459588
 20
23.993212
 11
20.223887
 21
23.757512
  0
LINE
  8
型材断面
  6
CONTINUOUS
 10
20.223885
 20
23.75751
 11
22.723887
 21
21.257512
  0
LINE
  8
型材断面
  6
CONTINUOUS
 10
20.459588
 20
23.993212
 11
22.959588
 21
21.493217
  0
LINE
  8
型材断面
  6
CONTINUOUS
 10
22.72389
 20
54.370555
 11
22.959588
 21
54.134848
  0
LINE
  8
型材断面
  6
CONTINUOUS
 10
23.386253
 20
54.797213
 11
22.84174
 21
54.2527
  0
LINE
  8
型材断面
  6
CONTINUOUS
 10
20.459588
 20
51.634852
 11
22.959588
 21
54.134848
  0
LINE
  8
型材断面
  6
CONTINUOUS
 10
22.959588
 20
21.493217
 11
22.959588
 21
54.134848
  0
LINE
  8
型材断面
  6
CONTINUOUS
 10
20.223885
 20
51.870555
 11
22.723887
 21
54.370552
  0
LINE
  8
型材断面
  6
CONTINUOUS
 10
20.459588
 20
38.2307
 11
20.459588
 21
51.634852
  0
LINE
  8
型材断面
  6
CONTINUOUS
 10
20.459588
 20
51.634852
 11
20.223887
 21
51.870552
  0
LINE
  8
型材断面
  6
CONTINUOUS
 10
-19.0136
 20
24.590845
 11
-21.5136
 21
24.590845
  0
LINE
  8
型材断面
  6
CONTINUOUS
 10
-19.0136
 20
24.590845
 11
-19.0136
 21
51.03722
  0
LINE
  8
型材断面
  6
CONTINUOUS
 10
-21.5136
 20
24.590845
 11
-21.5136
 21
51.03722
  0
LINE
  8
型材断面
  6
CONTINUOUS
 10
-19.0136
 20
51.03722
 11
-21.5136
 21
51.03722
  0
LINE
  8
型材断面
  6
CONTINUOUS
 10
-63.913453
 20
54.797213
 11
-63.913453
 21
37.814033
  0
LINE
  8
型材断面
  6
CONTINUOUS
 10
-63.913453
 20
20.830853
 11
-63.913453
 21
37.814033
  0
LINE
  8
型材断面
  6
CONTINUOUS
 10
-63.486787
 20
37.397365
 11
-60.986787
 21
37.397365
  0
LINE
  8
型材断面
  6
CONTINUOUS
 10
-63.486787
 20
38.2307
 11
-60.986787
 21
38.2307
  0
LINE
  8
型材断面
  6
CONTINUOUS
 10
-63.25109
 20
21.25751
 11
-63.486787
 21
21.493217
  0
LINE
  8
型材断面
  6
CONTINUOUS
 10
-63.913453
 20
20.830853
 11
-63.36894
 21
21.375365
  0
LINE
  8
型材断面
  6
CONTINUOUS
 10
-60.986787
 20
37.397365
 11
-60.986787
 21
23.993212
  0
LINE
  8
型材断面
  6
CONTINUOUS
 10
-60.986787
 20
23.993212
 11
-60.751087
 21
23.757512
  0
LINE
  8
型材断面
  6
CONTINUOUS
 10
-60.751085
 20
23.75751
 11
-63.251087
 21
21.257512
  0
LINE
  8
型材断面
  6
CONTINUOUS
 10
-60.986787
 20
23.993212
 11
-63.486787
 21
21.493217
  0
LINE
  8
型材断面
  6
CONTINUOUS
 10
-63.25109
 20
54.370555
 11
-63.486787
 21
54.134848
  0
LINE
  8
型材断面
  6
CONTINUOUS
 10
-63.913453
 20
54.797213
 11
-63.36894
 21
54.2527
  0
LINE
  8
型材断面
  6
CONTINUOUS
 10
-60.986787
 20
51.634852
 11
-63.486787
 21
54.134848
  0
LINE
  8
型材断面
  6
CONTINUOUS
 10
-63.486787
 20
21.493217
 11
-63.486787
 21
54.134848
  0
LINE
  8
型材断面
  6
CONTINUOUS
 10
-60.751085
 20
51.870555
 11
-63.251087
 21
54.370552
  0
LINE
  8
型材断面
  6
CONTINUOUS
 10
-60.986787
 20
38.2307
 11
-60.986787
 21
51.634852
  0
LINE
  8
型材断面
  6
CONTINUOUS
 10
-60.986787
 20
51.634852
 11
-60.751087
 21
51.870552
  0
LINE
  8
型材断面
  6
CONTINUOUS
 10
0.986403
 20
23.757512
 11
20.223883
 21
23.757512
  0
LINE
  8
型材断面
  6
CONTINUOUS
 10
0.986403
 20
51.870552
 11
20.223883
 21
51.870552
  0
LINE
  8
型材断面
  6
CONTINUOUS
 10
-41.513602
 20
51.870552
 11
-60.751083
 21
51.870552
  0
LINE
  8
型材断面
  6
CONTINUOUS
 10
22.723887
 20
54.370552
 11
-63.251087
 21
54.370552
  0
LINE
  8
型材断面
  6
CONTINUOUS
 10
-41.513602
 20
23.757512
 11
-60.751083
 21
23.757512
  0
LINE
  8
型材断面
  6
CONTINUOUS
 10
22.723887
 20
21.257512
 11
-63.251087
 21
21.257512
  0
TEXT
  7
TextStyle03
  8
文字
  6
CONTINUOUS
 10
97.975
 20
-76.7
  1
網入り6.8t
 40
3.0
 72
     5
 11
114.6625
 21
-76.7
  0
TEXT
  7
TextStyle03
  8
文字
  6
CONTINUOUS
 10
-28.45
 20
9.325
  1
可動装置側
 40
3.0
 72
     5
 11
-11.95
 21
9.325
  0
TEXT
  7
TextStyle03
  8
文字
  6
CONTINUOUS
 10
-28.45
 20
63.275
  1
可動装置側
 40
3.0
 72
     5
 11
-11.95
 21
63.275
  0
TEXT
  7
TextStyle03
  8
文字
  6
CONTINUOUS
 10
104.65
 20
-81.375
  1
×２枚
 40
3.0
 72
     5
 11
114.4
 21
-81.375
  0
TEXT
  7
TextStyle03
  8
文字
  6
CONTINUOUS
 10
-113.025
 20
89.4
  1
はケーシング位置を示す
 40
3.0
 72
     5
 11
-76.275
 21
89.4
  0
TEXT
  7
TextStyle03
  8
文字
  6
CONTINUOUS
 10
-113.025
 20
86.025
  1
４ヶ所中1ヶ所に設定
 40
3.0
 72
     5
 11
-81.3375
 21
86.025
  0
TEXT
  7
TextStyle03
  8
文字
  6
CONTINUOUS
 10
-113.025
 20
94.925
  1
は排水穴位置を示す
 40
3.0
 72
     5
 11
-83.025
 21
94.925
  0
TEXT
  7
TextStyle03
  8
文字
  6
CONTINUOUS
 10
-82.925
 20
16.275
  1
アンカーピッチ
 40
3.0
 50
90.0
 72
     5
 11
-82.925
 21
39.525
  0
TEXT
  7
TextStyle03
  8
文字
  6
CONTINUOUS
 10
-55.3
 20
90.825
  1
アンカーピッチ
 40
3.0
 72
     5
 11
-32.05
 21
90.825
  0
TEXT
  7
TextStyle03
  8
文字
  6
CONTINUOUS
 10
-116.75
 20
80.05
  1
アンカー数量　１２ヶ所
 40
3.0
 72
     5
 11
-80.0
 21
80.05
  0
TEXT
  7
TextStyle03
  8
文字
  6
CONTINUOUS
 10
-121.75
 20
69.35
  1
※重量に依るのでご相談ください
 40
3.0
 72
     5
 11
-71.5
 21
69.35
  0
TEXT
  7
TextStyle03
  8
文字
  6
CONTINUOUS
 10
-121.75
 20
74.3
  1
アームユニット数　※２～４ヶ所
 40
3.0
 72
     5
 11
-71.5
 21
74.3
  0
LINE
  8
文字
  6
CONTINUOUS
 10
108.96238
 20
66.643603
 11
108.96238
 21
56.09364
  0
LINE
  8
文字
  6
CONTINUOUS
 10
116.61243
 20
66.643603
 11
116.61243
 21
56.158722
  0
LINE
  8
文字
  6
CONTINUOUS
 10
34.638313
 20
-68.31156
 11
24.08835
 21
-68.31156
  0
LINE
  8
文字
  6
CONTINUOUS
 10
34.638313
 20
-75.96161
 11
24.153433
 21
-75.96161
  0
LINE
  8
文字
  6
CONTINUOUS
 10
34.638313
 20
-58.31156
 11
24.08835
 21
-58.31156
  0
LINE
  8
文字
  6
CONTINUOUS
 10
116.489623
 20
-45.12514
 11
116.489623
 21
-52.547215
  0
LINE
  8
文字
  6
CONTINUOUS
 10
75.739623
 20
-45.12514
 11
75.739623
 21
-52.547215
  0
TEXT
  7
TextStyle03
  8
文字
  6
CONTINUOUS
 10
61.125
 20
125.25
  1
シリーズ：ＴＦ２ＦＬ
 40
5.0
 72
     5
 11
116.75
 21
125.25
  0
TEXT
  7
TextStyle03
  8
文字
  6
CONTINUOUS
 10
61.125
 20
119.625
  1
　　　　　（上下可動）900×2500タイプ
 40
5.0
 72
     5
 11
164.5625
 21
119.625
  0
TEXT
  7
TextStyle03
  8
文字
  6
CONTINUOUS
 10
61.125
 20
114.0
  1
図面名　：外観姿図
 40
5.0
 72
     5
 11
111.125
 21
114.0
  0
TEXT
  7
TextStyle03
  8
文字
  6
CONTINUOUS
 10
61.125
 20
108.375
  1
　　　　　　
 40
5.0
 72
     5
 11
94.25
 21
108.375
  0
TEXT
  7
TextStyle03
  8
文字
  6
CONTINUOUS
 10
61.275
 20
104.525
  1
ＮＳコード：ＮＳＦＺＬ
 40
5.0
 72
     5
 11
122.525
 21
104.525
  0
INSERT
  2
*DIM_0002
  8
寸法
  6
CONTINUOUS
 10
0.0
 20
0.0
  0
INSERT
  2
*DIM_0003
  8
寸法
  6
CONTINUOUS
 10
0.0
 20
0.0
  0
INSERT
  2
*DIM_0004
  8
寸法
  6
CONTINUOUS
 10
0.0
 20
0.0
  0
INSERT
  2
*DIM_0005
  8
寸法
  6
CONTINUOUS
 10
0.0
 20
0.0
  0
INSERT
  2
*DIM_0006
  8
寸法
  6
CONTINUOUS
 10
0.0
 20
0.0
  0
INSERT
  2
*DIM_0007
  8
寸法
  6
CONTINUOUS
 10
0.0
 20
0.0
  0
INSERT
  2
*DIM_0008
  8
寸法
  6
CONTINUOUS
 10
0.0
 20
0.0
  0
INSERT
  2
*DIM_0009
  8
寸法
  6
CONTINUOUS
 10
0.0
 20
0.0
  0
INSERT
  2
*DIM_0010
  8
寸法
  6
CONTINUOUS
 10
0.0
 20
0.0
  0
INSERT
  2
*DIM_0011
  8
寸法
  6
CONTINUOUS
 10
0.0
 20
0.0
  0
INSERT
  2
*DIM_0012
  8
寸法
  6
CONTINUOUS
 10
0.0
 20
0.0
  0
INSERT
  2
*DIM_0013
  8
寸法
  6
CONTINUOUS
 10
0.0
 20
0.0
  0
INSERT
  2
*DIM_0014
  8
寸法
  6
CONTINUOUS
 10
0.0
 20
0.0
  0
INSERT
  2
*DIM_0015
  8
寸法
  6
CONTINUOUS
 10
0.0
 20
0.0
  0
INSERT
  2
*DIM_0016
  8
寸法
  6
CONTINUOUS
 10
0.0
 20
0.0
  0
INSERT
  2
*DIM_0021
  8
寸法
  6
CONTINUOUS
 10
0.0
 20
0.0
  0
INSERT
  2
*DIM_0022
  8
寸法
  6
CONTINUOUS
 10
0.0
 20
0.0
  0
INSERT
  2
*DIM_0023
  8
寸法
  6
CONTINUOUS
 10
0.0
 20
0.0
  0
LINE
  8
別途部材
  6
CONTINUOUS
 62
    47
 10
109.06238
 20
21.257512
 11
109.129047
 21
21.257512
  0
ARC
  8
別途部材
  6
CONTINUOUS
 62
    47
 10
109.062379
 20
21.357511
 40
0.1
 50
180.0
 51
270.0
  0
LINE
  8
別途部材
  6
CONTINUOUS
 62
    47
 10
108.96238
 20
21.357512
 11
108.96238
 21
23.724178
  0
LINE
  8
別途部材
  6
CONTINUOUS
 62
    47
 10
110.629047
 20
21.414033
 11
109.129047
 21
21.414033
  0
LINE
  8
別途部材
  6
CONTINUOUS
 62
    47
 10
109.06238
 20
54.370552
 11
109.129047
 21
54.370552
  0
ARC
  8
別途部材
  6
CONTINUOUS
 62
    47
 10
109.062379
 20
54.270553
 40
0.1
 50
90.0
 51
180.0
  0
LINE
  8
別途部材
  6
CONTINUOUS
 62
    47
 10
108.96238
 20
54.270552
 11
108.96238
 21
51.903885
  0
LINE
  8
別途部材
  6
CONTINUOUS
 62
    47
 10
110.629047
 20
54.21403
 11
109.129047
 21
54.21403
  0
LINE
  8
別途部材
  6
CONTINUOUS
 62
    47
 10
-63.486785
 20
-68.41156
 11
-63.486785
 21
-68.478225
  0
ARC
  8
別途部材
  6
CONTINUOUS
 62
    47
 10
-63.386786
 20
-68.41156
 40
0.1
 50
90.0
 51
180.0
  0
LINE
  8
別途部材
  6
CONTINUOUS
 62
    47
 10
-63.386785
 20
-68.31156
 11
-61.020118
 21
-68.31156
  0
LINE
  8
別途部材
  6
CONTINUOUS
 62
    47
 10
-63.330263
 20
-69.978225
 11
-63.330263
 21
-68.478225
  0
LINE
  8
別途部材
  6
CONTINUOUS
 62
    47
 10
22.959588
 20
-68.41156
 11
22.959588
 21
-68.478225
  0
ARC
  8
別途部材
  6
CONTINUOUS
 62
    47
 10
22.859589
 20
-68.41156
 40
0.1
 50
0.0
 51
90.0
  0
LINE
  8
別途部材
  6
CONTINUOUS
 62
    47
 10
22.859588
 20
-68.31156
 11
20.492922
 21
-68.31156
  0
LINE
  8
別途部材
  6
CONTINUOUS
 62
    47
 10
22.803067
 20
-69.978225
 11
22.803067
 21
-68.478225
  0
LINE
  8
別途部材
  6
DOT
 62
    47
 10
-63.486785
 20
-58.41156
 11
-63.486785
 21
-58.478225
  0
ARC
  8
別途部材
  6
DOT
 62
    47
 10
-63.386786
 20
-58.41156
 40
0.1
 50
90.0
 51
180.0
  0
LINE
  8
別途部材
  6
DOT
 62
    47
 10
-63.386785
 20
-58.31156
 11
-61.020118
 21
-58.31156
  0
LINE
  8
別途部材
  6
DOT
 62
    47
 10
-63.330263
 20
-59.978225
 11
-63.330263
 21
-58.478225
  0
LINE
  8
別途部材
  6
DOT
 62
    47
 10
22.959588
 20
-58.41156
 11
22.959588
 21
-58.478225
  0
ARC
  8
別途部材
  6
DOT
 62
    47
 10
22.859589
 20
-58.41156
 40
0.1
 50
0.0
 51
90.0
  0
LINE
  8
別途部材
  6
DOT
 62
    47
 10
22.859588
 20
-58.31156
 11
20.492922
 21
-58.31156
  0
LINE
  8
別途部材
  6
DOT
 62
    47
 10
22.803067
 20
-59.978225
 11
22.803067
 21
-58.478225
  0
LINE
  8
曲げ物
  6
CONTINUOUS
 10
116.489623
 20
-83.118728
 11
116.489623
 21
-53.785395
  0
LINE
  8
曲げ物
  6
CONTINUOUS
 10
1.89681
 20
39.693362
 11
-1.798502
 21
35.99805
  0
LINE
  8
曲げ物
  6
CONTINUOUS
 10
1.19334
 20
38.157252
 11
-0.26239
 21
36.701522
  0
LINE
  8
曲げ物
  6
CONTINUOUS
 10
0.3607
 20
38.989892
 11
-1.09503
 21
37.534162
  0
LINE
  8
曲げ物
  6
CONTINUOUS
 10
-38.21488
 20
39.693362
 11
-41.910192
 21
35.99805
  0
LINE
  8
曲げ物
  6
CONTINUOUS
 10
-38.91835
 20
38.157252
 11
-40.37408
 21
36.701522
  0
LINE
  8
曲げ物
  6
CONTINUOUS
 10
-39.75099
 20
38.989892
 11
-41.20672
 21
37.534162
  0
LINE
  8
曲げ物
  6
CONTINUOUS
 10
75.739623
 20
-83.118728
 11
75.739623
 21
-53.785395
  0
LINE
  8
曲げ物
  6
CONTINUOUS
 10
116.489623
 20
-53.785395
 11
75.739623
 21
-53.785395
  0
LINE
  8
曲げ物
  6
CONTINUOUS
 10
116.489623
 20
-83.118728
 11
75.739623
 21
-83.118728
  0
ENDSEC
  0
EOF
