  0
SECTION
  2
HEADER
  9
$EXTMIN
 10
-210.0
 20
-148.5
  9
$EXTMAX
 10
210.0
 20
148.5
  9
$PDMODE
 70
    32
  9
$PDSIZE
 40
1.5
  9
$LTSCALE
 40
10.0
  0
ENDSEC
  0
SECTION
  2
TABLES
  0
TABLE
  2
LTYPE
 70
    15
  0
LTYPE
  2
CONTINUOUS
 70
    64
  3
実線
 72
    65
 73
     0
 40
0.0
  0
LTYPE
  2
DASHED
 70
    64
  3
破線A
 72
    65
 73
     2
 40
0.6
 49
0.4
 49
-0.2
  0
LTYPE
  2
DASHEDX2
 70
    64
  3
破線B
 72
    65
 73
     2
 40
1.3
 49
0.9
 49
-0.4
  0
LTYPE
  2
DASHDOT
 70
    64
  3
１点鎖線A
 72
    65
 73
     4
 40
0.5375
 49
0.375
 49
-0.05
 49
0.0625
 49
-0.05
  0
LTYPE
  2
DASHDOTX2
 70
    64
  3
１点鎖線B
 72
    65
 73
     4
 40
1.075
 49
0.75
 49
-0.1
 49
0.125
 49
-0.1
  0
LTYPE
  2
DIVIDE2
 70
    64
  3
２点鎖線A
 72
    65
 73
     6
 40
0.5125
 49
0.3
 49
-0.0375
 49
0.05
 49
-0.0375
 49
0.05
 49
-0.0375
  0
LTYPE
  2
DIVIDE
 70
    64
  3
２点鎖線B
 72
    65
 73
     6
 40
1.05
 49
0.55
 49
-0.1
 49
0.1
 49
-0.1
 49
0.1
 49
-0.1
  0
LTYPE
  2
DOT
 70
    64
  3
点線A
 72
    65
 73
     2
 40
0.1125
 49
0.0625
 49
-0.05
  0
LTYPE
  2
DOTX2
 70
    64
  3
点線B
 72
    65
 73
     2
 40
0.275
 49
0.15
 49
-0.125
  0
LTYPE
  2
CONTINUOUS
 70
    64
  3
実線
 72
    65
 73
     0
 40
0.0
  0
LTYPE
  2
CONTINUOUS
 70
    64
  3
実線
 72
    65
 73
     0
 40
0.0
  0
LTYPE
  2
CONTINUOUS
 70
    64
  3
実線
 72
    65
 73
     0
 40
0.0
  0
LTYPE
  2
CONTINUOUS
 70
    64
  3
実線
 72
    65
 73
     0
 40
0.0
  0
LTYPE
  2
CONTINUOUS
 70
    64
  3
実線
 72
    65
 73
     0
 40
0.0
  0
LTYPE
  2
CONTINUOUS
 70
    64
  3
実線
 72
    65
 73
     0
 40
0.0
  0
ENDTAB
  0
TABLE
  2
LAYER
 70
    34
  0
LAYER
  2
通り芯
 70
     0
 62
    15
  6
CONTINUOUS
  0
LAYER
  2
補助線
 70
     0
 62
    16
  6
DOT
  0
LAYER
  2
躯体
 70
     0
 62
    31
  6
CONTINUOUS
  0
LAYER
  2
型材
 70
     0
 62
    32
  6
CONTINUOUS
  0
LAYER
  2
型材断面
 70
     0
 62
    47
  6
CONTINUOUS
  0
LAYER
  2
ガラス
 70
     0
 62
    48
  6
CONTINUOUS
  0
LAYER
  2
ゴム等
 70
     0
 62
    63
  6
CONTINUOUS
  0
LAYER
  2
ボルト／ビス
 70
     0
 62
    64
  6
CONTINUOUS
  0
LAYER
  2
文字
 70
     0
 62
    79
  6
CONTINUOUS
  0
LAYER
  2
寸法
 70
     0
 62
    80
  6
CONTINUOUS
  0
LAYER
  2
ﾊｯﾁﾝｸﾞ
 70
     0
 62
    95
  6
CONTINUOUS
  0
LAYER
  2
別途部材
 70
     0
 62
    96
  6
CONTINUOUS
  0
LAYER
  2
曲げ物
 70
     0
 62
   111
  6
CONTINUOUS
  0
LAYER
  2
鉄骨等
 70
     0
 62
   112
  6
CONTINUOUS
  0
LAYER
  2
St
 70
     0
 62
   127
  6
CONTINUOUS
  0
LAYER
  2
その他部品等
 70
     0
 62
   128
  6
CONTINUOUS
  0
LAYER
  2
ｶﾞｽｹｯﾄ
 70
     0
 62
   143
  6
CONTINUOUS
  0
LAYER
  2
ｽｹｯﾁ
 70
     0
 62
    14
  6
CONTINUOUS
  0
LAYER
  2
0
 70
     0
 62
    17
  6
CONTINUOUS
  0
LAYER
  2
1
 70
     0
 62
    30
  6
CONTINUOUS
  0
LAYER
  2
4
 70
     0
 62
    33
  6
CONTINUOUS
  0
LAYER
  2
ﾚｲﾔ3
 70
     0
 62
    46
  6
CONTINUOUS
  0
LAYER
  2
外形線
 70
     0
 62
    49
  6
CONTINUOUS
  0
LAYER
  2
部品
 70
     0
 62
    14
  6
CONTINUOUS
  0
LAYER
  2
サッシ芯
 70
     0
 62
    17
  6
DASHDOTX2
  0
LAYER
  2
寸法線
 70
     0
 62
    62
  6
CONTINUOUS
  0
LAYER
  2
姿図外形線
 70
     0
 62
    65
  6
CONTINUOUS
  0
LAYER
  2
姿補助線
 70
     0
 62
    30
  6
CONTINUOUS
  0
LAYER
  2
透視線
 70
     0
 62
    78
  6
DOT
  0
LAYER
  2
用紙
 70
     0
 62
    81
  6
CONTINUOUS
  0
LAYER
  2
実線図枠
 70
     0
 62
    94
  6
CONTINUOUS
  0
LAYER
  2
補助図枠
 70
     0
 62
    97
  6
CONTINUOUS
  0
LAYER
  2
建具記号
 70
     0
 62
   110
  6
CONTINUOUS
  0
LAYER
  2
補助文字
 70
     0
 62
   113
  6
CONTINUOUS
  0
ENDTAB
  0
TABLE
  2
STYLE
 70
    10
  0
STYLE
  2
STANDARD
 70
     0
 40
1.0
 41
1.0
 42
1.0
 50
0.0
 71
     0
  3
TXT
  4
BIGFONT
  0
STYLE
  2
TATE
 70
     4
 40
1.0
 41
1.0
 42
1.0
 50
0.0
 71
     0
  3
TXT
  4
BIGFONT
  0
STYLE
  2
TextStyle03
 70
     0
 40
1.0
 41
1.0
 42
1.0
 50
0.0
 71
     0
  3
MONOTXT
  4
BIGFONT
  0
STYLE
  2
TextStyle04
 70
     0
 40
1.0
 41
1.0
 42
1.0
 50
0.0
 71
     0
  3
MONOTXT
  4
BIGFONT
  0
STYLE
  2
TextStyle05
 70
     0
 40
1.0
 41
1.0
 42
1.0
 50
0.0
 71
     0
  3
MONOTXT
  4
BIGFONT
  0
STYLE
  2
TextStyle06
 70
     0
 40
1.0
 41
1.0
 42
1.0
 50
0.0
 71
     0
  3
MONOTXT
  4
BIGFONT
  0
STYLE
  2
TextStyle07
 70
     0
 40
1.0
 41
1.0
 42
1.0
 50
0.0
 71
     0
  3
MONOTXT
  4
BIGFONT
  0
STYLE
  2
TextStyle08
 70
     0
 40
1.0
 41
1.0
 42
1.0
 50
0.0
 71
     0
  3
MONOTXT
  4
BIGFONT
  0
STYLE
  2
TextStyle09
 70
     0
 40
1.0
 41
1.0
 42
1.0
 50
0.0
 71
     0
  3
MONOTXT
  4
BIGFONT
  0
STYLE
  2
TextStyle10
 70
     0
 40
1.0
 41
1.0
 42
1.0
 50
0.0
 71
     0
  3
MONOTXT
  4
BIGFONT
  0
ENDTAB
  0
ENDSEC
  0
SECTION
  2
BLOCKS
  0
BLOCK
  2
*GRP_0001
 70
    65
 10
0.0
 20
0.0
  0
LINE
  8
型材断面
  6
CONTINUOUS
 10
195.0
 20
133.5
 11
195.0
 21
-133.5
  0
LINE
  8
型材断面
  6
CONTINUOUS
 10
195.0
 20
-133.5
 11
-185.0
 21
-133.5
  0
LINE
  8
型材断面
  6
CONTINUOUS
 10
-185.0
 20
-133.5
 11
-185.0
 21
133.5
  0
LINE
  8
型材断面
  6
CONTINUOUS
 10
195.0
 20
133.5
 11
-185.0
 21
133.5
  0
LINE
  8
型材断面
  6
CONTINUOUS
 10
145.0
 20
-133.5
 11
145.0
 21
-118.5
  0
LINE
  8
型材断面
  6
CONTINUOUS
 10
195.0
 20
-118.5
 11
145.0
 21
-118.5
  0
ENDBLK
  0
BLOCK
  2
*DIM_0002
 70
    65
 10
0.0
 20
0.0
  0
LINE
  8
寸法
  6
BYBLOCK
 62
     0
 10
154.076993
 20
-53.785395
 11
162.135282
 21
-53.785395
  0
LINE
  8
寸法
  6
BYBLOCK
 62
     0
 10
154.076993
 20
-83.118728
 11
162.135282
 21
-83.118728
  0
LINE
  8
寸法
  6
BYBLOCK
 62
     0
 10
162.135282
 20
-53.785395
 11
162.135282
 21
-83.118728
  0
POINT
  8
寸法
 62
     0
 10
162.135282
 20
-53.785395
  0
POINT
  8
寸法
 62
     0
 10
162.135282
 20
-83.118728
  0
TEXT
  7
TextStyle03
  8
寸法
  6
CONTINUOUS
 62
     0
 10
161.775
 20
-70.9125
  1
880
 40
3.0
 50
90.0
 72
     5
 11
161.775
 21
-66.0375
  0
ENDBLK
  0
BLOCK
  2
*DIM_0003
 70
    65
 10
0.0
 20
0.0
  0
LINE
  8
寸法
  6
BYBLOCK
 62
     0
 10
-75.342895
 20
-13.511205
 11
-75.342895
 21
-13.121378
  0
LINE
  8
寸法
  6
BYBLOCK
 62
     0
 10
57.990438
 20
-13.121378
 11
-75.342895
 21
-13.121378
  0
POINT
  8
寸法
 62
     0
 10
57.990438
 20
-13.121378
  0
POINT
  8
寸法
 62
     0
 10
-75.342895
 20
-13.121378
  0
TEXT
  7
TextStyle03
  8
寸法
  6
CONTINUOUS
 62
     0
 10
-20.41875
 20
-12.75
  1
呼称寸法　4000
 40
3.0
 72
     5
 11
3.01875
 21
-12.75
  0
ENDBLK
  0
BLOCK
  2
*DIM_0004
 70
    65
 10
0.0
 20
0.0
  0
LINE
  8
寸法
  6
BYBLOCK
 62
     0
 10
-58.676228
 20
19.183902
 11
-58.676228
 21
14.132895
  0
LINE
  8
寸法
  6
BYBLOCK
 62
     0
 10
41.323768
 20
19.183902
 11
41.323768
 21
14.132895
  0
LINE
  8
寸法
  6
BYBLOCK
 62
     0
 10
-58.676228
 20
14.132895
 11
41.323768
 21
14.132895
  0
POINT
  8
寸法
 62
     0
 10
-58.676228
 20
14.132895
  0
POINT
  8
寸法
 62
     0
 10
41.323768
 20
14.132895
  0
TEXT
  7
TextStyle03
  8
寸法
  6
CONTINUOUS
 62
     0
 10
-11.98125
 20
14.5
  1
3000
 40
3.0
 72
     5
 11
-5.41875
 21
14.5
  0
ENDBLK
  0
BLOCK
  2
*DIM_0005
 70
    65
 10
0.0
 20
0.0
  0
LINE
  8
寸法
  6
BYBLOCK
 62
     0
 10
58.990438
 20
52.814035
 11
68.71472
 21
52.814035
  0
LINE
  8
寸法
  6
BYBLOCK
 62
     0
 10
61.620567
 20
49.114035
 11
68.71472
 21
49.114035
  0
LINE
  8
寸法
  6
BYBLOCK
 62
     0
 10
68.71472
 20
52.814035
 11
68.71472
 21
49.114035
  0
POINT
  8
寸法
 62
     0
 10
68.71472
 20
52.814035
  0
POINT
  8
寸法
 62
     0
 10
68.71472
 20
49.114035
  0
TEXT
  7
TextStyle03
  8
寸法
  6
CONTINUOUS
 62
     0
 10
68.375
 20
53.8125
  1
111
 40
3.0
 50
90.0
 72
     5
 11
68.375
 21
58.6875
  0
ENDBLK
  0
BLOCK
  2
*DIM_0006
 70
    65
 10
0.0
 20
0.0
  0
LINE
  8
寸法
  6
BYBLOCK
 62
     0
 10
58.990438
 20
22.81403
 11
68.71472
 21
22.814027
  0
LINE
  8
寸法
  6
BYBLOCK
 62
     0
 10
61.620567
 20
26.51403
 11
68.71472
 21
26.514027
  0
LINE
  8
寸法
  6
BYBLOCK
 62
     0
 10
68.71472
 20
22.814027
 11
68.71472
 21
26.514027
  0
POINT
  8
寸法
 62
     0
 10
68.71472
 20
22.814027
  0
POINT
  8
寸法
 62
     0
 10
68.71472
 20
26.514027
  0
TEXT
  7
TextStyle03
  8
寸法
  6
CONTINUOUS
 62
     0
 10
68.375
 20
16.9375
  1
111
 40
3.0
 50
90.0
 72
     5
 11
68.375
 21
21.8125
  0
ENDBLK
  0
BLOCK
  2
*DIM_0007
 70
    65
 10
0.0
 20
0.0
  0
LINE
  8
寸法
  6
BYBLOCK
 62
     0
 10
92.010088
 20
22.814033
 11
92.010088
 21
52.814033
  0
POINT
  8
寸法
 62
     0
 10
92.010088
 20
22.814033
  0
POINT
  8
寸法
 62
     0
 10
92.010088
 20
52.814033
  0
TEXT
  7
TextStyle03
  8
寸法
  6
CONTINUOUS
 62
     0
 10
91.65
 20
26.9
  1
呼称寸法　900
 40
3.0
 50
90.0
 72
     5
 11
91.65
 21
48.65
  0
ENDBLK
  0
BLOCK
  2
*DIM_0008
 70
    65
 10
0.0
 20
0.0
  0
LINE
  8
寸法
  6
BYBLOCK
 62
     0
 10
145.900483
 20
54.797365
 11
92.010088
 21
54.797365
  0
LINE
  8
寸法
  6
BYBLOCK
 62
     0
 10
92.010088
 20
52.814033
 11
92.010088
 21
54.797365
  0
POINT
  8
寸法
 62
     0
 10
92.010088
 20
52.814033
  0
POINT
  8
寸法
 62
     0
 10
92.010088
 20
54.797365
  0
TEXT
  7
TextStyle03
  8
寸法
  6
CONTINUOUS
 62
     0
 10
91.575
 20
57.26875
  1
59.5
 40
3.0
 50
90.0
 72
     5
 11
91.575
 21
63.83125
  0
ENDBLK
  0
BLOCK
  2
*DIM_0009
 70
    65
 10
0.0
 20
0.0
  0
LINE
  8
寸法
  6
BYBLOCK
 62
     0
 10
145.900483
 20
20.8307
 11
92.010088
 21
20.8307
  0
LINE
  8
寸法
  6
BYBLOCK
 62
     0
 10
92.010088
 20
22.814033
 11
92.010088
 21
20.8307
  0
POINT
  8
寸法
 62
     0
 10
92.010088
 20
22.814033
  0
POINT
  8
寸法
 62
     0
 10
92.010088
 20
20.8307
  0
TEXT
  7
TextStyle03
  8
寸法
  6
CONTINUOUS
 62
     0
 10
91.575
 20
11.76875
  1
59.5
 40
3.0
 50
90.0
 72
     5
 11
91.575
 21
18.33125
  0
ENDBLK
  0
BLOCK
  2
*DIM_0010
 70
    65
 10
0.0
 20
0.0
  0
LINE
  8
寸法
  6
BYBLOCK
 62
     0
 10
59.973768
 20
-56.919728
 11
59.973768
 21
-13.121378
  0
LINE
  8
寸法
  6
BYBLOCK
 62
     0
 10
57.990438
 20
-13.121378
 11
59.973768
 21
-13.121378
  0
POINT
  8
寸法
 62
     0
 10
57.990438
 20
-13.121378
  0
POINT
  8
寸法
 62
     0
 10
59.973768
 20
-13.121378
  0
TEXT
  7
TextStyle03
  8
寸法
  6
CONTINUOUS
 62
     0
 10
62.44375
 20
-12.75
  1
59.5
 40
3.0
 72
     5
 11
69.00625
 21
-12.75
  0
ENDBLK
  0
BLOCK
  2
*DIM_0011
 70
    65
 10
0.0
 20
0.0
  0
LINE
  8
寸法
  6
BYBLOCK
 62
     0
 10
-77.326228
 20
-56.919728
 11
-77.326228
 21
-13.121378
  0
LINE
  8
寸法
  6
BYBLOCK
 62
     0
 10
-75.342895
 20
-13.121378
 11
-77.326228
 21
-13.121378
  0
POINT
  8
寸法
 62
     0
 10
-75.342895
 20
-13.121378
  0
POINT
  8
寸法
 62
     0
 10
-77.326228
 20
-13.121378
  0
TEXT
  7
TextStyle03
  8
寸法
  6
CONTINUOUS
 62
     0
 10
-86.38125
 20
-12.75
  1
59.5
 40
3.0
 72
     5
 11
-79.81875
 21
-12.75
  0
ENDBLK
  0
BLOCK
  2
*DIM_0012
 70
    65
 10
0.0
 20
0.0
  0
LINE
  8
寸法
  6
BYBLOCK
 62
     0
 10
-78.342895
 20
47.814033
 11
-91.635732
 21
47.814033
  0
LINE
  8
寸法
  6
BYBLOCK
 62
     0
 10
-78.342895
 20
27.814033
 11
-91.635732
 21
27.814033
  0
LINE
  8
寸法
  6
BYBLOCK
 62
     0
 10
-91.635732
 20
47.814033
 11
-91.635732
 21
27.814033
  0
POINT
  8
寸法
 62
     0
 10
-91.635732
 20
47.814033
  0
POINT
  8
寸法
 62
     0
 10
-91.635732
 20
27.814033
  0
TEXT
  7
TextStyle03
  8
寸法
  6
CONTINUOUS
 62
     0
 10
-92.025
 20
35.3625
  1
600
 40
3.0
 50
90.0
 72
     5
 11
-92.025
 21
40.2375
  0
ENDBLK
  0
BLOCK
  2
*DIM_0013
 70
    65
 10
0.0
 20
0.0
  0
LINE
  8
寸法
  6
BYBLOCK
 62
     0
 10
-67.009562
 20
55.814033
 11
-67.009562
 21
84.922105
  0
LINE
  8
寸法
  6
BYBLOCK
 62
     0
 10
-43.67623
 20
55.814033
 11
-43.67623
 21
84.922105
  0
LINE
  8
寸法
  6
BYBLOCK
 62
     0
 10
-67.009562
 20
84.922105
 11
-43.67623
 21
84.922105
  0
POINT
  8
寸法
 62
     0
 10
-67.009562
 20
84.922105
  0
POINT
  8
寸法
 62
     0
 10
-43.67623
 20
84.922105
  0
TEXT
  7
TextStyle03
  8
寸法
  6
CONTINUOUS
 62
     0
 10
-57.7875
 20
85.275
  1
700
 40
3.0
 72
     5
 11
-52.9125
 21
85.275
  0
ENDBLK
  0
BLOCK
  2
*DIM_0014
 70
    65
 10
0.0
 20
0.0
  0
LINE
  8
寸法
  6
BYBLOCK
 62
     0
 10
-20.342897
 20
55.814033
 11
-20.342897
 21
84.922105
  0
LINE
  8
寸法
  6
BYBLOCK
 62
     0
 10
-43.67623
 20
84.922105
 11
-20.342897
 21
84.922105
  0
POINT
  8
寸法
 62
     0
 10
-20.342897
 20
84.922105
  0
TEXT
  7
TextStyle03
  8
寸法
  6
CONTINUOUS
 62
     0
 10
-34.4625
 20
85.275
  1
700
 40
3.0
 72
     5
 11
-29.5875
 21
85.275
  0
ENDBLK
  0
BLOCK
  2
*DIM_0015
 70
    65
 10
0.0
 20
0.0
  0
LINE
  8
寸法
  6
BYBLOCK
 62
     0
 10
2.990438
 20
55.814033
 11
2.990438
 21
84.922105
  0
LINE
  8
寸法
  6
BYBLOCK
 62
     0
 10
-20.342897
 20
84.922105
 11
2.990438
 21
84.922105
  0
POINT
  8
寸法
 62
     0
 10
2.990438
 20
84.922105
  0
TEXT
  7
TextStyle03
  8
寸法
  6
CONTINUOUS
 62
     0
 10
-11.1375
 20
85.275
  1
700
 40
3.0
 72
     5
 11
-6.2625
 21
85.275
  0
ENDBLK
  0
BLOCK
  2
*DIM_0016
 70
    65
 10
0.0
 20
0.0
  0
LINE
  8
寸法
  6
BYBLOCK
 62
     0
 10
26.32377
 20
55.814033
 11
26.32377
 21
84.922105
  0
LINE
  8
寸法
  6
BYBLOCK
 62
     0
 10
2.990438
 20
84.922105
 11
26.32377
 21
84.922105
  0
POINT
  8
寸法
 62
     0
 10
26.32377
 20
84.922105
  0
TEXT
  7
TextStyle03
  8
寸法
  6
CONTINUOUS
 62
     0
 10
12.2125
 20
85.275
  1
700
 40
3.0
 72
     5
 11
17.0875
 21
85.275
  0
ENDBLK
  0
BLOCK
  2
*DIM_0017
 70
    65
 10
0.0
 20
0.0
  0
LINE
  8
寸法
  6
BYBLOCK
 62
     0
 10
49.657102
 20
55.814033
 11
49.657102
 21
84.922105
  0
LINE
  8
寸法
  6
BYBLOCK
 62
     0
 10
26.32377
 20
84.922105
 11
49.657102
 21
84.922105
  0
POINT
  8
寸法
 62
     0
 10
49.657102
 20
84.922105
  0
TEXT
  7
TextStyle03
  8
寸法
  6
CONTINUOUS
 62
     0
 10
35.5375
 20
85.275
  1
700
 40
3.0
 72
     5
 11
40.4125
 21
85.275
  0
ENDBLK
  0
BLOCK
  2
*DIM_0018
 70
    65
 10
0.0
 20
0.0
  0
LINE
  8
寸法
  6
CONTINUOUS
 10
145.69472
 20
66.643603
 11
153.34477
 21
66.643603
  0
POINT
  8
寸法
 10
145.69472
 20
66.643603
  0
POINT
  8
寸法
 10
153.34477
 20
66.643603
  0
TEXT
  7
TextStyle03
  8
寸法
  6
CONTINUOUS
 10
145.375
 20
67.0
  1
229.5
 40
3.0
 72
     5
 11
153.625
 21
67.0
  0
ENDBLK
  0
BLOCK
  2
*GRP_0019
 70
    65
 10
0.0
 20
0.0
  0
LINE
  8
補助線
  6
BYBLOCK
 62
    64
 10
-63.612482
 20
-73.974428
 11
-63.739967
 21
-74.081787
  0
LINE
  8
補助線
  6
BYBLOCK
 62
    64
 10
-63.729905
 20
-73.964362
 11
-63.622545
 21
-74.09185
  0
LINE
  8
補助線
  6
BYBLOCK
 62
    64
 10
-55.122065
 20
-66.824405
 11
-55.24955
 21
-66.93176
  0
LINE
  8
補助線
  6
BYBLOCK
 62
    64
 10
-55.239487
 20
-66.81434
 11
-55.132128
 21
-66.941823
  0
LINE
  8
補助線
  6
BYBLOCK
 62
    64
 10
-46.75913
 20
-59.781735
 11
-46.631647
 21
-59.674377
  0
LINE
  8
補助線
  6
BYBLOCK
 62
    64
 10
-46.74907
 20
-59.664312
 11
-46.64171
 21
-59.7918
  0
LINE
  8
型材断面
  6
CONTINUOUS
 10
-64.46798
 20
-73.605405
 11
-64.528358
 21
-74.30993
  0
LINE
  8
型材断面
  6
CONTINUOUS
 10
-64.528358
 20
-74.30993
 11
-64.098925
 21
-74.819865
  0
LINE
  8
型材断面
  6
CONTINUOUS
 10
-64.098925
 20
-74.819865
 11
-63.3944
 21
-74.880242
  0
LINE
  8
型材断面
  6
CONTINUOUS
 10
-46.977213
 20
-58.875925
 11
-46.272688
 21
-58.936302
  0
LINE
  8
型材断面
  6
CONTINUOUS
 10
-46.272688
 20
-58.936302
 11
-45.843255
 21
-59.446238
  0
LINE
  8
型材断面
  6
CONTINUOUS
 10
-45.843255
 20
-59.446238
 11
-45.903633
 21
-60.150763
  0
LINE
  8
型材断面
  6
CONTINUOUS
 10
-64.46798
 20
-73.605405
 11
-46.977213
 21
-58.875925
  0
LINE
  8
型材断面
  6
CONTINUOUS
 10
-63.3944
 20
-74.880242
 11
-45.903633
 21
-60.150763
  0
CIRCLE
  8
ボルト／ビス
  6
CONTINUOUS
 10
-63.676225
 20
-74.028107
 40
0.250185
  0
CIRCLE
  8
ボルト／ビス
  6
CONTINUOUS
 10
-63.676225
 20
-74.028107
 40
0.301025
  0
LINE
  8
ボルト／ビス
  6
CONTINUOUS
 62
    64
 10
-63.922533
 20
-74.07199
 11
-63.83738
 21
-73.836743
  0
LINE
  8
ボルト／ビス
  6
CONTINUOUS
 62
    64
 10
-63.591072
 20
-73.792857
 11
-63.83738
 21
-73.836743
  0
LINE
  8
ボルト／ビス
  6
CONTINUOUS
 62
    64
 10
-63.761377
 20
-74.263357
 11
-63.51507
 21
-74.219473
  0
LINE
  8
ボルト／ビス
  6
CONTINUOUS
 62
    64
 10
-63.429918
 20
-73.984225
 11
-63.51507
 21
-74.219473
  0
LINE
  8
ボルト／ビス
  6
CONTINUOUS
 62
    64
 10
-63.922533
 20
-74.07199
 11
-63.761377
 21
-74.263357
  0
LINE
  8
ボルト／ビス
  6
CONTINUOUS
 62
    64
 10
-63.591072
 20
-73.792857
 11
-63.429918
 21
-73.984225
  0
CIRCLE
  8
ボルト／ビス
  6
CONTINUOUS
 62
    64
 10
-63.676225
 20
-74.028107
 40
0.216668
  0
CIRCLE
  8
ボルト／ビス
  6
CONTINUOUS
 10
-55.185808
 20
-66.878082
 40
0.250185
  0
CIRCLE
  8
ボルト／ビス
  6
CONTINUOUS
 10
-55.185808
 20
-66.878082
 40
0.301025
  0
LINE
  8
ボルト／ビス
  6
CONTINUOUS
 62
    64
 10
-55.432115
 20
-66.921965
 11
-55.346962
 21
-66.686715
  0
LINE
  8
ボルト／ビス
  6
CONTINUOUS
 62
    64
 10
-55.100655
 20
-66.642832
 11
-55.346962
 21
-66.686715
  0
LINE
  8
ボルト／ビス
  6
CONTINUOUS
 62
    64
 10
-55.27096
 20
-67.113332
 11
-55.02465
 21
-67.06945
  0
LINE
  8
ボルト／ビス
  6
CONTINUOUS
 62
    64
 10
-54.9395
 20
-66.834202
 11
-55.02465
 21
-67.06945
  0
LINE
  8
ボルト／ビス
  6
CONTINUOUS
 62
    64
 10
-55.432115
 20
-66.921965
 11
-55.27096
 21
-67.113332
  0
LINE
  8
ボルト／ビス
  6
CONTINUOUS
 62
    64
 10
-55.100655
 20
-66.642832
 11
-54.9395
 21
-66.834202
  0
CIRCLE
  8
ボルト／ビス
  6
CONTINUOUS
 62
    64
 10
-55.185808
 20
-66.878082
 40
0.216668
  0
CIRCLE
  8
ボルト／ビス
  6
CONTINUOUS
 10
-46.695388
 20
-59.728057
 40
0.250185
  0
CIRCLE
  8
ボルト／ビス
  6
CONTINUOUS
 10
-46.695388
 20
-59.728057
 40
0.301025
  0
LINE
  8
ボルト／ビス
  6
CONTINUOUS
 62
    64
 10
-46.610235
 20
-59.492807
 11
-46.856545
 21
-59.536693
  0
LINE
  8
ボルト／ビス
  6
CONTINUOUS
 62
    64
 10
-46.941698
 20
-59.77194
 11
-46.856545
 21
-59.536693
  0
LINE
  8
ボルト／ビス
  6
CONTINUOUS
 62
    64
 10
-46.449082
 20
-59.684175
 11
-46.534232
 21
-59.919423
  0
LINE
  8
ボルト／ビス
  6
CONTINUOUS
 62
    64
 10
-46.780542
 20
-59.963307
 11
-46.534232
 21
-59.919423
  0
LINE
  8
ボルト／ビス
  6
CONTINUOUS
 62
    64
 10
-46.610235
 20
-59.492807
 11
-46.449082
 21
-59.684175
  0
LINE
  8
ボルト／ビス
  6
CONTINUOUS
 62
    64
 10
-46.941698
 20
-59.77194
 11
-46.780542
 21
-59.963307
  0
CIRCLE
  8
ボルト／ビス
  6
CONTINUOUS
 62
    64
 10
-46.695388
 20
-59.728057
 40
0.216668
  0
ENDBLK
  0
BLOCK
  2
*GRP_0020
 70
    65
 10
0.0
 20
0.0
  0
LINE
  8
補助線
  6
BYBLOCK
 62
    64
 10
-46.759133
 20
-73.974428
 11
-46.631647
 21
-74.081787
  0
LINE
  8
補助線
  6
BYBLOCK
 62
    64
 10
-46.64171
 20
-73.964362
 11
-46.74907
 21
-74.09185
  0
LINE
  8
補助線
  6
BYBLOCK
 62
    64
 10
-55.24955
 20
-66.824405
 11
-55.122065
 21
-66.93176
  0
LINE
  8
補助線
  6
BYBLOCK
 62
    64
 10
-55.132128
 20
-66.81434
 11
-55.239487
 21
-66.941823
  0
LINE
  8
補助線
  6
BYBLOCK
 62
    64
 10
-63.612485
 20
-59.781735
 11
-63.739967
 21
-59.674377
  0
LINE
  8
補助線
  6
BYBLOCK
 62
    64
 10
-63.622545
 20
-59.664312
 11
-63.729905
 21
-59.7918
  0
LINE
  8
型材断面
  6
CONTINUOUS
 10
-45.903635
 20
-73.605405
 11
-45.843257
 21
-74.30993
  0
LINE
  8
型材断面
  6
CONTINUOUS
 10
-45.843257
 20
-74.30993
 11
-46.27269
 21
-74.819865
  0
LINE
  8
型材断面
  6
CONTINUOUS
 10
-46.27269
 20
-74.819865
 11
-46.977215
 21
-74.880242
  0
LINE
  8
型材断面
  6
CONTINUOUS
 10
-63.394402
 20
-58.875925
 11
-64.098927
 21
-58.936302
  0
LINE
  8
型材断面
  6
CONTINUOUS
 10
-64.098927
 20
-58.936302
 11
-64.52836
 21
-59.446238
  0
LINE
  8
型材断面
  6
CONTINUOUS
 10
-64.52836
 20
-59.446238
 11
-64.467983
 21
-60.150763
  0
LINE
  8
型材断面
  6
CONTINUOUS
 10
-45.903635
 20
-73.605405
 11
-63.394402
 21
-58.875925
  0
LINE
  8
型材断面
  6
CONTINUOUS
 10
-46.977215
 20
-74.880242
 11
-64.467983
 21
-60.150763
  0
CIRCLE
  8
ボルト／ビス
  6
CONTINUOUS
 10
-46.69539
 20
-74.028107
 40
0.250185
  0
CIRCLE
  8
ボルト／ビス
  6
CONTINUOUS
 10
-46.69539
 20
-74.028107
 40
0.301025
  0
LINE
  8
ボルト／ビス
  6
CONTINUOUS
 62
    64
 10
-46.449082
 20
-74.07199
 11
-46.534235
 21
-73.836743
  0
LINE
  8
ボルト／ビス
  6
CONTINUOUS
 62
    64
 10
-46.780542
 20
-73.792857
 11
-46.534235
 21
-73.836743
  0
LINE
  8
ボルト／ビス
  6
CONTINUOUS
 62
    64
 10
-46.610238
 20
-74.263357
 11
-46.856545
 21
-74.219473
  0
LINE
  8
ボルト／ビス
  6
CONTINUOUS
 62
    64
 10
-46.941698
 20
-73.984225
 11
-46.856545
 21
-74.219473
  0
LINE
  8
ボルト／ビス
  6
CONTINUOUS
 62
    64
 10
-46.449082
 20
-74.07199
 11
-46.610238
 21
-74.263357
  0
LINE
  8
ボルト／ビス
  6
CONTINUOUS
 62
    64
 10
-46.780542
 20
-73.792857
 11
-46.941698
 21
-73.984225
  0
CIRCLE
  8
ボルト／ビス
  6
CONTINUOUS
 62
    64
 10
-46.69539
 20
-74.028107
 40
0.216668
  0
CIRCLE
  8
ボルト／ビス
  6
CONTINUOUS
 10
-55.185808
 20
-66.878082
 40
0.250185
  0
CIRCLE
  8
ボルト／ビス
  6
CONTINUOUS
 10
-55.185808
 20
-66.878082
 40
0.301025
  0
LINE
  8
ボルト／ビス
  6
CONTINUOUS
 62
    64
 10
-54.9395
 20
-66.921965
 11
-55.024652
 21
-66.686715
  0
LINE
  8
ボルト／ビス
  6
CONTINUOUS
 62
    64
 10
-55.27096
 20
-66.642832
 11
-55.024652
 21
-66.686715
  0
LINE
  8
ボルト／ビス
  6
CONTINUOUS
 62
    64
 10
-55.100655
 20
-67.113332
 11
-55.346965
 21
-67.06945
  0
LINE
  8
ボルト／ビス
  6
CONTINUOUS
 62
    64
 10
-55.432115
 20
-66.834202
 11
-55.346965
 21
-67.06945
  0
LINE
  8
ボルト／ビス
  6
CONTINUOUS
 62
    64
 10
-54.9395
 20
-66.921965
 11
-55.100655
 21
-67.113332
  0
LINE
  8
ボルト／ビス
  6
CONTINUOUS
 62
    64
 10
-55.27096
 20
-66.642832
 11
-55.432115
 21
-66.834202
  0
CIRCLE
  8
ボルト／ビス
  6
CONTINUOUS
 62
    64
 10
-55.185808
 20
-66.878082
 40
0.216668
  0
CIRCLE
  8
ボルト／ビス
  6
CONTINUOUS
 10
-63.676228
 20
-59.728057
 40
0.250185
  0
CIRCLE
  8
ボルト／ビス
  6
CONTINUOUS
 10
-63.676228
 20
-59.728057
 40
0.301025
  0
LINE
  8
ボルト／ビス
  6
CONTINUOUS
 62
    64
 10
-63.76138
 20
-59.492807
 11
-63.51507
 21
-59.536693
  0
LINE
  8
ボルト／ビス
  6
CONTINUOUS
 62
    64
 10
-63.429918
 20
-59.77194
 11
-63.51507
 21
-59.536693
  0
LINE
  8
ボルト／ビス
  6
CONTINUOUS
 62
    64
 10
-63.922533
 20
-59.684175
 11
-63.837382
 21
-59.919423
  0
LINE
  8
ボルト／ビス
  6
CONTINUOUS
 62
    64
 10
-63.591072
 20
-59.963307
 11
-63.837382
 21
-59.919423
  0
LINE
  8
ボルト／ビス
  6
CONTINUOUS
 62
    64
 10
-63.76138
 20
-59.492807
 11
-63.922533
 21
-59.684175
  0
LINE
  8
ボルト／ビス
  6
CONTINUOUS
 62
    64
 10
-63.429918
 20
-59.77194
 11
-63.591072
 21
-59.963307
  0
CIRCLE
  8
ボルト／ビス
  6
CONTINUOUS
 62
    64
 10
-63.676228
 20
-59.728057
 40
0.216668
  0
ENDBLK
  0
BLOCK
  2
*GRP_0021
 70
    65
 10
0.0
 20
0.0
  0
LINE
  8
補助線
  6
BYBLOCK
 62
    64
 10
46.260037
 20
-73.974428
 11
46.387522
 21
-74.081787
  0
LINE
  8
補助線
  6
BYBLOCK
 62
    64
 10
46.37746
 20
-73.964362
 11
46.2701
 21
-74.09185
  0
LINE
  8
補助線
  6
BYBLOCK
 62
    64
 10
37.76962
 20
-66.824405
 11
37.897105
 21
-66.93176
  0
LINE
  8
補助線
  6
BYBLOCK
 62
    64
 10
37.887042
 20
-66.81434
 11
37.779682
 21
-66.941823
  0
LINE
  8
補助線
  6
BYBLOCK
 62
    64
 10
29.406685
 20
-59.781735
 11
29.279203
 21
-59.674377
  0
LINE
  8
補助線
  6
BYBLOCK
 62
    64
 10
29.396625
 20
-59.664312
 11
29.289265
 21
-59.7918
  0
LINE
  8
型材断面
  6
CONTINUOUS
 10
47.115535
 20
-73.605405
 11
47.175913
 21
-74.30993
  0
LINE
  8
型材断面
  6
CONTINUOUS
 10
47.175913
 20
-74.30993
 11
46.74648
 21
-74.819865
  0
LINE
  8
型材断面
  6
CONTINUOUS
 10
46.74648
 20
-74.819865
 11
46.041955
 21
-74.880242
  0
LINE
  8
型材断面
  6
CONTINUOUS
 10
29.624768
 20
-58.875925
 11
28.920242
 21
-58.936302
  0
LINE
  8
型材断面
  6
CONTINUOUS
 10
28.920242
 20
-58.936302
 11
28.49081
 21
-59.446238
  0
LINE
  8
型材断面
  6
CONTINUOUS
 10
28.49081
 20
-59.446238
 11
28.551188
 21
-60.150763
  0
LINE
  8
型材断面
  6
CONTINUOUS
 10
47.115535
 20
-73.605405
 11
29.624768
 21
-58.875925
  0
LINE
  8
型材断面
  6
CONTINUOUS
 10
46.041955
 20
-74.880242
 11
28.551188
 21
-60.150763
  0
CIRCLE
  8
ボルト／ビス
  6
CONTINUOUS
 10
46.32378
 20
-74.028107
 40
0.250185
  0
CIRCLE
  8
ボルト／ビス
  6
CONTINUOUS
 10
46.32378
 20
-74.028107
 40
0.301025
  0
LINE
  8
ボルト／ビス
  6
CONTINUOUS
 62
    64
 10
46.570088
 20
-74.07199
 11
46.484935
 21
-73.836743
  0
LINE
  8
ボルト／ビス
  6
CONTINUOUS
 62
    64
 10
46.238628
 20
-73.792857
 11
46.484935
 21
-73.836743
  0
LINE
  8
ボルト／ビス
  6
CONTINUOUS
 62
    64
 10
46.408933
 20
-74.263357
 11
46.162625
 21
-74.219473
  0
LINE
  8
ボルト／ビス
  6
CONTINUOUS
 62
    64
 10
46.077472
 20
-73.984225
 11
46.162625
 21
-74.219473
  0
LINE
  8
ボルト／ビス
  6
CONTINUOUS
 62
    64
 10
46.570088
 20
-74.07199
 11
46.408933
 21
-74.263357
  0
LINE
  8
ボルト／ビス
  6
CONTINUOUS
 62
    64
 10
46.238628
 20
-73.792857
 11
46.077472
 21
-73.984225
  0
CIRCLE
  8
ボルト／ビス
  6
CONTINUOUS
 62
    64
 10
46.32378
 20
-74.028107
 40
0.216668
  0
CIRCLE
  8
ボルト／ビス
  6
CONTINUOUS
 10
37.833362
 20
-66.878082
 40
0.250185
  0
CIRCLE
  8
ボルト／ビス
  6
CONTINUOUS
 10
37.833362
 20
-66.878082
 40
0.301025
  0
LINE
  8
ボルト／ビス
  6
CONTINUOUS
 62
    64
 10
38.07967
 20
-66.921965
 11
37.994518
 21
-66.686715
  0
LINE
  8
ボルト／ビス
  6
CONTINUOUS
 62
    64
 10
37.74821
 20
-66.642832
 11
37.994518
 21
-66.686715
  0
LINE
  8
ボルト／ビス
  6
CONTINUOUS
 62
    64
 10
37.918515
 20
-67.113332
 11
37.672205
 21
-67.06945
  0
LINE
  8
ボルト／ビス
  6
CONTINUOUS
 62
    64
 10
37.587055
 20
-66.834202
 11
37.672205
 21
-67.06945
  0
LINE
  8
ボルト／ビス
  6
CONTINUOUS
 62
    64
 10
38.07967
 20
-66.921965
 11
37.918515
 21
-67.113332
  0
LINE
  8
ボルト／ビス
  6
CONTINUOUS
 62
    64
 10
37.74821
 20
-66.642832
 11
37.587055
 21
-66.834202
  0
CIRCLE
  8
ボルト／ビス
  6
CONTINUOUS
 62
    64
 10
37.833362
 20
-66.878082
 40
0.216668
  0
CIRCLE
  8
ボルト／ビス
  6
CONTINUOUS
 10
29.342943
 20
-59.728057
 40
0.250185
  0
CIRCLE
  8
ボルト／ビス
  6
CONTINUOUS
 10
29.342943
 20
-59.728057
 40
0.301025
  0
LINE
  8
ボルト／ビス
  6
CONTINUOUS
 62
    64
 10
29.25779
 20
-59.492807
 11
29.5041
 21
-59.536693
  0
LINE
  8
ボルト／ビス
  6
CONTINUOUS
 62
    64
 10
29.589252
 20
-59.77194
 11
29.5041
 21
-59.536693
  0
LINE
  8
ボルト／ビス
  6
CONTINUOUS
 62
    64
 10
29.096637
 20
-59.684175
 11
29.181788
 21
-59.919423
  0
LINE
  8
ボルト／ビス
  6
CONTINUOUS
 62
    64
 10
29.428097
 20
-59.963307
 11
29.181788
 21
-59.919423
  0
LINE
  8
ボルト／ビス
  6
CONTINUOUS
 62
    64
 10
29.25779
 20
-59.492807
 11
29.096637
 21
-59.684175
  0
LINE
  8
ボルト／ビス
  6
CONTINUOUS
 62
    64
 10
29.589252
 20
-59.77194
 11
29.428097
 21
-59.963307
  0
CIRCLE
  8
ボルト／ビス
  6
CONTINUOUS
 62
    64
 10
29.342943
 20
-59.728057
 40
0.216668
  0
ENDBLK
  0
BLOCK
  2
*GRP_0022
 70
    65
 10
0.0
 20
0.0
  0
LINE
  8
補助線
  6
BYBLOCK
 62
    64
 10
29.406688
 20
-73.974428
 11
29.279203
 21
-74.081787
  0
LINE
  8
補助線
  6
BYBLOCK
 62
    64
 10
29.289265
 20
-73.964362
 11
29.396625
 21
-74.09185
  0
LINE
  8
補助線
  6
BYBLOCK
 62
    64
 10
37.897105
 20
-66.824405
 11
37.76962
 21
-66.93176
  0
LINE
  8
補助線
  6
BYBLOCK
 62
    64
 10
37.779682
 20
-66.81434
 11
37.887042
 21
-66.941823
  0
LINE
  8
補助線
  6
BYBLOCK
 62
    64
 10
46.26004
 20
-59.781735
 11
46.387522
 21
-59.674377
  0
LINE
  8
補助線
  6
BYBLOCK
 62
    64
 10
46.2701
 20
-59.664312
 11
46.37746
 21
-59.7918
  0
LINE
  8
型材断面
  6
CONTINUOUS
 10
28.55119
 20
-73.605405
 11
28.490812
 21
-74.30993
  0
LINE
  8
型材断面
  6
CONTINUOUS
 10
28.490812
 20
-74.30993
 11
28.920245
 21
-74.819865
  0
LINE
  8
型材断面
  6
CONTINUOUS
 10
28.920245
 20
-74.819865
 11
29.62477
 21
-74.880242
  0
LINE
  8
型材断面
  6
CONTINUOUS
 10
46.041957
 20
-58.875925
 11
46.746482
 21
-58.936302
  0
LINE
  8
型材断面
  6
CONTINUOUS
 10
46.746482
 20
-58.936302
 11
47.175915
 21
-59.446238
  0
LINE
  8
型材断面
  6
CONTINUOUS
 10
47.175915
 20
-59.446238
 11
47.115538
 21
-60.150763
  0
LINE
  8
型材断面
  6
CONTINUOUS
 10
28.55119
 20
-73.605405
 11
46.041957
 21
-58.875925
  0
LINE
  8
型材断面
  6
CONTINUOUS
 10
29.62477
 20
-74.880242
 11
47.115538
 21
-60.150763
  0
CIRCLE
  8
ボルト／ビス
  6
CONTINUOUS
 10
29.342945
 20
-74.028107
 40
0.250185
  0
CIRCLE
  8
ボルト／ビス
  6
CONTINUOUS
 10
29.342945
 20
-74.028107
 40
0.301025
  0
LINE
  8
ボルト／ビス
  6
CONTINUOUS
 62
    64
 10
29.096637
 20
-74.07199
 11
29.18179
 21
-73.836743
  0
LINE
  8
ボルト／ビス
  6
CONTINUOUS
 62
    64
 10
29.428097
 20
-73.792857
 11
29.18179
 21
-73.836743
  0
LINE
  8
ボルト／ビス
  6
CONTINUOUS
 62
    64
 10
29.257792
 20
-74.263357
 11
29.5041
 21
-74.219473
  0
LINE
  8
ボルト／ビス
  6
CONTINUOUS
 62
    64
 10
29.589252
 20
-73.984225
 11
29.5041
 21
-74.219473
  0
LINE
  8
ボルト／ビス
  6
CONTINUOUS
 62
    64
 10
29.096637
 20
-74.07199
 11
29.257792
 21
-74.263357
  0
LINE
  8
ボルト／ビス
  6
CONTINUOUS
 62
    64
 10
29.428097
 20
-73.792857
 11
29.589252
 21
-73.984225
  0
CIRCLE
  8
ボルト／ビス
  6
CONTINUOUS
 62
    64
 10
29.342945
 20
-74.028107
 40
0.216668
  0
CIRCLE
  8
ボルト／ビス
  6
CONTINUOUS
 10
37.833362
 20
-66.878082
 40
0.250185
  0
CIRCLE
  8
ボルト／ビス
  6
CONTINUOUS
 10
37.833362
 20
-66.878082
 40
0.301025
  0
LINE
  8
ボルト／ビス
  6
CONTINUOUS
 62
    64
 10
37.587055
 20
-66.921965
 11
37.672207
 21
-66.686715
  0
LINE
  8
ボルト／ビス
  6
CONTINUOUS
 62
    64
 10
37.918515
 20
-66.642832
 11
37.672207
 21
-66.686715
  0
LINE
  8
ボルト／ビス
  6
CONTINUOUS
 62
    64
 10
37.74821
 20
-67.113332
 11
37.99452
 21
-67.06945
  0
LINE
  8
ボルト／ビス
  6
CONTINUOUS
 62
    64
 10
38.07967
 20
-66.834202
 11
37.99452
 21
-67.06945
  0
LINE
  8
ボルト／ビス
  6
CONTINUOUS
 62
    64
 10
37.587055
 20
-66.921965
 11
37.74821
 21
-67.113332
  0
LINE
  8
ボルト／ビス
  6
CONTINUOUS
 62
    64
 10
37.918515
 20
-66.642832
 11
38.07967
 21
-66.834202
  0
CIRCLE
  8
ボルト／ビス
  6
CONTINUOUS
 62
    64
 10
37.833362
 20
-66.878082
 40
0.216668
  0
CIRCLE
  8
ボルト／ビス
  6
CONTINUOUS
 10
46.323783
 20
-59.728057
 40
0.250185
  0
CIRCLE
  8
ボルト／ビス
  6
CONTINUOUS
 10
46.323783
 20
-59.728057
 40
0.301025
  0
LINE
  8
ボルト／ビス
  6
CONTINUOUS
 62
    64
 10
46.408935
 20
-59.492807
 11
46.162625
 21
-59.536693
  0
LINE
  8
ボルト／ビス
  6
CONTINUOUS
 62
    64
 10
46.077472
 20
-59.77194
 11
46.162625
 21
-59.536693
  0
LINE
  8
ボルト／ビス
  6
CONTINUOUS
 62
    64
 10
46.570088
 20
-59.684175
 11
46.484937
 21
-59.919423
  0
LINE
  8
ボルト／ビス
  6
CONTINUOUS
 62
    64
 10
46.238628
 20
-59.963307
 11
46.484937
 21
-59.919423
  0
LINE
  8
ボルト／ビス
  6
CONTINUOUS
 62
    64
 10
46.408935
 20
-59.492807
 11
46.570088
 21
-59.684175
  0
LINE
  8
ボルト／ビス
  6
CONTINUOUS
 62
    64
 10
46.077472
 20
-59.77194
 11
46.238628
 21
-59.963307
  0
CIRCLE
  8
ボルト／ビス
  6
CONTINUOUS
 62
    64
 10
46.323783
 20
-59.728057
 40
0.216668
  0
ENDBLK
  0
BLOCK
  2
*DIM_0023
 70
    65
 10
0.0
 20
0.0
  0
LINE
  8
寸法
  6
CONTINUOUS
 10
71.225683
 20
-68.376915
 11
71.225683
 21
-76.026965
  0
POINT
  8
寸法
 10
71.225683
 20
-68.376915
  0
POINT
  8
寸法
 10
71.225683
 20
-76.026965
  0
TEXT
  7
TextStyle03
  8
寸法
  6
CONTINUOUS
 10
75.45
 20
-76.4
  1
229.5
 40
3.0
 50
90.0
 72
     5
 11
75.45
 21
-68.15
  0
ENDBLK
  0
BLOCK
  2
*DIM_0024
 70
    65
 10
0.0
 20
0.0
  0
LINE
  8
寸法
  6
CONTINUOUS
 10
153.076993
 20
-46.4977
 11
120.78366
 21
-46.4977
  0
POINT
  8
寸法
 10
153.076993
 20
-46.4977
  0
POINT
  8
寸法
 10
120.78366
 20
-46.4977
  0
TEXT
  7
TextStyle03
  8
寸法
  6
CONTINUOUS
 10
132.8
 20
-46.125
  1
968.8
 40
3.0
 72
     5
 11
141.05
 21
-46.125
  0
ENDBLK
  0
BLOCK
  2
*DIM_0025
 70
    65
 10
0.0
 20
0.0
  0
LINE
  8
寸法
  6
BYBLOCK
 62
     0
 10
71.225683
 20
-68.376915
 11
71.225683
 21
-56.710247
  0
POINT
  8
寸法
 62
     0
 10
71.225683
 20
-68.376915
  0
POINT
  8
寸法
 62
     0
 10
71.225683
 20
-56.710247
  0
TEXT
  7
TextStyle03
  8
寸法
  6
CONTINUOUS
 62
     0
 10
70.825
 20
-55.19375
  1
上昇304以上
 40
3.0
 50
90.0
 72
     5
 11
70.825
 21
-37.00625
  0
ENDBLK
  0
ENDSEC
  0
SECTION
  2
ENTITIES
  0
POLYLINE
  8
通り芯
  6
CONTINUOUS
 66
     1
 70
     1
  0
VERTEX
  8
通り芯
 10
-210.0
 20
-148.5
  0
VERTEX
  8
通り芯
 10
210.0
 20
-148.5
  0
VERTEX
  8
通り芯
 10
210.0
 20
148.5
  0
VERTEX
  8
通り芯
 10
-210.0
 20
148.5
  0
SEQEND
  0
INSERT
  2
*GRP_0001
  8
型材断面
  6
CONTINUOUS
 10
0.0
 20
0.0
  0
LINE
  8
型材断面
  6
DASHDOT
 10
57.990438
 20
-77.836442
 11
57.990438
 21
52.814033
  0
LINE
  8
型材断面
  6
DASHDOT
 10
-8.67623
 20
-77.836442
 11
-8.67623
 21
52.814033
  0
LINE
  8
型材断面
  6
DASHDOT
 10
-75.342895
 20
-77.836442
 11
-75.342895
 21
52.814033
  0
LINE
  8
型材断面
  6
DASHDOT
 10
155.6672
 20
52.814033
 11
-75.342895
 21
52.814033
  0
LINE
  8
型材断面
  6
DASHDOT
 10
155.6672
 20
37.814033
 11
-75.342895
 21
37.814033
  0
LINE
  8
型材断面
  6
DASHDOT
 10
155.6672
 20
22.814033
 11
-75.342895
 21
22.814033
  0
LINE
  8
型材断面
  6
DASHDOT
 10
-8.67623
 20
22.814033
 11
-8.67623
 21
52.814033
  0
POLYLINE
  8
型材断面
  6
CONTINUOUS
 66
     1
 70
     1
  0
VERTEX
  8
型材断面
 10
0.847602
 20
13.03811
  0
VERTEX
  8
型材断面
 10
-17.924327
 20
13.03811
  0
VERTEX
  8
型材断面
 10
-17.924327
 20
8.301267
  0
VERTEX
  8
型材断面
 10
0.847602
 20
8.301267
  0
SEQEND
  0
POLYLINE
  8
型材断面
  6
CONTINUOUS
 66
     1
 70
     1
  0
VERTEX
  8
型材断面
 10
0.847602
 20
62.589955
  0
VERTEX
  8
型材断面
 10
-17.924327
 20
62.589955
  0
VERTEX
  8
型材断面
 10
-17.924327
 20
67.326798
  0
VERTEX
  8
型材断面
 10
0.847602
 20
67.326798
  0
SEQEND
  0
LINE
  8
型材断面
  6
CONTINUOUS
 10
-58.676228
 20
55.444162
 11
-60.171857
 21
58.03467
  0
LINE
  8
型材断面
  6
CONTINUOUS
 10
-58.676228
 20
55.444162
 11
-57.180598
 21
58.03467
  0
LINE
  8
型材断面
  6
CONTINUOUS
 10
-57.180598
 20
58.03467
 11
-60.171857
 21
58.03467
  0
LINE
  8
型材断面
  6
CONTINUOUS
 10
-77.973025
 20
37.814033
 11
-80.563533
 21
39.309663
  0
LINE
  8
型材断面
  6
CONTINUOUS
 10
-77.973025
 20
37.814033
 11
-80.563533
 21
36.318403
  0
LINE
  8
型材断面
  6
CONTINUOUS
 10
-80.563533
 20
36.318403
 11
-80.563533
 21
39.309663
  0
LINE
  8
型材断面
  6
CONTINUOUS
 10
-58.676228
 20
20.183902
 11
-60.171857
 21
17.593395
  0
LINE
  8
型材断面
  6
CONTINUOUS
 10
-58.676228
 20
20.183902
 11
-57.180598
 21
17.593395
  0
LINE
  8
型材断面
  6
CONTINUOUS
 10
-57.180598
 20
17.593395
 11
-60.171857
 21
17.593395
  0
LINE
  8
型材断面
  6
CONTINUOUS
 10
41.323768
 20
55.444162
 11
42.819398
 21
58.03467
  0
LINE
  8
型材断面
  6
CONTINUOUS
 10
41.323768
 20
55.444162
 11
39.828138
 21
58.03467
  0
LINE
  8
型材断面
  6
CONTINUOUS
 10
39.828138
 20
58.03467
 11
42.819398
 21
58.03467
  0
LINE
  8
型材断面
  6
CONTINUOUS
 10
41.323768
 20
20.183902
 11
42.819398
 21
17.593395
  0
LINE
  8
型材断面
  6
CONTINUOUS
 10
41.323768
 20
20.183902
 11
39.828138
 21
17.593395
  0
LINE
  8
型材断面
  6
CONTINUOUS
 10
39.828138
 20
17.593395
 11
42.819398
 21
17.593395
  0
LINE
  8
型材断面
  6
CONTINUOUS
 10
-129.221418
 20
90.791505
 11
-128.625363
 21
88.200998
  0
LINE
  8
型材断面
  6
CONTINUOUS
 10
-129.221418
 20
90.791505
 11
-129.817475
 21
88.200998
  0
LINE
  8
型材断面
  6
CONTINUOUS
 10
-129.817475
 20
88.200998
 11
-128.625363
 21
88.200998
  0
LINE
  8
型材断面
  6
CONTINUOUS
 10
-135.244005
 20
84.922105
 11
-89.002228
 21
84.922105
  0
LINE
  8
型材断面
  6
CONTINUOUS
 10
-129.221418
 20
97.32138
 11
-130.717047
 21
94.730873
  0
LINE
  8
型材断面
  6
CONTINUOUS
 10
-129.221418
 20
97.32138
 11
-127.725788
 21
94.730873
  0
LINE
  8
型材断面
  6
CONTINUOUS
 10
-127.725788
 20
94.730873
 11
-130.717047
 21
94.730873
  0
LINE
  8
型材断面
  6
CONTINUOUS
 10
-135.244005
 20
93.792277
 11
-89.002228
 21
93.792277
  0
LINE
  8
型材断面
  6
CONTINUOUS
 10
-135.244005
 20
79.134073
 11
-89.002228
 21
79.134073
  0
LINE
  8
型材断面
  6
CONTINUOUS
 10
60.620567
 20
49.114035
 11
63.211077
 21
48.517982
  0
LINE
  8
型材断面
  6
CONTINUOUS
 10
60.620567
 20
49.114035
 11
63.211075
 21
49.710095
  0
LINE
  8
型材断面
  6
CONTINUOUS
 10
63.211075
 20
49.710095
 11
63.211077
 21
48.517982
  0
LINE
  8
型材断面
  6
CONTINUOUS
 10
60.620567
 20
26.51403
 11
63.211077
 21
27.110082
  0
LINE
  8
型材断面
  6
CONTINUOUS
 10
60.620567
 20
26.51403
 11
63.211075
 21
25.91797
  0
LINE
  8
型材断面
  6
CONTINUOUS
 10
63.211075
 20
25.91797
 11
63.211077
 21
27.110082
  0
LINE
  8
型材断面
  6
CONTINUOUS
 10
-77.973027
 20
49.114035
 11
-80.563537
 21
48.517982
  0
LINE
  8
型材断面
  6
CONTINUOUS
 10
-77.973027
 20
49.114035
 11
-80.563535
 21
49.710095
  0
LINE
  8
型材断面
  6
CONTINUOUS
 10
-80.563535
 20
49.710095
 11
-80.563537
 21
48.517982
  0
LINE
  8
型材断面
  6
CONTINUOUS
 10
-77.973027
 20
26.51403
 11
-80.563537
 21
27.110082
  0
LINE
  8
型材断面
  6
CONTINUOUS
 10
-77.973027
 20
26.51403
 11
-80.563535
 21
25.91797
  0
LINE
  8
型材断面
  6
CONTINUOUS
 10
-80.563535
 20
25.91797
 11
-80.563537
 21
27.110082
  0
LINE
  8
型材断面
  6
CONTINUOUS
 10
-77.32608
 20
20.830853
 11
-8.67623
 21
20.830853
  0
LINE
  8
型材断面
  6
CONTINUOUS
 10
59.97362
 20
20.830853
 11
-8.67623
 21
20.830853
  0
LINE
  8
型材断面
  6
CONTINUOUS
 10
59.97362
 20
54.797213
 11
-8.67623
 21
54.797213
  0
LINE
  8
型材断面
  6
CONTINUOUS
 10
-77.32608
 20
54.797213
 11
-8.67623
 21
54.797213
  0
LINE
  8
型材断面
  6
CONTINUOUS
 10
-135.244005
 20
73.34604
 11
-89.002228
 21
73.34604
  0
ARC
  8
型材断面
  6
CONTINUOUS
 62
    47
 10
149.811381
 20
20.830696
 40
0.016668
 50
179.999123
 51
270.0
  0
ARC
  8
型材断面
  6
CONTINUOUS
 62
    47
 10
149.851383
 20
20.82403
 40
0.010002
 50
270.0
 51
359.791626
  0
LINE
  8
型材断面
  6
CONTINUOUS
 62
    47
 10
150.028105
 20
20.864033
 11
150.028105
 21
21.71418
  0
LINE
  8
型材断面
  6
CONTINUOUS
 62
    47
 10
149.794715
 20
20.830695
 11
147.688055
 21
20.830695
  0
LINE
  8
型材断面
  6
CONTINUOUS
 62
    47
 10
150.028105
 20
20.8307
 11
153.34477
 21
20.8307
  0
LINE
  8
型材断面
  6
CONTINUOUS
 62
    47
 10
153.84477
 20
21.3307
 11
153.34477
 21
21.3307
  0
LINE
  8
型材断面
  6
CONTINUOUS
 62
    47
 10
147.688055
 20
21.714035
 11
147.361387
 21
21.714035
  0
LINE
  8
型材断面
  6
CONTINUOUS
 62
    47
 10
149.811383
 20
20.814033
 11
149.851043
 21
20.814033
  0
ARC
  8
型材断面
  6
CONTINUOUS
 62
    47
 10
149.811381
 20
54.797368
 40
0.016668
 50
90.0
 51
180.000877
  0
ARC
  8
型材断面
  6
CONTINUOUS
 62
    47
 10
149.851383
 20
54.804034
 40
0.010002
 50
0.208374
 51
90.0
  0
LINE
  8
型材断面
  6
CONTINUOUS
 62
    47
 10
150.028105
 20
54.76403
 11
150.028105
 21
53.913883
  0
LINE
  8
型材断面
  6
CONTINUOUS
 62
    47
 10
149.794715
 20
54.797367
 11
147.688055
 21
54.797367
  0
LINE
  8
型材断面
  6
CONTINUOUS
 62
    47
 10
150.028105
 20
54.797363
 11
153.34477
 21
54.797363
  0
LINE
  8
型材断面
  6
CONTINUOUS
 62
    47
 10
153.84477
 20
54.297363
 11
153.34477
 21
54.297363
  0
LINE
  8
型材断面
  6
CONTINUOUS
 62
    47
 10
147.688055
 20
53.914027
 11
147.361387
 21
53.914027
  0
LINE
  8
型材断面
  6
CONTINUOUS
 62
    47
 10
149.811383
 20
54.81403
 11
149.851043
 21
54.81403
  0
LINE
  8
型材断面
  6
CONTINUOUS
 10
145.69472
 20
54.21403
 11
145.69472
 21
37.814033
  0
LINE
  8
型材断面
  6
CONTINUOUS
 10
145.861387
 20
54.370552
 11
145.861387
 21
37.814033
  0
LINE
  8
型材断面
  6
CONTINUOUS
 10
147.361387
 20
54.21403
 11
147.361387
 21
37.814033
  0
LINE
  8
型材断面
  6
CONTINUOUS
 10
147.688055
 20
54.797367
 11
147.688055
 21
37.814033
  0
LINE
  8
型材断面
  6
CONTINUOUS
 10
149.861387
 20
54.804032
 11
149.861387
 21
37.814033
  0
LINE
  8
型材断面
  6
CONTINUOUS
 10
150.028105
 20
54.797363
 11
150.028105
 21
37.814033
  0
LINE
  8
型材断面
  6
CONTINUOUS
 10
153.34477
 20
54.797363
 11
153.34477
 21
37.814033
  0
LINE
  8
型材断面
  6
CONTINUOUS
 10
153.84477
 20
54.297363
 11
153.84477
 21
37.814033
  0
LINE
  8
型材断面
  6
CONTINUOUS
 10
153.84477
 20
21.3307
 11
153.84477
 21
37.814033
  0
LINE
  8
型材断面
  6
CONTINUOUS
 10
153.34477
 20
20.8307
 11
153.34477
 21
37.814033
  0
LINE
  8
型材断面
  6
CONTINUOUS
 10
149.861387
 20
20.82403
 11
149.861387
 21
37.814033
  0
LINE
  8
型材断面
  6
CONTINUOUS
 10
150.028105
 20
20.8307
 11
150.028105
 21
37.814033
  0
LINE
  8
型材断面
  6
CONTINUOUS
 10
147.688055
 20
20.830695
 11
147.688055
 21
37.814033
  0
LINE
  8
型材断面
  6
CONTINUOUS
 10
147.361387
 20
21.414033
 11
147.361387
 21
37.814033
  0
LINE
  8
型材断面
  6
CONTINUOUS
 10
145.861387
 20
21.257512
 11
145.861387
 21
37.814033
  0
LINE
  8
型材断面
  6
CONTINUOUS
 10
145.69472
 20
21.414033
 11
145.69472
 21
37.814033
  0
ARC
  8
型材断面
  6
CONTINUOUS
 62
    47
 10
-77.326233
 20
-72.493577
 40
0.016668
 50
89.999123
 51
180.0
  0
ARC
  8
型材断面
  6
CONTINUOUS
 62
    47
 10
-77.332898
 20
-72.533579
 40
0.010002
 50
180.0
 51
269.791626
  0
LINE
  8
型材断面
  6
CONTINUOUS
 62
    47
 10
-77.292895
 20
-72.7103
 11
-76.442748
 21
-72.7103
  0
LINE
  8
型材断面
  6
CONTINUOUS
 62
    47
 10
-77.326232
 20
-72.47691
 11
-77.326232
 21
-70.37025
  0
LINE
  8
型材断面
  6
CONTINUOUS
 62
    47
 10
-77.326228
 20
-72.7103
 11
-77.326228
 21
-76.026965
  0
LINE
  8
型材断面
  6
CONTINUOUS
 62
    47
 10
-76.826228
 20
-76.526965
 11
-76.826228
 21
-76.026965
  0
LINE
  8
型材断面
  6
CONTINUOUS
 62
    47
 10
-76.442893
 20
-70.37025
 11
-76.442893
 21
-70.043582
  0
LINE
  8
型材断面
  6
CONTINUOUS
 62
    47
 10
-77.342895
 20
-72.493577
 11
-77.342895
 21
-72.533237
  0
ARC
  8
型材断面
  6
CONTINUOUS
 62
    47
 10
59.973773
 20
-72.493577
 40
0.016668
 50
0.0
 51
90.000877
  0
ARC
  8
型材断面
  6
CONTINUOUS
 62
    47
 10
59.980439
 20
-72.533579
 40
0.010002
 50
270.208374
 51
360.0
  0
LINE
  8
型材断面
  6
CONTINUOUS
 62
    47
 10
59.940435
 20
-72.7103
 11
59.09029
 21
-72.7103
  0
LINE
  8
型材断面
  6
CONTINUOUS
 62
    47
 10
59.973775
 20
-72.47691
 11
59.973775
 21
-70.37025
  0
LINE
  8
型材断面
  6
CONTINUOUS
 62
    47
 10
59.97377
 20
-72.7103
 11
59.97377
 21
-76.026965
  0
LINE
  8
型材断面
  6
CONTINUOUS
 62
    47
 10
59.47377
 20
-76.526965
 11
59.47377
 21
-76.026965
  0
LINE
  8
型材断面
  6
CONTINUOUS
 62
    47
 10
59.090435
 20
-70.37025
 11
59.090435
 21
-70.043582
  0
LINE
  8
型材断面
  6
CONTINUOUS
 62
    47
 10
59.990435
 20
-72.493577
 11
59.990435
 21
-72.533237
  0
LINE
  8
型材断面
  6
CONTINUOUS
 10
-76.742895
 20
-70.043582
 11
-8.67623
 21
-70.043582
  0
LINE
  8
型材断面
  6
CONTINUOUS
 10
-76.742895
 20
-68.376915
 11
-8.67623
 21
-68.376915
  0
LINE
  8
型材断面
  6
CONTINUOUS
 10
-76.899415
 20
-68.543582
 11
-8.67623
 21
-68.543582
  0
LINE
  8
型材断面
  6
CONTINUOUS
 10
-77.326232
 20
-70.37025
 11
-8.67623
 21
-70.37025
  0
LINE
  8
型材断面
  6
CONTINUOUS
 10
-77.332898
 20
-72.543582
 11
-8.67623
 21
-72.543582
  0
LINE
  8
型材断面
  6
CONTINUOUS
 10
-77.326228
 20
-72.7103
 11
-8.67623
 21
-72.7103
  0
LINE
  8
型材断面
  6
CONTINUOUS
 10
-76.826228
 20
-76.526965
 11
-8.67623
 21
-76.526965
  0
LINE
  8
型材断面
  6
CONTINUOUS
 10
-77.326228
 20
-76.026965
 11
-8.67623
 21
-76.026965
  0
LINE
  8
型材断面
  6
CONTINUOUS
 10
59.47377
 20
-76.526965
 11
-8.67623
 21
-76.526965
  0
LINE
  8
型材断面
  6
CONTINUOUS
 10
59.97377
 20
-76.026965
 11
-8.67623
 21
-76.026965
  0
LINE
  8
型材断面
  6
CONTINUOUS
 10
59.97377
 20
-72.7103
 11
-8.67623
 21
-72.7103
  0
LINE
  8
型材断面
  6
CONTINUOUS
 10
59.98044
 20
-72.543582
 11
-8.67623
 21
-72.543582
  0
LINE
  8
型材断面
  6
CONTINUOUS
 10
59.390435
 20
-70.043582
 11
-8.67623
 21
-70.043582
  0
LINE
  8
型材断面
  6
CONTINUOUS
 10
59.973775
 20
-70.37025
 11
-8.67623
 21
-70.37025
  0
LINE
  8
型材断面
  6
CONTINUOUS
 10
59.390435
 20
-68.376915
 11
-8.67623
 21
-68.376915
  0
LINE
  8
型材断面
  6
CONTINUOUS
 10
59.546957
 20
-68.543582
 11
-8.67623
 21
-68.543582
  0
INSERT
  2
*GRP_0019
  8
型材断面
  6
CONTINUOUS
 10
0.0
 20
0.0
  0
INSERT
  2
*GRP_0020
  8
型材断面
  6
CONTINUOUS
 10
0.0
 20
0.0
  0
INSERT
  2
*GRP_0021
  8
型材断面
  6
CONTINUOUS
 10
0.0
 20
0.0
  0
INSERT
  2
*GRP_0022
  8
型材断面
  6
CONTINUOUS
 10
0.0
 20
0.0
  0
ARC
  8
型材断面
  6
DOT
 62
    47
 10
-77.326233
 20
-60.826911
 40
0.016668
 50
89.999123
 51
180.0
  0
ARC
  8
型材断面
  6
DOT
 62
    47
 10
-77.332898
 20
-60.866912
 40
0.010002
 50
180.0
 51
269.791626
  0
LINE
  8
型材断面
  6
DOT
 62
    47
 10
-77.326232
 20
-60.810243
 11
-77.326232
 21
-58.703582
  0
LINE
  8
型材断面
  6
DOT
 62
    47
 10
-76.442893
 20
-58.703582
 11
-76.442893
 21
-58.376915
  0
LINE
  8
型材断面
  6
DOT
 62
    47
 10
-77.342895
 20
-60.82691
 11
-77.342895
 21
-60.86657
  0
ARC
  8
型材断面
  6
DOT
 62
    47
 10
59.973773
 20
-60.826911
 40
0.016668
 50
0.0
 51
90.000877
  0
ARC
  8
型材断面
  6
DOT
 62
    47
 10
59.980439
 20
-60.866912
 40
0.010002
 50
270.208374
 51
360.0
  0
LINE
  8
型材断面
  6
DOT
 62
    47
 10
59.973775
 20
-60.810243
 11
59.973775
 21
-58.703582
  0
LINE
  8
型材断面
  6
DOT
 62
    47
 10
59.090435
 20
-58.703582
 11
59.090435
 21
-58.376915
  0
LINE
  8
型材断面
  6
DOT
 62
    47
 10
59.990435
 20
-60.82691
 11
59.990435
 21
-60.86657
  0
LINE
  8
型材断面
  6
DOT
 10
-76.742895
 20
-56.710247
 11
-8.67623
 21
-56.710247
  0
LINE
  8
型材断面
  6
DOT
 10
-76.899415
 20
-56.876915
 11
-8.67623
 21
-56.876915
  0
LINE
  8
型材断面
  6
DOT
 10
-76.742895
 20
-58.376915
 11
-8.67623
 21
-58.376915
  0
LINE
  8
型材断面
  6
DOT
 10
-77.326232
 20
-58.703582
 11
-8.67623
 21
-58.703582
  0
LINE
  8
型材断面
  6
DOT
 10
-77.332898
 20
-60.876915
 11
-8.67623
 21
-60.876915
  0
LINE
  8
型材断面
  6
DOT
 10
59.98044
 20
-60.876915
 11
-8.67623
 21
-60.876915
  0
LINE
  8
型材断面
  6
DOT
 10
59.973775
 20
-58.703582
 11
-8.67623
 21
-58.703582
  0
LINE
  8
型材断面
  6
DOT
 10
59.390435
 20
-58.376915
 11
-8.67623
 21
-58.376915
  0
LINE
  8
型材断面
  6
DOT
 10
59.546957
 20
-56.876915
 11
-8.67623
 21
-56.876915
  0
LINE
  8
型材断面
  6
DOT
 10
59.390435
 20
-56.710247
 11
-8.67623
 21
-56.710247
  0
LINE
  8
型材断面
  6
DASHDOT
 10
-42.13456
 20
22.814033
 11
-42.13456
 21
52.814033
  0
LINE
  8
型材断面
  6
DASHDOT
 10
24.7821
 20
22.814033
 11
24.7821
 21
52.814033
  0
LINE
  8
型材断面
  6
CONTINUOUS
 10
41.802938
 20
23.757512
 11
41.802938
 21
21.257512
  0
LINE
  8
型材断面
  6
CONTINUOUS
 10
40.969602
 20
23.757512
 11
40.969602
 21
21.257512
  0
LINE
  8
型材断面
  6
CONTINUOUS
 10
8.469602
 20
23.757512
 11
8.469602
 21
21.257512
  0
LINE
  8
型材断面
  6
CONTINUOUS
 10
7.636268
 20
23.757512
 11
7.636268
 21
21.257512
  0
LINE
  8
型材断面
  6
CONTINUOUS
 10
-59.155397
 20
23.757512
 11
-59.155397
 21
21.257512
  0
LINE
  8
型材断面
  6
CONTINUOUS
 10
-58.322062
 20
23.757512
 11
-58.322062
 21
21.257512
  0
LINE
  8
型材断面
  6
CONTINUOUS
 10
-25.822062
 20
23.757512
 11
-25.822062
 21
21.257512
  0
LINE
  8
型材断面
  6
CONTINUOUS
 10
-24.988728
 20
23.757512
 11
-24.988728
 21
21.257512
  0
LINE
  8
型材断面
  6
CONTINUOUS
 10
41.802938
 20
51.870552
 11
41.802938
 21
54.370552
  0
LINE
  8
型材断面
  6
CONTINUOUS
 10
40.969602
 20
51.870552
 11
40.969602
 21
54.370552
  0
LINE
  8
型材断面
  6
CONTINUOUS
 10
8.469602
 20
51.870552
 11
8.469602
 21
54.370552
  0
LINE
  8
型材断面
  6
CONTINUOUS
 10
7.636268
 20
51.870552
 11
7.636268
 21
54.370552
  0
LINE
  8
型材断面
  6
CONTINUOUS
 10
-59.155397
 20
51.870552
 11
-59.155397
 21
54.370552
  0
LINE
  8
型材断面
  6
CONTINUOUS
 10
-58.322062
 20
51.870552
 11
-58.322062
 21
54.370552
  0
LINE
  8
型材断面
  6
CONTINUOUS
 10
-25.822062
 20
51.870552
 11
-25.822062
 21
54.370552
  0
LINE
  8
型材断面
  6
CONTINUOUS
 10
-24.988728
 20
51.870552
 11
-24.988728
 21
54.370552
  0
LINE
  8
型材断面
  6
CONTINUOUS
 10
8.469602
 20
51.870552
 11
40.969602
 21
51.870552
  0
LINE
  8
型材断面
  6
CONTINUOUS
 10
8.469602
 20
23.757512
 11
40.969602
 21
23.757512
  0
LINE
  8
型材断面
  6
CONTINUOUS
 10
-24.988728
 20
23.757512
 11
7.636268
 21
23.757512
  0
LINE
  8
型材断面
  6
CONTINUOUS
 10
-24.988728
 20
51.870552
 11
7.636268
 21
51.870552
  0
LINE
  8
型材断面
  6
CONTINUOUS
 10
-58.322062
 20
51.870552
 11
-25.822062
 21
51.870552
  0
LINE
  8
型材断面
  6
CONTINUOUS
 10
-58.322062
 20
23.757512
 11
-25.822062
 21
23.757512
  0
LINE
  8
型材断面
  6
CONTINUOUS
 10
26.0321
 20
24.590845
 11
23.5321
 21
24.590845
  0
LINE
  8
型材断面
  6
CONTINUOUS
 10
26.0321
 20
24.590845
 11
26.0321
 21
51.03722
  0
LINE
  8
型材断面
  6
CONTINUOUS
 10
26.0321
 20
51.03722
 11
23.5321
 21
51.03722
  0
LINE
  8
型材断面
  6
CONTINUOUS
 10
23.5321
 20
24.590845
 11
23.5321
 21
51.03722
  0
LINE
  8
型材断面
  6
CONTINUOUS
 10
-7.42623
 20
24.590845
 11
-9.92623
 21
24.590845
  0
LINE
  8
型材断面
  6
CONTINUOUS
 10
-7.42623
 20
24.590845
 11
-7.42623
 21
51.03722
  0
LINE
  8
型材断面
  6
CONTINUOUS
 10
-7.42623
 20
51.03722
 11
-9.92623
 21
51.03722
  0
LINE
  8
型材断面
  6
CONTINUOUS
 10
-9.92623
 20
24.590845
 11
-9.92623
 21
51.03722
  0
LINE
  8
型材断面
  6
CONTINUOUS
 10
-43.38456
 20
24.590845
 11
-40.88456
 21
24.590845
  0
LINE
  8
型材断面
  6
CONTINUOUS
 10
-43.38456
 20
24.590845
 11
-43.38456
 21
51.03722
  0
LINE
  8
型材断面
  6
CONTINUOUS
 10
-43.38456
 20
51.03722
 11
-40.88456
 21
51.03722
  0
LINE
  8
型材断面
  6
CONTINUOUS
 10
-40.88456
 20
24.590845
 11
-40.88456
 21
51.03722
  0
LINE
  8
型材断面
  6
CONTINUOUS
 10
59.973623
 20
54.797213
 11
59.973623
 21
37.814033
  0
LINE
  8
型材断面
  6
CONTINUOUS
 10
59.973623
 20
20.830853
 11
59.973623
 21
37.814033
  0
LINE
  8
型材断面
  6
CONTINUOUS
 10
59.546957
 20
37.397365
 11
57.046957
 21
37.397365
  0
LINE
  8
型材断面
  6
CONTINUOUS
 10
59.546957
 20
38.2307
 11
57.046957
 21
38.2307
  0
LINE
  8
型材断面
  6
CONTINUOUS
 10
59.31126
 20
21.25751
 11
59.546957
 21
21.493217
  0
LINE
  8
型材断面
  6
CONTINUOUS
 10
59.973623
 20
20.830853
 11
59.42911
 21
21.375365
  0
LINE
  8
型材断面
  6
CONTINUOUS
 10
57.046957
 20
37.397365
 11
57.046957
 21
23.993212
  0
LINE
  8
型材断面
  6
CONTINUOUS
 10
57.046957
 20
23.993212
 11
56.811257
 21
23.757512
  0
LINE
  8
型材断面
  6
CONTINUOUS
 10
56.811255
 20
23.75751
 11
59.311257
 21
21.257512
  0
LINE
  8
型材断面
  6
CONTINUOUS
 10
57.046957
 20
23.993212
 11
59.546957
 21
21.493217
  0
LINE
  8
型材断面
  6
CONTINUOUS
 10
59.31126
 20
54.370555
 11
59.546957
 21
54.134848
  0
LINE
  8
型材断面
  6
CONTINUOUS
 10
59.973623
 20
54.797213
 11
59.42911
 21
54.2527
  0
LINE
  8
型材断面
  6
CONTINUOUS
 10
57.046957
 20
51.634852
 11
59.546957
 21
54.134848
  0
LINE
  8
型材断面
  6
CONTINUOUS
 10
59.546957
 20
21.493217
 11
59.546957
 21
54.134848
  0
LINE
  8
型材断面
  6
CONTINUOUS
 10
56.811255
 20
51.870555
 11
59.311257
 21
54.370552
  0
LINE
  8
型材断面
  6
CONTINUOUS
 10
57.046957
 20
38.2307
 11
57.046957
 21
51.634852
  0
LINE
  8
型材断面
  6
CONTINUOUS
 10
57.046957
 20
51.634852
 11
56.811257
 21
51.870552
  0
LINE
  8
型材断面
  6
CONTINUOUS
 10
-77.326083
 20
54.797213
 11
-77.326083
 21
37.814033
  0
LINE
  8
型材断面
  6
CONTINUOUS
 10
-77.326083
 20
20.830853
 11
-77.326083
 21
37.814033
  0
LINE
  8
型材断面
  6
CONTINUOUS
 10
-76.899417
 20
37.397365
 11
-74.399417
 21
37.397365
  0
LINE
  8
型材断面
  6
CONTINUOUS
 10
-76.899417
 20
38.2307
 11
-74.399417
 21
38.2307
  0
LINE
  8
型材断面
  6
CONTINUOUS
 10
-76.66372
 20
21.25751
 11
-76.899417
 21
21.493217
  0
LINE
  8
型材断面
  6
CONTINUOUS
 10
-77.326083
 20
20.830853
 11
-76.78157
 21
21.375365
  0
LINE
  8
型材断面
  6
CONTINUOUS
 10
-74.399417
 20
37.397365
 11
-74.399417
 21
23.993212
  0
LINE
  8
型材断面
  6
CONTINUOUS
 10
-74.399417
 20
23.993212
 11
-74.163717
 21
23.757512
  0
LINE
  8
型材断面
  6
CONTINUOUS
 10
-74.163715
 20
23.75751
 11
-76.663717
 21
21.257512
  0
LINE
  8
型材断面
  6
CONTINUOUS
 10
-74.399417
 20
23.993212
 11
-76.899417
 21
21.493217
  0
LINE
  8
型材断面
  6
CONTINUOUS
 10
-76.66372
 20
54.370555
 11
-76.899417
 21
54.134848
  0
LINE
  8
型材断面
  6
CONTINUOUS
 10
-77.326083
 20
54.797213
 11
-76.78157
 21
54.2527
  0
LINE
  8
型材断面
  6
CONTINUOUS
 10
-74.399417
 20
51.634852
 11
-76.899417
 21
54.134848
  0
LINE
  8
型材断面
  6
CONTINUOUS
 10
-76.899417
 20
21.493217
 11
-76.899417
 21
54.134848
  0
LINE
  8
型材断面
  6
CONTINUOUS
 10
-74.163715
 20
51.870555
 11
-76.663717
 21
54.370552
  0
LINE
  8
型材断面
  6
CONTINUOUS
 10
-74.399417
 20
38.2307
 11
-74.399417
 21
51.634852
  0
LINE
  8
型材断面
  6
CONTINUOUS
 10
-74.399417
 20
51.634852
 11
-74.163717
 21
51.870552
  0
LINE
  8
型材断面
  6
CONTINUOUS
 10
41.802938
 20
23.757512
 11
56.811253
 21
23.757512
  0
LINE
  8
型材断面
  6
CONTINUOUS
 10
41.802938
 20
51.870552
 11
56.811253
 21
51.870552
  0
LINE
  8
型材断面
  6
CONTINUOUS
 10
-59.155397
 20
51.870552
 11
-74.163713
 21
51.870552
  0
LINE
  8
型材断面
  6
CONTINUOUS
 10
59.311257
 20
54.370552
 11
-76.663717
 21
54.370552
  0
LINE
  8
型材断面
  6
CONTINUOUS
 10
-59.155397
 20
23.757512
 11
-74.163713
 21
23.757512
  0
LINE
  8
型材断面
  6
CONTINUOUS
 10
59.311257
 20
21.257512
 11
-76.663717
 21
21.257512
  0
TEXT
  7
TextStyle03
  8
文字
  6
CONTINUOUS
 10
134.525
 20
-76.7
  1
網入り6.8t
 40
3.0
 72
     5
 11
151.2125
 21
-76.7
  0
TEXT
  7
TextStyle03
  8
文字
  6
CONTINUOUS
 10
141.2
 20
-81.375
  1
×４枚
 40
3.0
 72
     5
 11
150.95
 21
-81.375
  0
TEXT
  7
TextStyle03
  8
文字
  6
CONTINUOUS
 10
-16.85
 20
9.325
  1
可動装置側
 40
3.0
 72
     5
 11
-0.35
 21
9.325
  0
TEXT
  7
TextStyle03
  8
文字
  6
CONTINUOUS
 10
-16.85
 20
63.275
  1
可動装置側
 40
3.0
 72
     5
 11
-0.35
 21
63.275
  0
TEXT
  7
TextStyle03
  8
文字
  6
CONTINUOUS
 10
-126.45
 20
89.4
  1
はケーシング位置を示す
 40
3.0
 72
     5
 11
-89.7
 21
89.4
  0
TEXT
  7
TextStyle03
  8
文字
  6
CONTINUOUS
 10
-126.45
 20
86.025
  1
４ヶ所中1ヶ所に設定
 40
3.0
 72
     5
 11
-94.7625
 21
86.025
  0
TEXT
  7
TextStyle03
  8
文字
  6
CONTINUOUS
 10
-126.45
 20
94.925
  1
は排水穴位置を示す
 40
3.0
 72
     5
 11
-96.45
 21
94.925
  0
TEXT
  7
TextStyle03
  8
文字
  6
CONTINUOUS
 10
-96.35
 20
16.275
  1
アンカーピッチ
 40
3.0
 50
90.0
 72
     5
 11
-96.35
 21
39.525
  0
TEXT
  7
TextStyle03
  8
文字
  6
CONTINUOUS
 10
-67.25
 20
90.825
  1
アンカーピッチ
 40
3.0
 72
     5
 11
-44.0
 21
90.825
  0
TEXT
  7
TextStyle03
  8
文字
  6
CONTINUOUS
 10
-130.175
 20
80.05
  1
アンカー数量　１６ヶ所
 40
3.0
 72
     5
 11
-93.425
 21
80.05
  0
TEXT
  7
TextStyle03
  8
文字
  6
CONTINUOUS
 10
-130.225
 20
74.3
  1
アームユニット数　４ヶ所
 40
3.0
 72
     5
 11
-90.1
 21
74.3
  0
LINE
  8
文字
  6
CONTINUOUS
 10
145.69472
 20
66.643603
 11
145.69472
 21
56.09364
  0
LINE
  8
文字
  6
CONTINUOUS
 10
153.34477
 20
66.643603
 11
153.34477
 21
56.158722
  0
LINE
  8
文字
  6
CONTINUOUS
 10
71.225683
 20
-68.376915
 11
60.67572
 21
-68.376915
  0
LINE
  8
文字
  6
CONTINUOUS
 10
71.225683
 20
-76.026965
 11
60.7408
 21
-76.026965
  0
LINE
  8
文字
  6
CONTINUOUS
 10
71.225683
 20
-56.710247
 11
60.67572
 21
-56.710247
  0
LINE
  8
文字
  6
CONTINUOUS
 10
153.076993
 20
-46.4977
 11
153.076993
 21
-52.29939
  0
LINE
  8
文字
  6
CONTINUOUS
 10
120.78366
 20
-46.4977
 11
120.78366
 21
-52.29939
  0
TEXT
  7
TextStyle03
  8
文字
  6
CONTINUOUS
 10
61.125
 20
125.25
  1
シリーズ：ＴＦ２ＦＬ
 40
5.0
 72
     5
 11
116.75
 21
125.25
  0
TEXT
  7
TextStyle03
  8
文字
  6
CONTINUOUS
 10
61.125
 20
119.625
  1
　　　　　（上下可動）900×4000タイプ
 40
5.0
 72
     5
 11
164.5625
 21
119.625
  0
TEXT
  7
TextStyle03
  8
文字
  6
CONTINUOUS
 10
61.125
 20
114.0
  1
図面名　：外観姿図
 40
5.0
 72
     5
 11
111.125
 21
114.0
  0
TEXT
  7
TextStyle03
  8
文字
  6
CONTINUOUS
 10
61.125
 20
108.375
  1
　　　　　　
 40
5.0
 72
     5
 11
94.25
 21
108.375
  0
TEXT
  7
TextStyle03
  8
文字
  6
CONTINUOUS
 10
61.275
 20
104.525
  1
ＮＳコード：ＮＳＦＺＬ
 40
5.0
 72
     5
 11
122.525
 21
104.525
  0
INSERT
  2
*DIM_0002
  8
寸法
  6
CONTINUOUS
 10
0.0
 20
0.0
  0
INSERT
  2
*DIM_0003
  8
寸法
  6
CONTINUOUS
 10
0.0
 20
0.0
  0
INSERT
  2
*DIM_0004
  8
寸法
  6
CONTINUOUS
 10
0.0
 20
0.0
  0
INSERT
  2
*DIM_0005
  8
寸法
  6
CONTINUOUS
 10
0.0
 20
0.0
  0
INSERT
  2
*DIM_0006
  8
寸法
  6
CONTINUOUS
 10
0.0
 20
0.0
  0
INSERT
  2
*DIM_0007
  8
寸法
  6
CONTINUOUS
 10
0.0
 20
0.0
  0
INSERT
  2
*DIM_0008
  8
寸法
  6
CONTINUOUS
 10
0.0
 20
0.0
  0
INSERT
  2
*DIM_0009
  8
寸法
  6
CONTINUOUS
 10
0.0
 20
0.0
  0
INSERT
  2
*DIM_0010
  8
寸法
  6
CONTINUOUS
 10
0.0
 20
0.0
  0
INSERT
  2
*DIM_0011
  8
寸法
  6
CONTINUOUS
 10
0.0
 20
0.0
  0
INSERT
  2
*DIM_0012
  8
寸法
  6
CONTINUOUS
 10
0.0
 20
0.0
  0
INSERT
  2
*DIM_0013
  8
寸法
  6
CONTINUOUS
 10
0.0
 20
0.0
  0
INSERT
  2
*DIM_0014
  8
寸法
  6
CONTINUOUS
 10
0.0
 20
0.0
  0
INSERT
  2
*DIM_0015
  8
寸法
  6
CONTINUOUS
 10
0.0
 20
0.0
  0
INSERT
  2
*DIM_0016
  8
寸法
  6
CONTINUOUS
 10
0.0
 20
0.0
  0
INSERT
  2
*DIM_0017
  8
寸法
  6
CONTINUOUS
 10
0.0
 20
0.0
  0
INSERT
  2
*DIM_0018
  8
寸法
  6
CONTINUOUS
 10
0.0
 20
0.0
  0
INSERT
  2
*DIM_0023
  8
寸法
  6
CONTINUOUS
 10
0.0
 20
0.0
  0
INSERT
  2
*DIM_0024
  8
寸法
  6
CONTINUOUS
 10
0.0
 20
0.0
  0
INSERT
  2
*DIM_0025
  8
寸法
  6
CONTINUOUS
 10
0.0
 20
0.0
  0
LINE
  8
別途部材
  6
CONTINUOUS
 62
    47
 10
145.79472
 20
21.257512
 11
145.861387
 21
21.257512
  0
ARC
  8
別途部材
  6
CONTINUOUS
 62
    47
 10
145.794719
 20
21.357511
 40
0.1
 50
180.0
 51
270.0
  0
LINE
  8
別途部材
  6
CONTINUOUS
 62
    47
 10
145.69472
 20
21.357512
 11
145.69472
 21
23.724178
  0
LINE
  8
別途部材
  6
CONTINUOUS
 62
    47
 10
147.361387
 20
21.414033
 11
145.861387
 21
21.414033
  0
LINE
  8
別途部材
  6
CONTINUOUS
 62
    47
 10
145.79472
 20
54.370552
 11
145.861387
 21
54.370552
  0
ARC
  8
別途部材
  6
CONTINUOUS
 62
    47
 10
145.794719
 20
54.270553
 40
0.1
 50
90.0
 51
180.0
  0
LINE
  8
別途部材
  6
CONTINUOUS
 62
    47
 10
145.69472
 20
54.270552
 11
145.69472
 21
51.903885
  0
LINE
  8
別途部材
  6
CONTINUOUS
 62
    47
 10
147.361387
 20
54.21403
 11
145.861387
 21
54.21403
  0
LINE
  8
別途部材
  6
CONTINUOUS
 62
    47
 10
-76.899415
 20
-68.476915
 11
-76.899415
 21
-68.543582
  0
ARC
  8
別途部材
  6
CONTINUOUS
 62
    47
 10
-76.799417
 20
-68.476915
 40
0.1
 50
90.0
 51
180.0
  0
LINE
  8
別途部材
  6
CONTINUOUS
 62
    47
 10
-76.799415
 20
-68.376915
 11
-74.43275
 21
-68.376915
  0
LINE
  8
別途部材
  6
CONTINUOUS
 62
    47
 10
-76.742895
 20
-70.043582
 11
-76.742895
 21
-68.543582
  0
LINE
  8
別途部材
  6
CONTINUOUS
 62
    47
 10
59.546957
 20
-68.476915
 11
59.546957
 21
-68.543582
  0
ARC
  8
別途部材
  6
CONTINUOUS
 62
    47
 10
59.446958
 20
-68.476915
 40
0.1
 50
0.0
 51
90.0
  0
LINE
  8
別途部材
  6
CONTINUOUS
 62
    47
 10
59.446957
 20
-68.376915
 11
57.08029
 21
-68.376915
  0
LINE
  8
別途部材
  6
CONTINUOUS
 62
    47
 10
59.390435
 20
-70.043582
 11
59.390435
 21
-68.543582
  0
LINE
  8
別途部材
  6
DOT
 62
    47
 10
-76.899415
 20
-56.810247
 11
-76.899415
 21
-56.876915
  0
ARC
  8
別途部材
  6
DOT
 62
    47
 10
-76.799417
 20
-56.810248
 40
0.1
 50
90.0
 51
180.0
  0
LINE
  8
別途部材
  6
DOT
 62
    47
 10
-76.799415
 20
-56.710247
 11
-74.43275
 21
-56.710247
  0
LINE
  8
別途部材
  6
DOT
 62
    47
 10
-76.742895
 20
-58.376915
 11
-76.742895
 21
-56.876915
  0
LINE
  8
別途部材
  6
DOT
 62
    47
 10
59.546957
 20
-56.810247
 11
59.546957
 21
-56.876915
  0
ARC
  8
別途部材
  6
DOT
 62
    47
 10
59.446958
 20
-56.810248
 40
0.1
 50
0.0
 51
90.0
  0
LINE
  8
別途部材
  6
DOT
 62
    47
 10
59.446957
 20
-56.710247
 11
57.08029
 21
-56.710247
  0
LINE
  8
別途部材
  6
DOT
 62
    47
 10
59.390435
 20
-58.376915
 11
59.390435
 21
-56.876915
  0
LINE
  8
曲げ物
  6
CONTINUOUS
 10
153.076993
 20
-83.118728
 11
153.076993
 21
-53.785395
  0
LINE
  8
曲げ物
  6
CONTINUOUS
 10
42.716167
 20
39.693362
 11
39.020855
 21
35.99805
  0
LINE
  8
曲げ物
  6
CONTINUOUS
 10
42.012697
 20
38.157252
 11
40.556968
 21
36.701522
  0
LINE
  8
曲げ物
  6
CONTINUOUS
 10
41.180057
 20
38.989892
 11
39.724328
 21
37.534162
  0
LINE
  8
曲げ物
  6
CONTINUOUS
 10
10.41293
 20
39.693362
 11
6.717618
 21
35.99805
  0
LINE
  8
曲げ物
  6
CONTINUOUS
 10
9.70946
 20
38.157252
 11
8.25373
 21
36.701522
  0
LINE
  8
曲げ物
  6
CONTINUOUS
 10
8.87682
 20
38.989892
 11
7.42109
 21
37.534162
  0
LINE
  8
曲げ物
  6
CONTINUOUS
 10
-22.68217
 20
39.693362
 11
-26.377483
 21
35.99805
  0
LINE
  8
曲げ物
  6
CONTINUOUS
 10
-23.38564
 20
38.157252
 11
-24.84137
 21
36.701522
  0
LINE
  8
曲げ物
  6
CONTINUOUS
 10
-24.21828
 20
38.989892
 11
-25.67401
 21
37.534162
  0
LINE
  8
曲げ物
  6
CONTINUOUS
 10
-56.347877
 20
39.693362
 11
-60.04319
 21
35.99805
  0
LINE
  8
曲げ物
  6
CONTINUOUS
 10
-57.051347
 20
38.157252
 11
-58.507078
 21
36.701522
  0
LINE
  8
曲げ物
  6
CONTINUOUS
 10
-57.883987
 20
38.989892
 11
-59.339718
 21
37.534162
  0
LINE
  8
曲げ物
  6
CONTINUOUS
 10
120.78366
 20
-83.118728
 11
120.78366
 21
-53.785395
  0
LINE
  8
曲げ物
  6
CONTINUOUS
 10
153.076993
 20
-53.785395
 11
120.78366
 21
-53.785395
  0
LINE
  8
曲げ物
  6
CONTINUOUS
 10
153.076993
 20
-83.118728
 11
120.78366
 21
-83.118728
  0
ENDSEC
  0
EOF
