  0
SECTION
  2
HEADER
  9
$EXTMIN
 10
-210.0
 20
-148.5
  9
$EXTMAX
 10
210.0
 20
148.5
  9
$PDMODE
 70
    32
  9
$PDSIZE
 40
1.5
  9
$LTSCALE
 40
10.0
  0
ENDSEC
  0
SECTION
  2
TABLES
  0
TABLE
  2
LTYPE
 70
    15
  0
LTYPE
  2
CONTINUOUS
 70
    64
  3
実線
 72
    65
 73
     0
 40
0.0
  0
LTYPE
  2
DASHED
 70
    64
  3
破線A
 72
    65
 73
     2
 40
0.6
 49
0.4
 49
-0.2
  0
LTYPE
  2
DASHEDX2
 70
    64
  3
破線B
 72
    65
 73
     2
 40
1.3
 49
0.9
 49
-0.4
  0
LTYPE
  2
DASHDOT
 70
    64
  3
１点鎖線A
 72
    65
 73
     4
 40
0.5375
 49
0.375
 49
-0.05
 49
0.0625
 49
-0.05
  0
LTYPE
  2
DASHDOTX2
 70
    64
  3
１点鎖線B
 72
    65
 73
     4
 40
1.075
 49
0.75
 49
-0.1
 49
0.125
 49
-0.1
  0
LTYPE
  2
DIVIDE2
 70
    64
  3
２点鎖線A
 72
    65
 73
     6
 40
0.5125
 49
0.3
 49
-0.0375
 49
0.05
 49
-0.0375
 49
0.05
 49
-0.0375
  0
LTYPE
  2
DIVIDE
 70
    64
  3
２点鎖線B
 72
    65
 73
     6
 40
1.05
 49
0.55
 49
-0.1
 49
0.1
 49
-0.1
 49
0.1
 49
-0.1
  0
LTYPE
  2
DOT
 70
    64
  3
点線A
 72
    65
 73
     2
 40
0.1125
 49
0.0625
 49
-0.05
  0
LTYPE
  2
DOTX2
 70
    64
  3
点線B
 72
    65
 73
     2
 40
0.275
 49
0.15
 49
-0.125
  0
LTYPE
  2
CONTINUOUS
 70
    64
  3
実線
 72
    65
 73
     0
 40
0.0
  0
LTYPE
  2
CONTINUOUS
 70
    64
  3
実線
 72
    65
 73
     0
 40
0.0
  0
LTYPE
  2
CONTINUOUS
 70
    64
  3
実線
 72
    65
 73
     0
 40
0.0
  0
LTYPE
  2
CONTINUOUS
 70
    64
  3
実線
 72
    65
 73
     0
 40
0.0
  0
LTYPE
  2
CONTINUOUS
 70
    64
  3
実線
 72
    65
 73
     0
 40
0.0
  0
LTYPE
  2
CONTINUOUS
 70
    64
  3
実線
 72
    65
 73
     0
 40
0.0
  0
ENDTAB
  0
TABLE
  2
LAYER
 70
    34
  0
LAYER
  2
通り芯
 70
     0
 62
    15
  6
CONTINUOUS
  0
LAYER
  2
補助線
 70
     0
 62
    16
  6
DOT
  0
LAYER
  2
躯体
 70
     0
 62
    31
  6
CONTINUOUS
  0
LAYER
  2
型材
 70
     0
 62
    32
  6
CONTINUOUS
  0
LAYER
  2
型材断面
 70
     0
 62
    47
  6
CONTINUOUS
  0
LAYER
  2
ガラス
 70
     0
 62
    48
  6
CONTINUOUS
  0
LAYER
  2
ゴム等
 70
     0
 62
    63
  6
CONTINUOUS
  0
LAYER
  2
ボルト／ビス
 70
     0
 62
    64
  6
CONTINUOUS
  0
LAYER
  2
文字
 70
     0
 62
    79
  6
CONTINUOUS
  0
LAYER
  2
寸法
 70
     0
 62
    80
  6
CONTINUOUS
  0
LAYER
  2
ﾊｯﾁﾝｸﾞ
 70
     0
 62
    95
  6
CONTINUOUS
  0
LAYER
  2
別途部材
 70
     0
 62
    96
  6
CONTINUOUS
  0
LAYER
  2
曲げ物
 70
     0
 62
   111
  6
CONTINUOUS
  0
LAYER
  2
鉄骨等
 70
     0
 62
   112
  6
CONTINUOUS
  0
LAYER
  2
St
 70
     0
 62
   127
  6
CONTINUOUS
  0
LAYER
  2
その他部品等
 70
     0
 62
   128
  6
CONTINUOUS
  0
LAYER
  2
ｶﾞｽｹｯﾄ
 70
     0
 62
   143
  6
CONTINUOUS
  0
LAYER
  2
ｽｹｯﾁ
 70
     0
 62
    14
  6
CONTINUOUS
  0
LAYER
  2
0
 70
     0
 62
    17
  6
CONTINUOUS
  0
LAYER
  2
1
 70
     0
 62
    30
  6
CONTINUOUS
  0
LAYER
  2
4
 70
     0
 62
    33
  6
CONTINUOUS
  0
LAYER
  2
ﾚｲﾔ3
 70
     0
 62
    46
  6
CONTINUOUS
  0
LAYER
  2
外形線
 70
     0
 62
    49
  6
CONTINUOUS
  0
LAYER
  2
部品
 70
     0
 62
    14
  6
CONTINUOUS
  0
LAYER
  2
サッシ芯
 70
     0
 62
    17
  6
DASHDOTX2
  0
LAYER
  2
寸法線
 70
     0
 62
    62
  6
CONTINUOUS
  0
LAYER
  2
姿図外形線
 70
     0
 62
    65
  6
CONTINUOUS
  0
LAYER
  2
姿補助線
 70
     0
 62
    30
  6
CONTINUOUS
  0
LAYER
  2
透視線
 70
     0
 62
    78
  6
DOT
  0
LAYER
  2
用紙
 70
     0
 62
    81
  6
CONTINUOUS
  0
LAYER
  2
実線図枠
 70
     0
 62
    94
  6
CONTINUOUS
  0
LAYER
  2
補助図枠
 70
     0
 62
    97
  6
CONTINUOUS
  0
LAYER
  2
建具記号
 70
     0
 62
   110
  6
CONTINUOUS
  0
LAYER
  2
補助文字
 70
     0
 62
   113
  6
CONTINUOUS
  0
ENDTAB
  0
TABLE
  2
STYLE
 70
    10
  0
STYLE
  2
STANDARD
 70
     0
 40
1.0
 41
1.0
 42
1.0
 50
0.0
 71
     0
  3
TXT
  4
BIGFONT
  0
STYLE
  2
TATE
 70
     4
 40
1.0
 41
1.0
 42
1.0
 50
0.0
 71
     0
  3
TXT
  4
BIGFONT
  0
STYLE
  2
TextStyle03
 70
     0
 40
1.0
 41
1.0
 42
1.0
 50
0.0
 71
     0
  3
MONOTXT
  4
BIGFONT
  0
STYLE
  2
TextStyle04
 70
     0
 40
1.0
 41
1.0
 42
1.0
 50
0.0
 71
     0
  3
MONOTXT
  4
BIGFONT
  0
STYLE
  2
TextStyle05
 70
     0
 40
1.0
 41
1.0
 42
1.0
 50
0.0
 71
     0
  3
MONOTXT
  4
BIGFONT
  0
STYLE
  2
TextStyle06
 70
     0
 40
1.0
 41
1.0
 42
1.0
 50
0.0
 71
     0
  3
MONOTXT
  4
BIGFONT
  0
STYLE
  2
TextStyle07
 70
     0
 40
1.0
 41
1.0
 42
1.0
 50
0.0
 71
     0
  3
MONOTXT
  4
BIGFONT
  0
STYLE
  2
TextStyle08
 70
     0
 40
1.0
 41
1.0
 42
1.0
 50
0.0
 71
     0
  3
MONOTXT
  4
BIGFONT
  0
STYLE
  2
TextStyle09
 70
     0
 40
1.0
 41
1.0
 42
1.0
 50
0.0
 71
     0
  3
MONOTXT
  4
BIGFONT
  0
STYLE
  2
TextStyle10
 70
     0
 40
1.0
 41
1.0
 42
1.0
 50
0.0
 71
     0
  3
MONOTXT
  4
BIGFONT
  0
ENDTAB
  0
ENDSEC
  0
SECTION
  2
BLOCKS
  0
BLOCK
  2
*GRP_0001
 70
    65
 10
0.0
 20
0.0
  0
LINE
  8
型材断面
  6
CONTINUOUS
 10
195.0
 20
133.5
 11
195.0
 21
-133.5
  0
LINE
  8
型材断面
  6
CONTINUOUS
 10
195.0
 20
-133.5
 11
-185.0
 21
-133.5
  0
LINE
  8
型材断面
  6
CONTINUOUS
 10
-185.0
 20
-133.5
 11
-185.0
 21
133.5
  0
LINE
  8
型材断面
  6
CONTINUOUS
 10
195.0
 20
133.5
 11
-185.0
 21
133.5
  0
LINE
  8
型材断面
  6
CONTINUOUS
 10
145.0
 20
-133.5
 11
145.0
 21
-118.5
  0
LINE
  8
型材断面
  6
CONTINUOUS
 10
195.0
 20
-118.5
 11
145.0
 21
-118.5
  0
ENDBLK
  0
BLOCK
  2
*DIM_0002
 70
    65
 10
0.0
 20
0.0
  0
LINE
  8
寸法
  6
BYBLOCK
 62
     0
 10
154.076993
 20
-53.785395
 11
162.135282
 21
-53.785395
  0
LINE
  8
寸法
  6
BYBLOCK
 62
     0
 10
154.076993
 20
-83.118728
 11
162.135282
 21
-83.118728
  0
LINE
  8
寸法
  6
BYBLOCK
 62
     0
 10
162.135282
 20
-53.785395
 11
162.135282
 21
-83.118728
  0
POINT
  8
寸法
 62
     0
 10
162.135282
 20
-53.785395
  0
POINT
  8
寸法
 62
     0
 10
162.135282
 20
-83.118728
  0
TEXT
  7
TextStyle03
  8
寸法
  6
CONTINUOUS
 62
     0
 10
161.775
 20
-70.9125
  1
880
 40
3.0
 50
90.0
 72
     5
 11
161.775
 21
-66.0375
  0
ENDBLK
  0
BLOCK
  2
*DIM_0003
 70
    65
 10
0.0
 20
0.0
  0
LINE
  8
寸法
  6
BYBLOCK
 62
     0
 10
-92.009562
 20
-13.511205
 11
-92.009562
 21
-13.121378
  0
LINE
  8
寸法
  6
BYBLOCK
 62
     0
 10
57.990438
 20
-13.121378
 11
-92.009562
 21
-13.121378
  0
POINT
  8
寸法
 62
     0
 10
57.990438
 20
-13.121378
  0
POINT
  8
寸法
 62
     0
 10
-92.009562
 20
-13.121378
  0
TEXT
  7
TextStyle03
  8
寸法
  6
CONTINUOUS
 62
     0
 10
-28.74375
 20
-12.75
  1
呼称寸法　4500
 40
3.0
 72
     5
 11
-5.30625
 21
-12.75
  0
ENDBLK
  0
BLOCK
  2
*DIM_0004
 70
    65
 10
0.0
 20
0.0
  0
LINE
  8
寸法
  6
BYBLOCK
 62
     0
 10
-75.342895
 20
19.183902
 11
-75.342895
 21
13.91212
  0
LINE
  8
寸法
  6
BYBLOCK
 62
     0
 10
-17.009562
 20
19.183905
 11
-17.009562
 21
13.91212
  0
LINE
  8
寸法
  6
BYBLOCK
 62
     0
 10
-75.342895
 20
13.91212
 11
-17.009562
 21
13.91212
  0
POINT
  8
寸法
 62
     0
 10
-75.342895
 20
13.91212
  0
POINT
  8
寸法
 62
     0
 10
-17.009562
 20
13.91212
  0
TEXT
  7
TextStyle03
  8
寸法
  6
CONTINUOUS
 62
     0
 10
-49.48125
 20
14.275
  1
1750
 40
3.0
 72
     5
 11
-42.91875
 21
14.275
  0
ENDBLK
  0
BLOCK
  2
*DIM_0005
 70
    65
 10
0.0
 20
0.0
  0
LINE
  8
寸法
  6
BYBLOCK
 62
     0
 10
41.32377
 20
19.183902
 11
41.32377
 21
13.91212
  0
LINE
  8
寸法
  6
BYBLOCK
 62
     0
 10
-17.009562
 20
13.91212
 11
41.32377
 21
13.91212
  0
POINT
  8
寸法
 62
     0
 10
41.32377
 20
13.91212
  0
TEXT
  7
TextStyle03
  8
寸法
  6
CONTINUOUS
 62
     0
 10
8.86875
 20
14.275
  1
1750
 40
3.0
 72
     5
 11
15.43125
 21
14.275
  0
ENDBLK
  0
BLOCK
  2
*DIM_0006
 70
    65
 10
0.0
 20
0.0
  0
LINE
  8
寸法
  6
BYBLOCK
 62
     0
 10
58.990438
 20
52.814035
 11
68.71472
 21
52.814035
  0
LINE
  8
寸法
  6
BYBLOCK
 62
     0
 10
61.620567
 20
49.114035
 11
68.71472
 21
49.114035
  0
LINE
  8
寸法
  6
BYBLOCK
 62
     0
 10
68.71472
 20
52.814035
 11
68.71472
 21
49.114035
  0
POINT
  8
寸法
 62
     0
 10
68.71472
 20
52.814035
  0
POINT
  8
寸法
 62
     0
 10
68.71472
 20
49.114035
  0
TEXT
  7
TextStyle03
  8
寸法
  6
CONTINUOUS
 62
     0
 10
68.375
 20
53.8125
  1
111
 40
3.0
 50
90.0
 72
     5
 11
68.375
 21
58.6875
  0
ENDBLK
  0
BLOCK
  2
*DIM_0007
 70
    65
 10
0.0
 20
0.0
  0
LINE
  8
寸法
  6
BYBLOCK
 62
     0
 10
58.990438
 20
22.81403
 11
68.71472
 21
22.814027
  0
LINE
  8
寸法
  6
BYBLOCK
 62
     0
 10
61.620567
 20
26.51403
 11
68.71472
 21
26.514027
  0
LINE
  8
寸法
  6
BYBLOCK
 62
     0
 10
68.71472
 20
22.814027
 11
68.71472
 21
26.514027
  0
POINT
  8
寸法
 62
     0
 10
68.71472
 20
22.814027
  0
POINT
  8
寸法
 62
     0
 10
68.71472
 20
26.514027
  0
TEXT
  7
TextStyle03
  8
寸法
  6
CONTINUOUS
 62
     0
 10
68.375
 20
16.9375
  1
111
 40
3.0
 50
90.0
 72
     5
 11
68.375
 21
21.8125
  0
ENDBLK
  0
BLOCK
  2
*DIM_0008
 70
    65
 10
0.0
 20
0.0
  0
LINE
  8
寸法
  6
BYBLOCK
 62
     0
 10
92.010088
 20
22.814033
 11
92.010088
 21
52.814033
  0
POINT
  8
寸法
 62
     0
 10
92.010088
 20
22.814033
  0
POINT
  8
寸法
 62
     0
 10
92.010088
 20
52.814033
  0
TEXT
  7
TextStyle03
  8
寸法
  6
CONTINUOUS
 62
     0
 10
91.65
 20
26.9
  1
呼称寸法　900
 40
3.0
 50
90.0
 72
     5
 11
91.65
 21
48.65
  0
ENDBLK
  0
BLOCK
  2
*DIM_0009
 70
    65
 10
0.0
 20
0.0
  0
LINE
  8
寸法
  6
BYBLOCK
 62
     0
 10
145.900483
 20
54.797365
 11
92.010088
 21
54.797365
  0
LINE
  8
寸法
  6
BYBLOCK
 62
     0
 10
92.010088
 20
52.814033
 11
92.010088
 21
54.797365
  0
POINT
  8
寸法
 62
     0
 10
92.010088
 20
52.814033
  0
POINT
  8
寸法
 62
     0
 10
92.010088
 20
54.797365
  0
TEXT
  7
TextStyle03
  8
寸法
  6
CONTINUOUS
 62
     0
 10
91.575
 20
57.26875
  1
59.5
 40
3.0
 50
90.0
 72
     5
 11
91.575
 21
63.83125
  0
ENDBLK
  0
BLOCK
  2
*DIM_0010
 70
    65
 10
0.0
 20
0.0
  0
LINE
  8
寸法
  6
BYBLOCK
 62
     0
 10
145.900483
 20
20.8307
 11
92.010088
 21
20.8307
  0
LINE
  8
寸法
  6
BYBLOCK
 62
     0
 10
92.010088
 20
22.814033
 11
92.010088
 21
20.8307
  0
POINT
  8
寸法
 62
     0
 10
92.010088
 20
22.814033
  0
POINT
  8
寸法
 62
     0
 10
92.010088
 20
20.8307
  0
TEXT
  7
TextStyle03
  8
寸法
  6
CONTINUOUS
 62
     0
 10
91.575
 20
11.76875
  1
59.5
 40
3.0
 50
90.0
 72
     5
 11
91.575
 21
18.33125
  0
ENDBLK
  0
BLOCK
  2
*DIM_0011
 70
    65
 10
0.0
 20
0.0
  0
LINE
  8
寸法
  6
BYBLOCK
 62
     0
 10
59.97377
 20
-56.919728
 11
59.97377
 21
-13.121378
  0
LINE
  8
寸法
  6
BYBLOCK
 62
     0
 10
57.990438
 20
-13.121378
 11
59.97377
 21
-13.121378
  0
POINT
  8
寸法
 62
     0
 10
57.990438
 20
-13.121378
  0
POINT
  8
寸法
 62
     0
 10
59.97377
 20
-13.121378
  0
TEXT
  7
TextStyle03
  8
寸法
  6
CONTINUOUS
 62
     0
 10
62.44375
 20
-12.75
  1
59.5
 40
3.0
 72
     5
 11
69.00625
 21
-12.75
  0
ENDBLK
  0
BLOCK
  2
*DIM_0012
 70
    65
 10
0.0
 20
0.0
  0
LINE
  8
寸法
  6
BYBLOCK
 62
     0
 10
-93.992895
 20
-56.919728
 11
-93.992895
 21
-13.121378
  0
LINE
  8
寸法
  6
BYBLOCK
 62
     0
 10
-92.009562
 20
-13.121378
 11
-93.992895
 21
-13.121378
  0
POINT
  8
寸法
 62
     0
 10
-92.009562
 20
-13.121378
  0
POINT
  8
寸法
 62
     0
 10
-93.992895
 20
-13.121378
  0
TEXT
  7
TextStyle03
  8
寸法
  6
CONTINUOUS
 62
     0
 10
-103.05625
 20
-12.75
  1
59.5
 40
3.0
 72
     5
 11
-96.49375
 21
-12.75
  0
ENDBLK
  0
BLOCK
  2
*DIM_0013
 70
    65
 10
0.0
 20
0.0
  0
LINE
  8
寸法
  6
BYBLOCK
 62
     0
 10
-95.009562
 20
47.814033
 11
-108.3024
 21
47.814033
  0
LINE
  8
寸法
  6
BYBLOCK
 62
     0
 10
-95.009562
 20
27.814033
 11
-108.3024
 21
27.814033
  0
LINE
  8
寸法
  6
BYBLOCK
 62
     0
 10
-108.3024
 20
47.814033
 11
-108.3024
 21
27.814033
  0
POINT
  8
寸法
 62
     0
 10
-108.3024
 20
47.814033
  0
POINT
  8
寸法
 62
     0
 10
-108.3024
 20
27.814033
  0
TEXT
  7
TextStyle03
  8
寸法
  6
CONTINUOUS
 62
     0
 10
-108.675
 20
35.3625
  1
600
 40
3.0
 50
90.0
 72
     5
 11
-108.675
 21
40.2375
  0
ENDBLK
  0
BLOCK
  2
*DIM_0014
 70
    65
 10
0.0
 20
0.0
  0
LINE
  8
寸法
  6
BYBLOCK
 62
     0
 10
-83.67623
 20
55.814033
 11
-83.67623
 21
84.922105
  0
LINE
  8
寸法
  6
BYBLOCK
 62
     0
 10
-57.009562
 20
55.814033
 11
-57.009562
 21
84.922105
  0
LINE
  8
寸法
  6
BYBLOCK
 62
     0
 10
-83.67623
 20
84.922105
 11
-57.009562
 21
84.922105
  0
POINT
  8
寸法
 62
     0
 10
-83.67623
 20
84.922105
  0
POINT
  8
寸法
 62
     0
 10
-57.009562
 20
84.922105
  0
TEXT
  7
TextStyle03
  8
寸法
  6
CONTINUOUS
 62
     0
 10
-72.8125
 20
85.275
  1
800
 40
3.0
 72
     5
 11
-67.9375
 21
85.275
  0
ENDBLK
  0
BLOCK
  2
*DIM_0015
 70
    65
 10
0.0
 20
0.0
  0
LINE
  8
寸法
  6
BYBLOCK
 62
     0
 10
-30.342895
 20
55.814033
 11
-30.342895
 21
84.922105
  0
LINE
  8
寸法
  6
BYBLOCK
 62
     0
 10
-57.009562
 20
84.922105
 11
-30.342895
 21
84.922105
  0
POINT
  8
寸法
 62
     0
 10
-30.342895
 20
84.922105
  0
TEXT
  7
TextStyle03
  8
寸法
  6
CONTINUOUS
 62
     0
 10
-46.1375
 20
85.275
  1
800
 40
3.0
 72
     5
 11
-41.2625
 21
85.275
  0
ENDBLK
  0
BLOCK
  2
*DIM_0016
 70
    65
 10
0.0
 20
0.0
  0
LINE
  8
寸法
  6
BYBLOCK
 62
     0
 10
-3.67623
 20
55.814033
 11
-3.67623
 21
84.922105
  0
LINE
  8
寸法
  6
BYBLOCK
 62
     0
 10
-30.342895
 20
84.922105
 11
-3.67623
 21
84.922105
  0
POINT
  8
寸法
 62
     0
 10
-3.67623
 20
84.922105
  0
TEXT
  7
TextStyle03
  8
寸法
  6
CONTINUOUS
 62
     0
 10
-19.4625
 20
85.275
  1
800
 40
3.0
 72
     5
 11
-14.5875
 21
85.275
  0
ENDBLK
  0
BLOCK
  2
*DIM_0017
 70
    65
 10
0.0
 20
0.0
  0
LINE
  8
寸法
  6
BYBLOCK
 62
     0
 10
22.990438
 20
55.814033
 11
22.990438
 21
84.922105
  0
LINE
  8
寸法
  6
BYBLOCK
 62
     0
 10
-3.67623
 20
84.922105
 11
22.990438
 21
84.922105
  0
POINT
  8
寸法
 62
     0
 10
22.990438
 20
84.922105
  0
TEXT
  7
TextStyle03
  8
寸法
  6
CONTINUOUS
 62
     0
 10
7.1875
 20
85.275
  1
800
 40
3.0
 72
     5
 11
12.0625
 21
85.275
  0
ENDBLK
  0
BLOCK
  2
*DIM_0018
 70
    65
 10
0.0
 20
0.0
  0
LINE
  8
寸法
  6
BYBLOCK
 62
     0
 10
49.657105
 20
55.814033
 11
49.657105
 21
84.922105
  0
LINE
  8
寸法
  6
BYBLOCK
 62
     0
 10
22.990438
 20
84.922105
 11
49.657105
 21
84.922105
  0
POINT
  8
寸法
 62
     0
 10
49.657105
 20
84.922105
  0
TEXT
  7
TextStyle03
  8
寸法
  6
CONTINUOUS
 62
     0
 10
33.8625
 20
85.275
  1
800
 40
3.0
 72
     5
 11
38.7375
 21
85.275
  0
ENDBLK
  0
BLOCK
  2
*DIM_0019
 70
    65
 10
0.0
 20
0.0
  0
LINE
  8
寸法
  6
CONTINUOUS
 10
145.880905
 20
66.643605
 11
153.530955
 21
66.643605
  0
POINT
  8
寸法
 10
145.880905
 20
66.643605
  0
POINT
  8
寸法
 10
153.530955
 20
66.643605
  0
TEXT
  7
TextStyle03
  8
寸法
  6
CONTINUOUS
 10
145.6
 20
67.0
  1
229.5
 40
3.0
 72
     5
 11
153.85
 21
67.0
  0
ENDBLK
  0
BLOCK
  2
*GRP_0020
 70
    65
 10
0.0
 20
0.0
  0
LINE
  8
補助線
  6
BYBLOCK
 62
    64
 10
-71.94582
 20
-74.170488
 11
-72.073305
 21
-74.277848
  0
LINE
  8
補助線
  6
BYBLOCK
 62
    64
 10
-72.063242
 20
-74.160423
 11
-71.955883
 21
-74.28791
  0
LINE
  8
補助線
  6
BYBLOCK
 62
    64
 10
-63.455403
 20
-67.020465
 11
-63.582888
 21
-67.12782
  0
LINE
  8
補助線
  6
BYBLOCK
 62
    64
 10
-63.572825
 20
-67.0104
 11
-63.465465
 21
-67.137882
  0
LINE
  8
補助線
  6
BYBLOCK
 62
    64
 10
-55.092468
 20
-59.977795
 11
-54.964985
 21
-59.870438
  0
LINE
  8
補助線
  6
BYBLOCK
 62
    64
 10
-55.082408
 20
-59.860372
 11
-54.975047
 21
-59.98786
  0
LINE
  8
型材断面
  6
CONTINUOUS
 10
-72.801318
 20
-73.801465
 11
-72.861695
 21
-74.50599
  0
LINE
  8
型材断面
  6
CONTINUOUS
 10
-72.861695
 20
-74.50599
 11
-72.432262
 21
-75.015925
  0
LINE
  8
型材断面
  6
CONTINUOUS
 10
-72.432262
 20
-75.015925
 11
-71.727737
 21
-75.076303
  0
LINE
  8
型材断面
  6
CONTINUOUS
 10
-55.31055
 20
-59.071985
 11
-54.606025
 21
-59.132362
  0
LINE
  8
型材断面
  6
CONTINUOUS
 10
-54.606025
 20
-59.132362
 11
-54.176592
 21
-59.642298
  0
LINE
  8
型材断面
  6
CONTINUOUS
 10
-54.176592
 20
-59.642298
 11
-54.23697
 21
-60.346822
  0
LINE
  8
型材断面
  6
CONTINUOUS
 10
-72.801318
 20
-73.801465
 11
-55.31055
 21
-59.071985
  0
LINE
  8
型材断面
  6
CONTINUOUS
 10
-71.727737
 20
-75.076303
 11
-54.23697
 21
-60.346822
  0
CIRCLE
  8
ボルト／ビス
  6
CONTINUOUS
 10
-72.009562
 20
-74.224168
 40
0.250185
  0
CIRCLE
  8
ボルト／ビス
  6
CONTINUOUS
 10
-72.009562
 20
-74.224168
 40
0.301025
  0
LINE
  8
ボルト／ビス
  6
CONTINUOUS
 62
    64
 10
-72.25587
 20
-74.26805
 11
-72.170717
 21
-74.032802
  0
LINE
  8
ボルト／ビス
  6
CONTINUOUS
 62
    64
 10
-71.92441
 20
-73.988918
 11
-72.170717
 21
-74.032802
  0
LINE
  8
ボルト／ビス
  6
CONTINUOUS
 62
    64
 10
-72.094715
 20
-74.459418
 11
-71.848408
 21
-74.415532
  0
LINE
  8
ボルト／ビス
  6
CONTINUOUS
 62
    64
 10
-71.763255
 20
-74.180285
 11
-71.848408
 21
-74.415532
  0
LINE
  8
ボルト／ビス
  6
CONTINUOUS
 62
    64
 10
-72.25587
 20
-74.26805
 11
-72.094715
 21
-74.459418
  0
LINE
  8
ボルト／ビス
  6
CONTINUOUS
 62
    64
 10
-71.92441
 20
-73.988918
 11
-71.763255
 21
-74.180285
  0
CIRCLE
  8
ボルト／ビス
  6
CONTINUOUS
 62
    64
 10
-72.009562
 20
-74.224168
 40
0.216668
  0
CIRCLE
  8
ボルト／ビス
  6
CONTINUOUS
 10
-63.519145
 20
-67.074143
 40
0.250185
  0
CIRCLE
  8
ボルト／ビス
  6
CONTINUOUS
 10
-63.519145
 20
-67.074143
 40
0.301025
  0
LINE
  8
ボルト／ビス
  6
CONTINUOUS
 62
    64
 10
-63.765452
 20
-67.118025
 11
-63.6803
 21
-66.882775
  0
LINE
  8
ボルト／ビス
  6
CONTINUOUS
 62
    64
 10
-63.433993
 20
-66.838893
 11
-63.6803
 21
-66.882775
  0
LINE
  8
ボルト／ビス
  6
CONTINUOUS
 62
    64
 10
-63.604298
 20
-67.309393
 11
-63.357988
 21
-67.26551
  0
LINE
  8
ボルト／ビス
  6
CONTINUOUS
 62
    64
 10
-63.272837
 20
-67.030263
 11
-63.357988
 21
-67.26551
  0
LINE
  8
ボルト／ビス
  6
CONTINUOUS
 62
    64
 10
-63.765452
 20
-67.118025
 11
-63.604298
 21
-67.309393
  0
LINE
  8
ボルト／ビス
  6
CONTINUOUS
 62
    64
 10
-63.433993
 20
-66.838893
 11
-63.272837
 21
-67.030263
  0
CIRCLE
  8
ボルト／ビス
  6
CONTINUOUS
 62
    64
 10
-63.519145
 20
-67.074143
 40
0.216668
  0
CIRCLE
  8
ボルト／ビス
  6
CONTINUOUS
 10
-55.028725
 20
-59.924118
 40
0.250185
  0
CIRCLE
  8
ボルト／ビス
  6
CONTINUOUS
 10
-55.028725
 20
-59.924118
 40
0.301025
  0
LINE
  8
ボルト／ビス
  6
CONTINUOUS
 62
    64
 10
-54.943573
 20
-59.688868
 11
-55.189883
 21
-59.732752
  0
LINE
  8
ボルト／ビス
  6
CONTINUOUS
 62
    64
 10
-55.275035
 20
-59.968
 11
-55.189883
 21
-59.732752
  0
LINE
  8
ボルト／ビス
  6
CONTINUOUS
 62
    64
 10
-54.78242
 20
-59.880235
 11
-54.86757
 21
-60.115482
  0
LINE
  8
ボルト／ビス
  6
CONTINUOUS
 62
    64
 10
-55.11388
 20
-60.159368
 11
-54.86757
 21
-60.115482
  0
LINE
  8
ボルト／ビス
  6
CONTINUOUS
 62
    64
 10
-54.943573
 20
-59.688868
 11
-54.78242
 21
-59.880235
  0
LINE
  8
ボルト／ビス
  6
CONTINUOUS
 62
    64
 10
-55.275035
 20
-59.968
 11
-55.11388
 21
-60.159368
  0
CIRCLE
  8
ボルト／ビス
  6
CONTINUOUS
 62
    64
 10
-55.028725
 20
-59.924118
 40
0.216668
  0
ENDBLK
  0
BLOCK
  2
*GRP_0021
 70
    65
 10
0.0
 20
0.0
  0
LINE
  8
補助線
  6
BYBLOCK
 62
    64
 10
-55.09247
 20
-74.170488
 11
-54.964985
 21
-74.277848
  0
LINE
  8
補助線
  6
BYBLOCK
 62
    64
 10
-54.975047
 20
-74.160423
 11
-55.082408
 21
-74.28791
  0
LINE
  8
補助線
  6
BYBLOCK
 62
    64
 10
-63.582888
 20
-67.020465
 11
-63.455403
 21
-67.12782
  0
LINE
  8
補助線
  6
BYBLOCK
 62
    64
 10
-63.465465
 20
-67.0104
 11
-63.572825
 21
-67.137882
  0
LINE
  8
補助線
  6
BYBLOCK
 62
    64
 10
-71.945823
 20
-59.977795
 11
-72.073305
 21
-59.870438
  0
LINE
  8
補助線
  6
BYBLOCK
 62
    64
 10
-71.955883
 20
-59.860372
 11
-72.063242
 21
-59.98786
  0
LINE
  8
型材断面
  6
CONTINUOUS
 10
-54.236972
 20
-73.801465
 11
-54.176595
 21
-74.50599
  0
LINE
  8
型材断面
  6
CONTINUOUS
 10
-54.176595
 20
-74.50599
 11
-54.606027
 21
-75.015925
  0
LINE
  8
型材断面
  6
CONTINUOUS
 10
-54.606027
 20
-75.015925
 11
-55.310552
 21
-75.076303
  0
LINE
  8
型材断面
  6
CONTINUOUS
 10
-71.72774
 20
-59.071985
 11
-72.432265
 21
-59.132362
  0
LINE
  8
型材断面
  6
CONTINUOUS
 10
-72.432265
 20
-59.132362
 11
-72.861697
 21
-59.642298
  0
LINE
  8
型材断面
  6
CONTINUOUS
 10
-72.861697
 20
-59.642298
 11
-72.80132
 21
-60.346822
  0
LINE
  8
型材断面
  6
CONTINUOUS
 10
-54.236972
 20
-73.801465
 11
-71.72774
 21
-59.071985
  0
LINE
  8
型材断面
  6
CONTINUOUS
 10
-55.310552
 20
-75.076303
 11
-72.80132
 21
-60.346822
  0
CIRCLE
  8
ボルト／ビス
  6
CONTINUOUS
 10
-55.028727
 20
-74.224168
 40
0.250185
  0
CIRCLE
  8
ボルト／ビス
  6
CONTINUOUS
 10
-55.028727
 20
-74.224168
 40
0.301025
  0
LINE
  8
ボルト／ビス
  6
CONTINUOUS
 62
    64
 10
-54.78242
 20
-74.26805
 11
-54.867573
 21
-74.032802
  0
LINE
  8
ボルト／ビス
  6
CONTINUOUS
 62
    64
 10
-55.11388
 20
-73.988918
 11
-54.867573
 21
-74.032802
  0
LINE
  8
ボルト／ビス
  6
CONTINUOUS
 62
    64
 10
-54.943575
 20
-74.459418
 11
-55.189883
 21
-74.415532
  0
LINE
  8
ボルト／ビス
  6
CONTINUOUS
 62
    64
 10
-55.275035
 20
-74.180285
 11
-55.189883
 21
-74.415532
  0
LINE
  8
ボルト／ビス
  6
CONTINUOUS
 62
    64
 10
-54.78242
 20
-74.26805
 11
-54.943575
 21
-74.459418
  0
LINE
  8
ボルト／ビス
  6
CONTINUOUS
 62
    64
 10
-55.11388
 20
-73.988918
 11
-55.275035
 21
-74.180285
  0
CIRCLE
  8
ボルト／ビス
  6
CONTINUOUS
 62
    64
 10
-55.028727
 20
-74.224168
 40
0.216668
  0
CIRCLE
  8
ボルト／ビス
  6
CONTINUOUS
 10
-63.519145
 20
-67.074143
 40
0.250185
  0
CIRCLE
  8
ボルト／ビス
  6
CONTINUOUS
 10
-63.519145
 20
-67.074143
 40
0.301025
  0
LINE
  8
ボルト／ビス
  6
CONTINUOUS
 62
    64
 10
-63.272837
 20
-67.118025
 11
-63.35799
 21
-66.882775
  0
LINE
  8
ボルト／ビス
  6
CONTINUOUS
 62
    64
 10
-63.604298
 20
-66.838893
 11
-63.35799
 21
-66.882775
  0
LINE
  8
ボルト／ビス
  6
CONTINUOUS
 62
    64
 10
-63.433993
 20
-67.309393
 11
-63.680303
 21
-67.26551
  0
LINE
  8
ボルト／ビス
  6
CONTINUOUS
 62
    64
 10
-63.765452
 20
-67.030263
 11
-63.680303
 21
-67.26551
  0
LINE
  8
ボルト／ビス
  6
CONTINUOUS
 62
    64
 10
-63.272837
 20
-67.118025
 11
-63.433993
 21
-67.309393
  0
LINE
  8
ボルト／ビス
  6
CONTINUOUS
 62
    64
 10
-63.604298
 20
-66.838893
 11
-63.765452
 21
-67.030263
  0
CIRCLE
  8
ボルト／ビス
  6
CONTINUOUS
 62
    64
 10
-63.519145
 20
-67.074143
 40
0.216668
  0
CIRCLE
  8
ボルト／ビス
  6
CONTINUOUS
 10
-72.009565
 20
-59.924118
 40
0.250185
  0
CIRCLE
  8
ボルト／ビス
  6
CONTINUOUS
 10
-72.009565
 20
-59.924118
 40
0.301025
  0
LINE
  8
ボルト／ビス
  6
CONTINUOUS
 62
    64
 10
-72.094718
 20
-59.688868
 11
-71.848408
 21
-59.732752
  0
LINE
  8
ボルト／ビス
  6
CONTINUOUS
 62
    64
 10
-71.763255
 20
-59.968
 11
-71.848408
 21
-59.732752
  0
LINE
  8
ボルト／ビス
  6
CONTINUOUS
 62
    64
 10
-72.25587
 20
-59.880235
 11
-72.17072
 21
-60.115482
  0
LINE
  8
ボルト／ビス
  6
CONTINUOUS
 62
    64
 10
-71.92441
 20
-60.159368
 11
-72.17072
 21
-60.115482
  0
LINE
  8
ボルト／ビス
  6
CONTINUOUS
 62
    64
 10
-72.094718
 20
-59.688868
 11
-72.25587
 21
-59.880235
  0
LINE
  8
ボルト／ビス
  6
CONTINUOUS
 62
    64
 10
-71.763255
 20
-59.968
 11
-71.92441
 21
-60.159368
  0
CIRCLE
  8
ボルト／ビス
  6
CONTINUOUS
 62
    64
 10
-72.009565
 20
-59.924118
 40
0.216668
  0
ENDBLK
  0
BLOCK
  2
*GRP_0022
 70
    65
 10
0.0
 20
0.0
  0
LINE
  8
補助線
  6
BYBLOCK
 62
    64
 10
37.9267
 20
-74.170488
 11
38.054185
 21
-74.277848
  0
LINE
  8
補助線
  6
BYBLOCK
 62
    64
 10
38.044123
 20
-74.160423
 11
37.936763
 21
-74.28791
  0
LINE
  8
補助線
  6
BYBLOCK
 62
    64
 10
29.436283
 20
-67.020465
 11
29.563767
 21
-67.12782
  0
LINE
  8
補助線
  6
BYBLOCK
 62
    64
 10
29.553705
 20
-67.0104
 11
29.446345
 21
-67.137882
  0
LINE
  8
補助線
  6
BYBLOCK
 62
    64
 10
21.073348
 20
-59.977795
 11
20.945865
 21
-59.870438
  0
LINE
  8
補助線
  6
BYBLOCK
 62
    64
 10
21.063287
 20
-59.860372
 11
20.955927
 21
-59.98786
  0
LINE
  8
型材断面
  6
CONTINUOUS
 10
38.782198
 20
-73.801465
 11
38.842575
 21
-74.50599
  0
LINE
  8
型材断面
  6
CONTINUOUS
 10
38.842575
 20
-74.50599
 11
38.413142
 21
-75.015925
  0
LINE
  8
型材断面
  6
CONTINUOUS
 10
38.413142
 20
-75.015925
 11
37.708618
 21
-75.076303
  0
LINE
  8
型材断面
  6
CONTINUOUS
 10
21.29143
 20
-59.071985
 11
20.586905
 21
-59.132362
  0
LINE
  8
型材断面
  6
CONTINUOUS
 10
20.586905
 20
-59.132362
 11
20.157473
 21
-59.642298
  0
LINE
  8
型材断面
  6
CONTINUOUS
 10
20.157473
 20
-59.642298
 11
20.21785
 21
-60.346822
  0
LINE
  8
型材断面
  6
CONTINUOUS
 10
38.782198
 20
-73.801465
 11
21.29143
 21
-59.071985
  0
LINE
  8
型材断面
  6
CONTINUOUS
 10
37.708618
 20
-75.076303
 11
20.21785
 21
-60.346822
  0
CIRCLE
  8
ボルト／ビス
  6
CONTINUOUS
 10
37.990443
 20
-74.224168
 40
0.250185
  0
CIRCLE
  8
ボルト／ビス
  6
CONTINUOUS
 10
37.990443
 20
-74.224168
 40
0.301025
  0
LINE
  8
ボルト／ビス
  6
CONTINUOUS
 62
    64
 10
38.23675
 20
-74.26805
 11
38.151598
 21
-74.032802
  0
LINE
  8
ボルト／ビス
  6
CONTINUOUS
 62
    64
 10
37.90529
 20
-73.988918
 11
38.151598
 21
-74.032802
  0
LINE
  8
ボルト／ビス
  6
CONTINUOUS
 62
    64
 10
38.075595
 20
-74.459418
 11
37.829287
 21
-74.415532
  0
LINE
  8
ボルト／ビス
  6
CONTINUOUS
 62
    64
 10
37.744135
 20
-74.180285
 11
37.829287
 21
-74.415532
  0
LINE
  8
ボルト／ビス
  6
CONTINUOUS
 62
    64
 10
38.23675
 20
-74.26805
 11
38.075595
 21
-74.459418
  0
LINE
  8
ボルト／ビス
  6
CONTINUOUS
 62
    64
 10
37.90529
 20
-73.988918
 11
37.744135
 21
-74.180285
  0
CIRCLE
  8
ボルト／ビス
  6
CONTINUOUS
 62
    64
 10
37.990443
 20
-74.224168
 40
0.216668
  0
CIRCLE
  8
ボルト／ビス
  6
CONTINUOUS
 10
29.500025
 20
-67.074143
 40
0.250185
  0
CIRCLE
  8
ボルト／ビス
  6
CONTINUOUS
 10
29.500025
 20
-67.074143
 40
0.301025
  0
LINE
  8
ボルト／ビス
  6
CONTINUOUS
 62
    64
 10
29.746333
 20
-67.118025
 11
29.66118
 21
-66.882775
  0
LINE
  8
ボルト／ビス
  6
CONTINUOUS
 62
    64
 10
29.414872
 20
-66.838893
 11
29.66118
 21
-66.882775
  0
LINE
  8
ボルト／ビス
  6
CONTINUOUS
 62
    64
 10
29.585177
 20
-67.309393
 11
29.338868
 21
-67.26551
  0
LINE
  8
ボルト／ビス
  6
CONTINUOUS
 62
    64
 10
29.253717
 20
-67.030263
 11
29.338868
 21
-67.26551
  0
LINE
  8
ボルト／ビス
  6
CONTINUOUS
 62
    64
 10
29.746333
 20
-67.118025
 11
29.585177
 21
-67.309393
  0
LINE
  8
ボルト／ビス
  6
CONTINUOUS
 62
    64
 10
29.414872
 20
-66.838893
 11
29.253717
 21
-67.030263
  0
CIRCLE
  8
ボルト／ビス
  6
CONTINUOUS
 62
    64
 10
29.500025
 20
-67.074143
 40
0.216668
  0
CIRCLE
  8
ボルト／ビス
  6
CONTINUOUS
 10
21.009605
 20
-59.924118
 40
0.250185
  0
CIRCLE
  8
ボルト／ビス
  6
CONTINUOUS
 10
21.009605
 20
-59.924118
 40
0.301025
  0
LINE
  8
ボルト／ビス
  6
CONTINUOUS
 62
    64
 10
20.924453
 20
-59.688868
 11
21.170762
 21
-59.732752
  0
LINE
  8
ボルト／ビス
  6
CONTINUOUS
 62
    64
 10
21.255915
 20
-59.968
 11
21.170762
 21
-59.732752
  0
LINE
  8
ボルト／ビス
  6
CONTINUOUS
 62
    64
 10
20.7633
 20
-59.880235
 11
20.84845
 21
-60.115482
  0
LINE
  8
ボルト／ビス
  6
CONTINUOUS
 62
    64
 10
21.09476
 20
-60.159368
 11
20.84845
 21
-60.115482
  0
LINE
  8
ボルト／ビス
  6
CONTINUOUS
 62
    64
 10
20.924453
 20
-59.688868
 11
20.7633
 21
-59.880235
  0
LINE
  8
ボルト／ビス
  6
CONTINUOUS
 62
    64
 10
21.255915
 20
-59.968
 11
21.09476
 21
-60.159368
  0
CIRCLE
  8
ボルト／ビス
  6
CONTINUOUS
 62
    64
 10
21.009605
 20
-59.924118
 40
0.216668
  0
ENDBLK
  0
BLOCK
  2
*GRP_0023
 70
    65
 10
0.0
 20
0.0
  0
LINE
  8
補助線
  6
BYBLOCK
 62
    64
 10
21.07335
 20
-74.170488
 11
20.945865
 21
-74.277848
  0
LINE
  8
補助線
  6
BYBLOCK
 62
    64
 10
20.955927
 20
-74.160423
 11
21.063287
 21
-74.28791
  0
LINE
  8
補助線
  6
BYBLOCK
 62
    64
 10
29.563767
 20
-67.020465
 11
29.436283
 21
-67.12782
  0
LINE
  8
補助線
  6
BYBLOCK
 62
    64
 10
29.446345
 20
-67.0104
 11
29.553705
 21
-67.137882
  0
LINE
  8
補助線
  6
BYBLOCK
 62
    64
 10
37.926702
 20
-59.977795
 11
38.054185
 21
-59.870438
  0
LINE
  8
補助線
  6
BYBLOCK
 62
    64
 10
37.936763
 20
-59.860372
 11
38.044123
 21
-59.98786
  0
LINE
  8
型材断面
  6
CONTINUOUS
 10
20.217852
 20
-73.801465
 11
20.157475
 21
-74.50599
  0
LINE
  8
型材断面
  6
CONTINUOUS
 10
20.157475
 20
-74.50599
 11
20.586908
 21
-75.015925
  0
LINE
  8
型材断面
  6
CONTINUOUS
 10
20.586908
 20
-75.015925
 11
21.291432
 21
-75.076303
  0
LINE
  8
型材断面
  6
CONTINUOUS
 10
37.70862
 20
-59.071985
 11
38.413145
 21
-59.132362
  0
LINE
  8
型材断面
  6
CONTINUOUS
 10
38.413145
 20
-59.132362
 11
38.842577
 21
-59.642298
  0
LINE
  8
型材断面
  6
CONTINUOUS
 10
38.842577
 20
-59.642298
 11
38.7822
 21
-60.346822
  0
LINE
  8
型材断面
  6
CONTINUOUS
 10
20.217852
 20
-73.801465
 11
37.70862
 21
-59.071985
  0
LINE
  8
型材断面
  6
CONTINUOUS
 10
21.291432
 20
-75.076303
 11
38.7822
 21
-60.346822
  0
CIRCLE
  8
ボルト／ビス
  6
CONTINUOUS
 10
21.009607
 20
-74.224168
 40
0.250185
  0
CIRCLE
  8
ボルト／ビス
  6
CONTINUOUS
 10
21.009607
 20
-74.224168
 40
0.301025
  0
LINE
  8
ボルト／ビス
  6
CONTINUOUS
 62
    64
 10
20.7633
 20
-74.26805
 11
20.848452
 21
-74.032802
  0
LINE
  8
ボルト／ビス
  6
CONTINUOUS
 62
    64
 10
21.09476
 20
-73.988918
 11
20.848452
 21
-74.032802
  0
LINE
  8
ボルト／ビス
  6
CONTINUOUS
 62
    64
 10
20.924455
 20
-74.459418
 11
21.170762
 21
-74.415532
  0
LINE
  8
ボルト／ビス
  6
CONTINUOUS
 62
    64
 10
21.255915
 20
-74.180285
 11
21.170762
 21
-74.415532
  0
LINE
  8
ボルト／ビス
  6
CONTINUOUS
 62
    64
 10
20.7633
 20
-74.26805
 11
20.924455
 21
-74.459418
  0
LINE
  8
ボルト／ビス
  6
CONTINUOUS
 62
    64
 10
21.09476
 20
-73.988918
 11
21.255915
 21
-74.180285
  0
CIRCLE
  8
ボルト／ビス
  6
CONTINUOUS
 62
    64
 10
21.009607
 20
-74.224168
 40
0.216668
  0
CIRCLE
  8
ボルト／ビス
  6
CONTINUOUS
 10
29.500025
 20
-67.074143
 40
0.250185
  0
CIRCLE
  8
ボルト／ビス
  6
CONTINUOUS
 10
29.500025
 20
-67.074143
 40
0.301025
  0
LINE
  8
ボルト／ビス
  6
CONTINUOUS
 62
    64
 10
29.253717
 20
-67.118025
 11
29.33887
 21
-66.882775
  0
LINE
  8
ボルト／ビス
  6
CONTINUOUS
 62
    64
 10
29.585177
 20
-66.838893
 11
29.33887
 21
-66.882775
  0
LINE
  8
ボルト／ビス
  6
CONTINUOUS
 62
    64
 10
29.414872
 20
-67.309393
 11
29.661182
 21
-67.26551
  0
LINE
  8
ボルト／ビス
  6
CONTINUOUS
 62
    64
 10
29.746333
 20
-67.030263
 11
29.661182
 21
-67.26551
  0
LINE
  8
ボルト／ビス
  6
CONTINUOUS
 62
    64
 10
29.253717
 20
-67.118025
 11
29.414872
 21
-67.309393
  0
LINE
  8
ボルト／ビス
  6
CONTINUOUS
 62
    64
 10
29.585177
 20
-66.838893
 11
29.746333
 21
-67.030263
  0
CIRCLE
  8
ボルト／ビス
  6
CONTINUOUS
 62
    64
 10
29.500025
 20
-67.074143
 40
0.216668
  0
CIRCLE
  8
ボルト／ビス
  6
CONTINUOUS
 10
37.990445
 20
-59.924118
 40
0.250185
  0
CIRCLE
  8
ボルト／ビス
  6
CONTINUOUS
 10
37.990445
 20
-59.924118
 40
0.301025
  0
LINE
  8
ボルト／ビス
  6
CONTINUOUS
 62
    64
 10
38.075598
 20
-59.688868
 11
37.829287
 21
-59.732752
  0
LINE
  8
ボルト／ビス
  6
CONTINUOUS
 62
    64
 10
37.744135
 20
-59.968
 11
37.829287
 21
-59.732752
  0
LINE
  8
ボルト／ビス
  6
CONTINUOUS
 62
    64
 10
38.23675
 20
-59.880235
 11
38.1516
 21
-60.115482
  0
LINE
  8
ボルト／ビス
  6
CONTINUOUS
 62
    64
 10
37.90529
 20
-60.159368
 11
38.1516
 21
-60.115482
  0
LINE
  8
ボルト／ビス
  6
CONTINUOUS
 62
    64
 10
38.075598
 20
-59.688868
 11
38.23675
 21
-59.880235
  0
LINE
  8
ボルト／ビス
  6
CONTINUOUS
 62
    64
 10
37.744135
 20
-59.968
 11
37.90529
 21
-60.159368
  0
CIRCLE
  8
ボルト／ビス
  6
CONTINUOUS
 62
    64
 10
37.990445
 20
-59.924118
 40
0.216668
  0
ENDBLK
  0
BLOCK
  2
*DIM_0024
 70
    65
 10
0.0
 20
0.0
  0
LINE
  8
寸法
  6
CONTINUOUS
 10
71.225683
 20
-68.572975
 11
71.225683
 21
-76.223025
  0
POINT
  8
寸法
 10
71.225683
 20
-68.572975
  0
POINT
  8
寸法
 10
71.225683
 20
-76.223025
  0
TEXT
  7
TextStyle03
  8
寸法
  6
CONTINUOUS
 10
75.525
 20
-76.85
  1
229.5
 40
3.0
 50
90.0
 72
     5
 11
75.525
 21
-68.6
  0
ENDBLK
  0
BLOCK
  2
*DIM_0025
 70
    65
 10
0.0
 20
0.0
  0
LINE
  8
寸法
  6
CONTINUOUS
 10
153.076993
 20
-46.359635
 11
116.616993
 21
-46.359635
  0
POINT
  8
寸法
 10
153.076993
 20
-46.359635
  0
POINT
  8
寸法
 10
116.616993
 20
-46.359635
  0
TEXT
  7
TextStyle03
  8
寸法
  6
CONTINUOUS
 10
129.85625
 20
-46.0
  1
1093.8
 40
3.0
 72
     5
 11
139.79375
 21
-46.0
  0
ENDBLK
  0
BLOCK
  2
*DIM_0026
 70
    65
 10
0.0
 20
0.0
  0
LINE
  8
寸法
  6
BYBLOCK
 62
     0
 10
71.225683
 20
-56.906308
 11
71.225683
 21
-68.572975
  0
POINT
  8
寸法
 62
     0
 10
71.225683
 20
-56.906308
  0
POINT
  8
寸法
 62
     0
 10
71.225683
 20
-68.572975
  0
TEXT
  7
TextStyle03
  8
寸法
  6
CONTINUOUS
 62
     0
 10
70.75
 20
-54.01875
  1
上昇312以上
 40
3.0
 50
90.0
 72
     5
 11
70.75
 21
-35.83125
  0
ENDBLK
  0
ENDSEC
  0
SECTION
  2
ENTITIES
  0
POLYLINE
  8
通り芯
  6
CONTINUOUS
 66
     1
 70
     1
  0
VERTEX
  8
通り芯
 10
-210.0
 20
-148.5
  0
VERTEX
  8
通り芯
 10
210.0
 20
-148.5
  0
VERTEX
  8
通り芯
 10
210.0
 20
148.5
  0
VERTEX
  8
通り芯
 10
-210.0
 20
148.5
  0
SEQEND
  0
INSERT
  2
*GRP_0001
  8
型材断面
  6
CONTINUOUS
 10
0.0
 20
0.0
  0
LINE
  8
型材断面
  6
DASHDOT
 10
57.990438
 20
-77.836442
 11
57.990438
 21
52.814033
  0
LINE
  8
型材断面
  6
DASHDOT
 10
-17.009562
 20
-77.836442
 11
-17.009562
 21
52.814033
  0
LINE
  8
型材断面
  6
DASHDOT
 10
-92.009562
 20
-77.836442
 11
-92.009562
 21
52.814033
  0
POLYLINE
  8
型材断面
  6
CONTINUOUS
 66
     1
 70
     1
  0
VERTEX
  8
型材断面
 10
-7.508612
 20
13.03811
  0
VERTEX
  8
型材断面
 10
-26.280542
 20
13.03811
  0
VERTEX
  8
型材断面
 10
-26.280542
 20
8.301267
  0
VERTEX
  8
型材断面
 10
-7.508612
 20
8.301267
  0
SEQEND
  0
POLYLINE
  8
型材断面
  6
CONTINUOUS
 66
     1
 70
     1
  0
VERTEX
  8
型材断面
 10
-7.508612
 20
62.589955
  0
VERTEX
  8
型材断面
 10
-26.280542
 20
62.589955
  0
VERTEX
  8
型材断面
 10
-26.280542
 20
67.326798
  0
VERTEX
  8
型材断面
 10
-7.508612
 20
67.326798
  0
SEQEND
  0
LINE
  8
型材断面
  6
DASHDOT
 10
155.6672
 20
52.814033
 11
-92.009562
 21
52.814033
  0
LINE
  8
型材断面
  6
DASHDOT
 10
155.6672
 20
37.814033
 11
-92.009562
 21
37.814033
  0
LINE
  8
型材断面
  6
DASHDOT
 10
155.6672
 20
22.814033
 11
-92.009562
 21
22.814033
  0
LINE
  8
型材断面
  6
DASHDOT
 10
-17.009562
 20
22.814033
 11
-17.009562
 21
52.814033
  0
LINE
  8
型材断面
  6
CONTINUOUS
 10
-75.342895
 20
55.444162
 11
-76.838525
 21
58.03467
  0
LINE
  8
型材断面
  6
CONTINUOUS
 10
-75.342895
 20
55.444162
 11
-73.847265
 21
58.03467
  0
LINE
  8
型材断面
  6
CONTINUOUS
 10
-73.847265
 20
58.03467
 11
-76.838525
 21
58.03467
  0
LINE
  8
型材断面
  6
CONTINUOUS
 10
-132.86177
 20
90.791505
 11
-132.265715
 21
88.200998
  0
LINE
  8
型材断面
  6
CONTINUOUS
 10
-132.86177
 20
90.791505
 11
-133.457827
 21
88.200998
  0
LINE
  8
型材断面
  6
CONTINUOUS
 10
-133.457827
 20
88.200998
 11
-132.265715
 21
88.200998
  0
LINE
  8
型材断面
  6
CONTINUOUS
 10
-138.884357
 20
84.922105
 11
-92.64258
 21
84.922105
  0
LINE
  8
型材断面
  6
CONTINUOUS
 10
-132.86177
 20
97.32138
 11
-134.3574
 21
94.730873
  0
LINE
  8
型材断面
  6
CONTINUOUS
 10
-132.86177
 20
97.32138
 11
-131.36614
 21
94.730873
  0
LINE
  8
型材断面
  6
CONTINUOUS
 10
-131.36614
 20
94.730873
 11
-134.3574
 21
94.730873
  0
LINE
  8
型材断面
  6
CONTINUOUS
 10
-138.884357
 20
93.792277
 11
-92.64258
 21
93.792277
  0
LINE
  8
型材断面
  6
CONTINUOUS
 10
-138.884357
 20
79.134073
 11
-92.64258
 21
79.134073
  0
LINE
  8
型材断面
  6
CONTINUOUS
 10
-94.639692
 20
37.814033
 11
-97.2302
 21
39.309663
  0
LINE
  8
型材断面
  6
CONTINUOUS
 10
-94.639692
 20
37.814033
 11
-97.2302
 21
36.318403
  0
LINE
  8
型材断面
  6
CONTINUOUS
 10
-97.2302
 20
36.318403
 11
-97.2302
 21
39.309663
  0
LINE
  8
型材断面
  6
CONTINUOUS
 10
-75.342895
 20
20.183902
 11
-76.838525
 21
17.593395
  0
LINE
  8
型材断面
  6
CONTINUOUS
 10
-75.342895
 20
20.183902
 11
-73.847265
 21
17.593395
  0
LINE
  8
型材断面
  6
CONTINUOUS
 10
-73.847265
 20
17.593395
 11
-76.838525
 21
17.593395
  0
LINE
  8
型材断面
  6
CONTINUOUS
 10
41.32377
 20
55.444162
 11
42.8194
 21
58.03467
  0
LINE
  8
型材断面
  6
CONTINUOUS
 10
41.32377
 20
55.444162
 11
39.82814
 21
58.03467
  0
LINE
  8
型材断面
  6
CONTINUOUS
 10
39.82814
 20
58.03467
 11
42.8194
 21
58.03467
  0
LINE
  8
型材断面
  6
CONTINUOUS
 10
60.620567
 20
37.814033
 11
63.211075
 21
39.309663
  0
LINE
  8
型材断面
  6
CONTINUOUS
 10
60.620567
 20
37.814033
 11
63.211075
 21
36.318403
  0
LINE
  8
型材断面
  6
CONTINUOUS
 10
63.211075
 20
36.318403
 11
63.211075
 21
39.309663
  0
LINE
  8
型材断面
  6
CONTINUOUS
 10
41.32377
 20
20.183902
 11
42.8194
 21
17.593395
  0
LINE
  8
型材断面
  6
CONTINUOUS
 10
41.32377
 20
20.183902
 11
39.82814
 21
17.593395
  0
LINE
  8
型材断面
  6
CONTINUOUS
 10
39.82814
 20
17.593395
 11
42.8194
 21
17.593395
  0
LINE
  8
型材断面
  6
CONTINUOUS
 10
-17.009562
 20
55.44416
 11
-15.513933
 21
58.034668
  0
LINE
  8
型材断面
  6
CONTINUOUS
 10
-17.009562
 20
55.44416
 11
-18.505192
 21
58.034668
  0
LINE
  8
型材断面
  6
CONTINUOUS
 10
-18.505192
 20
58.034668
 11
-15.513933
 21
58.034668
  0
LINE
  8
型材断面
  6
CONTINUOUS
 10
-17.009562
 20
20.1839
 11
-15.513933
 21
17.593392
  0
LINE
  8
型材断面
  6
CONTINUOUS
 10
-17.009562
 20
20.1839
 11
-18.505192
 21
17.593392
  0
LINE
  8
型材断面
  6
CONTINUOUS
 10
-18.505192
 20
17.593392
 11
-15.513933
 21
17.593392
  0
LINE
  8
型材断面
  6
CONTINUOUS
 10
60.620567
 20
49.114035
 11
63.211077
 21
48.517982
  0
LINE
  8
型材断面
  6
CONTINUOUS
 10
60.620567
 20
49.114035
 11
63.211075
 21
49.710095
  0
LINE
  8
型材断面
  6
CONTINUOUS
 10
63.211075
 20
49.710095
 11
63.211077
 21
48.517982
  0
LINE
  8
型材断面
  6
CONTINUOUS
 10
60.620567
 20
26.51403
 11
63.211077
 21
27.110082
  0
LINE
  8
型材断面
  6
CONTINUOUS
 10
60.620567
 20
26.51403
 11
63.211075
 21
25.91797
  0
LINE
  8
型材断面
  6
CONTINUOUS
 10
63.211075
 20
25.91797
 11
63.211077
 21
27.110082
  0
LINE
  8
型材断面
  6
CONTINUOUS
 10
-94.639692
 20
49.114035
 11
-97.230202
 21
48.517982
  0
LINE
  8
型材断面
  6
CONTINUOUS
 10
-94.639692
 20
49.114035
 11
-97.2302
 21
49.710095
  0
LINE
  8
型材断面
  6
CONTINUOUS
 10
-97.2302
 20
49.710095
 11
-97.230202
 21
48.517982
  0
LINE
  8
型材断面
  6
CONTINUOUS
 10
-94.639692
 20
26.51403
 11
-97.230202
 21
27.110082
  0
LINE
  8
型材断面
  6
CONTINUOUS
 10
-94.639692
 20
26.51403
 11
-97.2302
 21
25.91797
  0
LINE
  8
型材断面
  6
CONTINUOUS
 10
-97.2302
 20
25.91797
 11
-97.230202
 21
27.110082
  0
LINE
  8
型材断面
  6
CONTINUOUS
 10
-93.992748
 20
20.830853
 11
-17.009562
 21
20.830853
  0
LINE
  8
型材断面
  6
CONTINUOUS
 10
-93.992748
 20
54.797213
 11
-17.009562
 21
54.797213
  0
LINE
  8
型材断面
  6
CONTINUOUS
 10
59.973623
 20
54.797213
 11
-17.009562
 21
54.797213
  0
LINE
  8
型材断面
  6
CONTINUOUS
 10
59.973623
 20
20.830853
 11
-17.009562
 21
20.830853
  0
LINE
  8
型材断面
  6
CONTINUOUS
 10
-138.884357
 20
73.34604
 11
-92.64258
 21
73.34604
  0
ARC
  8
型材断面
  6
CONTINUOUS
 62
    47
 10
149.997566
 20
20.830698
 40
0.016668
 50
179.999123
 51
270.0
  0
ARC
  8
型材断面
  6
CONTINUOUS
 62
    47
 10
150.037568
 20
20.824032
 40
0.010002
 50
270.0
 51
359.791626
  0
LINE
  8
型材断面
  6
CONTINUOUS
 62
    47
 10
150.214287
 20
20.864035
 11
150.214287
 21
21.714183
  0
LINE
  8
型材断面
  6
CONTINUOUS
 62
    47
 10
149.9809
 20
20.830697
 11
147.87424
 21
20.830697
  0
LINE
  8
型材断面
  6
CONTINUOUS
 62
    47
 10
150.214287
 20
20.830703
 11
153.530955
 21
20.830703
  0
LINE
  8
型材断面
  6
CONTINUOUS
 62
    47
 10
154.030955
 20
21.330703
 11
153.530955
 21
21.330703
  0
LINE
  8
型材断面
  6
CONTINUOUS
 62
    47
 10
147.87424
 20
21.714038
 11
147.54757
 21
21.714038
  0
LINE
  8
型材断面
  6
CONTINUOUS
 62
    47
 10
149.997565
 20
20.814035
 11
150.037225
 21
20.814035
  0
ARC
  8
型材断面
  6
CONTINUOUS
 62
    47
 10
149.997566
 20
54.79737
 40
0.016668
 50
90.0
 51
180.000877
  0
ARC
  8
型材断面
  6
CONTINUOUS
 62
    47
 10
150.037568
 20
54.804036
 40
0.010002
 50
0.208374
 51
90.0
  0
LINE
  8
型材断面
  6
CONTINUOUS
 62
    47
 10
150.214287
 20
54.764033
 11
150.214287
 21
53.913885
  0
LINE
  8
型材断面
  6
CONTINUOUS
 62
    47
 10
149.9809
 20
54.79737
 11
147.87424
 21
54.79737
  0
LINE
  8
型材断面
  6
CONTINUOUS
 62
    47
 10
150.214287
 20
54.797365
 11
153.530955
 21
54.797365
  0
LINE
  8
型材断面
  6
CONTINUOUS
 62
    47
 10
154.030955
 20
54.297365
 11
153.530955
 21
54.297365
  0
LINE
  8
型材断面
  6
CONTINUOUS
 62
    47
 10
147.87424
 20
53.91403
 11
147.54757
 21
53.91403
  0
LINE
  8
型材断面
  6
CONTINUOUS
 62
    47
 10
149.997565
 20
54.814033
 11
150.037225
 21
54.814033
  0
LINE
  8
型材断面
  6
CONTINUOUS
 10
145.880905
 20
54.214033
 11
145.880905
 21
37.814033
  0
LINE
  8
型材断面
  6
CONTINUOUS
 10
146.04757
 20
54.370552
 11
146.04757
 21
37.814033
  0
LINE
  8
型材断面
  6
CONTINUOUS
 10
147.54757
 20
54.214033
 11
147.54757
 21
37.814033
  0
LINE
  8
型材断面
  6
CONTINUOUS
 10
147.87424
 20
54.79737
 11
147.87424
 21
37.814033
  0
LINE
  8
型材断面
  6
CONTINUOUS
 10
150.04757
 20
54.804035
 11
150.04757
 21
37.814033
  0
LINE
  8
型材断面
  6
CONTINUOUS
 10
150.214287
 20
54.797365
 11
150.214287
 21
37.814033
  0
LINE
  8
型材断面
  6
CONTINUOUS
 10
153.530955
 20
54.797365
 11
153.530955
 21
37.814033
  0
LINE
  8
型材断面
  6
CONTINUOUS
 10
154.030955
 20
54.297365
 11
154.030955
 21
37.814033
  0
LINE
  8
型材断面
  6
CONTINUOUS
 10
154.030955
 20
21.330703
 11
154.030955
 21
37.814033
  0
LINE
  8
型材断面
  6
CONTINUOUS
 10
153.530955
 20
20.830703
 11
153.530955
 21
37.814033
  0
LINE
  8
型材断面
  6
CONTINUOUS
 10
150.04757
 20
20.824033
 11
150.04757
 21
37.814033
  0
LINE
  8
型材断面
  6
CONTINUOUS
 10
150.214287
 20
20.830703
 11
150.214287
 21
37.814033
  0
LINE
  8
型材断面
  6
CONTINUOUS
 10
147.87424
 20
20.830697
 11
147.87424
 21
37.814033
  0
LINE
  8
型材断面
  6
CONTINUOUS
 10
147.54757
 20
21.414035
 11
147.54757
 21
37.814033
  0
LINE
  8
型材断面
  6
CONTINUOUS
 10
146.04757
 20
21.257512
 11
146.04757
 21
37.814033
  0
LINE
  8
型材断面
  6
CONTINUOUS
 10
145.880905
 20
21.414035
 11
145.880905
 21
37.814033
  0
ARC
  8
型材断面
  6
CONTINUOUS
 62
    47
 10
-93.992901
 20
-72.689637
 40
0.016668
 50
89.999123
 51
180.0
  0
ARC
  8
型材断面
  6
CONTINUOUS
 62
    47
 10
-93.999567
 20
-72.729639
 40
0.010002
 50
180.0
 51
269.791626
  0
LINE
  8
型材断面
  6
CONTINUOUS
 62
    47
 10
-93.959562
 20
-72.906358
 11
-93.109415
 21
-72.906358
  0
LINE
  8
型材断面
  6
CONTINUOUS
 62
    47
 10
-93.9929
 20
-72.67297
 11
-93.9929
 21
-70.56631
  0
LINE
  8
型材断面
  6
CONTINUOUS
 62
    47
 10
-93.992895
 20
-72.906358
 11
-93.992895
 21
-76.223025
  0
LINE
  8
型材断面
  6
CONTINUOUS
 62
    47
 10
-93.492895
 20
-76.723025
 11
-93.492895
 21
-76.223025
  0
LINE
  8
型材断面
  6
CONTINUOUS
 62
    47
 10
-93.10956
 20
-70.56631
 11
-93.10956
 21
-70.23964
  0
LINE
  8
型材断面
  6
CONTINUOUS
 62
    47
 10
-94.009562
 20
-72.689635
 11
-94.009562
 21
-72.729295
  0
ARC
  8
型材断面
  6
CONTINUOUS
 62
    47
 10
59.973771
 20
-72.689637
 40
0.016668
 50
0.0
 51
90.000877
  0
ARC
  8
型材断面
  6
CONTINUOUS
 62
    47
 10
59.980437
 20
-72.729639
 40
0.010002
 50
270.208374
 51
360.0
  0
LINE
  8
型材断面
  6
CONTINUOUS
 62
    47
 10
59.940435
 20
-72.906358
 11
59.090287
 21
-72.906358
  0
LINE
  8
型材断面
  6
CONTINUOUS
 62
    47
 10
59.973773
 20
-72.67297
 11
59.973773
 21
-70.56631
  0
LINE
  8
型材断面
  6
CONTINUOUS
 62
    47
 10
59.973768
 20
-72.906358
 11
59.973768
 21
-76.223025
  0
LINE
  8
型材断面
  6
CONTINUOUS
 62
    47
 10
59.473768
 20
-76.723025
 11
59.473768
 21
-76.223025
  0
LINE
  8
型材断面
  6
CONTINUOUS
 62
    47
 10
59.090432
 20
-70.56631
 11
59.090432
 21
-70.23964
  0
LINE
  8
型材断面
  6
CONTINUOUS
 62
    47
 10
59.990435
 20
-72.689635
 11
59.990435
 21
-72.729295
  0
LINE
  8
型材断面
  6
CONTINUOUS
 10
-93.566082
 20
-68.73964
 11
-17.009562
 21
-68.73964
  0
LINE
  8
型材断面
  6
CONTINUOUS
 10
-93.409562
 20
-68.572975
 11
-17.009562
 21
-68.572975
  0
LINE
  8
型材断面
  6
CONTINUOUS
 10
-93.409562
 20
-70.23964
 11
-17.009562
 21
-70.23964
  0
LINE
  8
型材断面
  6
CONTINUOUS
 10
-93.9929
 20
-70.56631
 11
-17.009562
 21
-70.56631
  0
LINE
  8
型材断面
  6
CONTINUOUS
 10
-93.992895
 20
-72.906358
 11
-17.009562
 21
-72.906358
  0
LINE
  8
型材断面
  6
CONTINUOUS
 10
-93.999565
 20
-72.73964
 11
-17.009562
 21
-72.73964
  0
LINE
  8
型材断面
  6
CONTINUOUS
 10
-93.492895
 20
-76.723025
 11
-17.009562
 21
-76.723025
  0
LINE
  8
型材断面
  6
CONTINUOUS
 10
-93.992895
 20
-76.223025
 11
-17.009562
 21
-76.223025
  0
LINE
  8
型材断面
  6
CONTINUOUS
 10
59.473768
 20
-76.723025
 11
-17.009562
 21
-76.723025
  0
LINE
  8
型材断面
  6
CONTINUOUS
 10
59.973768
 20
-76.223025
 11
-17.009562
 21
-76.223025
  0
LINE
  8
型材断面
  6
CONTINUOUS
 10
59.980437
 20
-72.73964
 11
-17.009562
 21
-72.73964
  0
LINE
  8
型材断面
  6
CONTINUOUS
 10
59.973768
 20
-72.906358
 11
-17.009562
 21
-72.906358
  0
LINE
  8
型材断面
  6
CONTINUOUS
 10
59.973773
 20
-70.56631
 11
-17.009562
 21
-70.56631
  0
LINE
  8
型材断面
  6
CONTINUOUS
 10
59.546957
 20
-68.73964
 11
-17.009562
 21
-68.73964
  0
LINE
  8
型材断面
  6
CONTINUOUS
 10
59.390435
 20
-70.23964
 11
-17.009562
 21
-70.23964
  0
LINE
  8
型材断面
  6
CONTINUOUS
 10
59.390435
 20
-68.572975
 11
-17.009562
 21
-68.572975
  0
ARC
  8
型材断面
  6
DOT
 62
    47
 10
-93.992901
 20
-61.02297
 40
0.016668
 50
89.999123
 51
180.0
  0
ARC
  8
型材断面
  6
DOT
 62
    47
 10
-93.999567
 20
-61.062972
 40
0.010002
 50
180.0
 51
269.791626
  0
LINE
  8
型材断面
  6
DOT
 62
    47
 10
-93.9929
 20
-61.006303
 11
-93.9929
 21
-58.899643
  0
LINE
  8
型材断面
  6
DOT
 62
    47
 10
-93.10956
 20
-58.899643
 11
-93.10956
 21
-58.572973
  0
LINE
  8
型材断面
  6
DOT
 62
    47
 10
-94.009562
 20
-61.022967
 11
-94.009562
 21
-61.062627
  0
ARC
  8
型材断面
  6
DOT
 62
    47
 10
59.973771
 20
-61.02297
 40
0.016668
 50
0.0
 51
90.000877
  0
ARC
  8
型材断面
  6
DOT
 62
    47
 10
59.980437
 20
-61.062972
 40
0.010002
 50
270.208374
 51
360.0
  0
LINE
  8
型材断面
  6
DOT
 62
    47
 10
59.973773
 20
-61.006303
 11
59.973773
 21
-58.899643
  0
LINE
  8
型材断面
  6
DOT
 62
    47
 10
59.090432
 20
-58.899643
 11
59.090432
 21
-58.572973
  0
LINE
  8
型材断面
  6
DOT
 62
    47
 10
59.990435
 20
-61.022967
 11
59.990435
 21
-61.062627
  0
LINE
  8
型材断面
  6
DOT
 10
-93.409562
 20
-56.906308
 11
-17.009562
 21
-56.906308
  0
LINE
  8
型材断面
  6
DOT
 10
-93.566082
 20
-57.072973
 11
-17.009562
 21
-57.072973
  0
LINE
  8
型材断面
  6
DOT
 10
-93.9929
 20
-58.899643
 11
-17.009562
 21
-58.899643
  0
LINE
  8
型材断面
  6
DOT
 10
-93.409562
 20
-58.572973
 11
-17.009562
 21
-58.572973
  0
LINE
  8
型材断面
  6
DOT
 10
-93.999565
 20
-61.072973
 11
-17.009562
 21
-61.072973
  0
LINE
  8
型材断面
  6
DOT
 10
59.980437
 20
-61.072973
 11
-17.009562
 21
-61.072973
  0
LINE
  8
型材断面
  6
DOT
 10
59.973773
 20
-58.899643
 11
-17.009562
 21
-58.899643
  0
LINE
  8
型材断面
  6
DOT
 10
59.390435
 20
-58.572973
 11
-17.009562
 21
-58.572973
  0
LINE
  8
型材断面
  6
DOT
 10
59.390435
 20
-56.906308
 11
-17.009562
 21
-56.906308
  0
LINE
  8
型材断面
  6
DOT
 10
59.546957
 20
-57.072973
 11
-17.009562
 21
-57.072973
  0
INSERT
  2
*GRP_0020
  8
型材断面
  6
CONTINUOUS
 10
0.0
 20
0.0
  0
INSERT
  2
*GRP_0021
  8
型材断面
  6
CONTINUOUS
 10
0.0
 20
0.0
  0
INSERT
  2
*GRP_0022
  8
型材断面
  6
CONTINUOUS
 10
0.0
 20
0.0
  0
INSERT
  2
*GRP_0023
  8
型材断面
  6
CONTINUOUS
 10
0.0
 20
0.0
  0
LINE
  8
型材断面
  6
DASHDOT
 10
-54.634562
 20
22.814033
 11
-54.634562
 21
52.814033
  0
LINE
  8
型材断面
  6
DASHDOT
 10
20.615438
 20
22.814033
 11
20.615438
 21
52.814033
  0
LINE
  8
型材断面
  6
CONTINUOUS
 10
39.719605
 20
23.757512
 11
39.719605
 21
21.257512
  0
LINE
  8
型材断面
  6
CONTINUOUS
 10
38.88627
 20
23.757512
 11
38.88627
 21
21.257512
  0
LINE
  8
型材断面
  6
CONTINUOUS
 10
2.219605
 20
23.757512
 11
2.219605
 21
21.257512
  0
LINE
  8
型材断面
  6
CONTINUOUS
 10
1.38627
 20
23.757512
 11
1.38627
 21
21.257512
  0
LINE
  8
型材断面
  6
CONTINUOUS
 10
-73.73873
 20
23.757512
 11
-73.73873
 21
21.257512
  0
LINE
  8
型材断面
  6
CONTINUOUS
 10
-72.905395
 20
23.757512
 11
-72.905395
 21
21.257512
  0
LINE
  8
型材断面
  6
CONTINUOUS
 10
-36.23873
 20
23.757512
 11
-36.23873
 21
21.257512
  0
LINE
  8
型材断面
  6
CONTINUOUS
 10
-35.405395
 20
23.757512
 11
-35.405395
 21
21.257512
  0
LINE
  8
型材断面
  6
CONTINUOUS
 10
39.719605
 20
51.870552
 11
39.719605
 21
54.370552
  0
LINE
  8
型材断面
  6
CONTINUOUS
 10
38.88627
 20
51.870552
 11
38.88627
 21
54.370552
  0
LINE
  8
型材断面
  6
CONTINUOUS
 10
2.219605
 20
51.870552
 11
2.219605
 21
54.370552
  0
LINE
  8
型材断面
  6
CONTINUOUS
 10
1.38627
 20
51.870552
 11
1.38627
 21
54.370552
  0
LINE
  8
型材断面
  6
CONTINUOUS
 10
-73.73873
 20
51.870552
 11
-73.73873
 21
54.370552
  0
LINE
  8
型材断面
  6
CONTINUOUS
 10
-72.905395
 20
51.870552
 11
-72.905395
 21
54.370552
  0
LINE
  8
型材断面
  6
CONTINUOUS
 10
-36.23873
 20
51.870552
 11
-36.23873
 21
54.370552
  0
LINE
  8
型材断面
  6
CONTINUOUS
 10
-35.405395
 20
51.870552
 11
-35.405395
 21
54.370552
  0
LINE
  8
型材断面
  6
CONTINUOUS
 10
2.219605
 20
51.870552
 11
38.88627
 21
51.870552
  0
LINE
  8
型材断面
  6
CONTINUOUS
 10
2.219605
 20
23.757512
 11
38.88627
 21
23.757512
  0
LINE
  8
型材断面
  6
CONTINUOUS
 10
-35.405395
 20
23.757512
 11
1.38627
 21
23.757512
  0
LINE
  8
型材断面
  6
CONTINUOUS
 10
-35.405395
 20
51.870552
 11
1.38627
 21
51.870552
  0
LINE
  8
型材断面
  6
CONTINUOUS
 10
-72.905395
 20
51.870552
 11
-36.23873
 21
51.870552
  0
LINE
  8
型材断面
  6
CONTINUOUS
 10
-72.905395
 20
23.757512
 11
-36.23873
 21
23.757512
  0
LINE
  8
型材断面
  6
CONTINUOUS
 10
21.865438
 20
24.590845
 11
19.365438
 21
24.590845
  0
LINE
  8
型材断面
  6
CONTINUOUS
 10
21.865438
 20
51.03722
 11
19.365438
 21
51.03722
  0
LINE
  8
型材断面
  6
CONTINUOUS
 10
21.865438
 20
24.590845
 11
21.865438
 21
51.03722
  0
LINE
  8
型材断面
  6
CONTINUOUS
 10
19.365438
 20
24.590845
 11
19.365438
 21
51.03722
  0
LINE
  8
型材断面
  6
CONTINUOUS
 10
-15.759562
 20
24.590845
 11
-18.259562
 21
24.590845
  0
LINE
  8
型材断面
  6
CONTINUOUS
 10
-15.759562
 20
51.03722
 11
-18.259562
 21
51.03722
  0
LINE
  8
型材断面
  6
CONTINUOUS
 10
-15.759562
 20
24.590845
 11
-15.759562
 21
51.03722
  0
LINE
  8
型材断面
  6
CONTINUOUS
 10
-18.259562
 20
24.590845
 11
-18.259562
 21
51.03722
  0
LINE
  8
型材断面
  6
CONTINUOUS
 10
-55.884562
 20
24.590845
 11
-53.384562
 21
24.590845
  0
LINE
  8
型材断面
  6
CONTINUOUS
 10
-55.884562
 20
51.03722
 11
-53.384562
 21
51.03722
  0
LINE
  8
型材断面
  6
CONTINUOUS
 10
-55.884562
 20
24.590845
 11
-55.884562
 21
51.03722
  0
LINE
  8
型材断面
  6
CONTINUOUS
 10
-53.384562
 20
24.590845
 11
-53.384562
 21
51.03722
  0
LINE
  8
型材断面
  6
CONTINUOUS
 10
59.973623
 20
54.797213
 11
59.973623
 21
37.814033
  0
LINE
  8
型材断面
  6
CONTINUOUS
 10
59.973623
 20
20.830853
 11
59.973623
 21
37.814033
  0
LINE
  8
型材断面
  6
CONTINUOUS
 10
59.546957
 20
37.397365
 11
57.046957
 21
37.397365
  0
LINE
  8
型材断面
  6
CONTINUOUS
 10
59.546957
 20
38.2307
 11
57.046957
 21
38.2307
  0
LINE
  8
型材断面
  6
CONTINUOUS
 10
59.31126
 20
21.25751
 11
59.546957
 21
21.493217
  0
LINE
  8
型材断面
  6
CONTINUOUS
 10
59.973623
 20
20.830853
 11
59.42911
 21
21.375365
  0
LINE
  8
型材断面
  6
CONTINUOUS
 10
57.046957
 20
37.397365
 11
57.046957
 21
23.993212
  0
LINE
  8
型材断面
  6
CONTINUOUS
 10
57.046957
 20
23.993212
 11
56.811257
 21
23.757512
  0
LINE
  8
型材断面
  6
CONTINUOUS
 10
56.811255
 20
23.75751
 11
59.311257
 21
21.257512
  0
LINE
  8
型材断面
  6
CONTINUOUS
 10
57.046957
 20
23.993212
 11
59.546957
 21
21.493217
  0
LINE
  8
型材断面
  6
CONTINUOUS
 10
59.31126
 20
54.370555
 11
59.546957
 21
54.134848
  0
LINE
  8
型材断面
  6
CONTINUOUS
 10
59.973623
 20
54.797213
 11
59.42911
 21
54.2527
  0
LINE
  8
型材断面
  6
CONTINUOUS
 10
57.046957
 20
51.634852
 11
59.546957
 21
54.134848
  0
LINE
  8
型材断面
  6
CONTINUOUS
 10
59.546957
 20
21.493217
 11
59.546957
 21
54.134848
  0
LINE
  8
型材断面
  6
CONTINUOUS
 10
56.811255
 20
51.870555
 11
59.311257
 21
54.370552
  0
LINE
  8
型材断面
  6
CONTINUOUS
 10
57.046957
 20
38.2307
 11
57.046957
 21
51.634852
  0
LINE
  8
型材断面
  6
CONTINUOUS
 10
57.046957
 20
51.634852
 11
56.811257
 21
51.870552
  0
LINE
  8
型材断面
  6
CONTINUOUS
 10
-93.992748
 20
54.797213
 11
-93.992748
 21
37.814033
  0
LINE
  8
型材断面
  6
CONTINUOUS
 10
-93.992748
 20
20.830853
 11
-93.992748
 21
37.814033
  0
LINE
  8
型材断面
  6
CONTINUOUS
 10
-93.566082
 20
37.397365
 11
-91.066082
 21
37.397365
  0
LINE
  8
型材断面
  6
CONTINUOUS
 10
-93.566082
 20
38.2307
 11
-91.066082
 21
38.2307
  0
LINE
  8
型材断面
  6
CONTINUOUS
 10
-93.330385
 20
21.25751
 11
-93.566082
 21
21.493217
  0
LINE
  8
型材断面
  6
CONTINUOUS
 10
-93.992748
 20
20.830853
 11
-93.448235
 21
21.375365
  0
LINE
  8
型材断面
  6
CONTINUOUS
 10
-91.066082
 20
37.397365
 11
-91.066082
 21
23.993212
  0
LINE
  8
型材断面
  6
CONTINUOUS
 10
-91.066082
 20
23.993212
 11
-90.830382
 21
23.757512
  0
LINE
  8
型材断面
  6
CONTINUOUS
 10
-90.83038
 20
23.75751
 11
-93.330382
 21
21.257512
  0
LINE
  8
型材断面
  6
CONTINUOUS
 10
-91.066082
 20
23.993212
 11
-93.566082
 21
21.493217
  0
LINE
  8
型材断面
  6
CONTINUOUS
 10
-93.330385
 20
54.370555
 11
-93.566082
 21
54.134848
  0
LINE
  8
型材断面
  6
CONTINUOUS
 10
-93.992748
 20
54.797213
 11
-93.448235
 21
54.2527
  0
LINE
  8
型材断面
  6
CONTINUOUS
 10
-91.066082
 20
51.634852
 11
-93.566082
 21
54.134848
  0
LINE
  8
型材断面
  6
CONTINUOUS
 10
-93.566082
 20
21.493217
 11
-93.566082
 21
54.134848
  0
LINE
  8
型材断面
  6
CONTINUOUS
 10
-90.83038
 20
51.870555
 11
-93.330382
 21
54.370552
  0
LINE
  8
型材断面
  6
CONTINUOUS
 10
-91.066082
 20
38.2307
 11
-91.066082
 21
51.634852
  0
LINE
  8
型材断面
  6
CONTINUOUS
 10
-91.066082
 20
51.634852
 11
-90.830382
 21
51.870552
  0
LINE
  8
型材断面
  6
CONTINUOUS
 10
39.719605
 20
23.757512
 11
56.811253
 21
23.757512
  0
LINE
  8
型材断面
  6
CONTINUOUS
 10
39.719605
 20
51.870552
 11
56.811253
 21
51.870552
  0
LINE
  8
型材断面
  6
CONTINUOUS
 10
-73.73873
 20
51.870552
 11
-90.830378
 21
51.870552
  0
LINE
  8
型材断面
  6
CONTINUOUS
 10
59.311257
 20
54.370552
 11
-93.330382
 21
54.370552
  0
LINE
  8
型材断面
  6
CONTINUOUS
 10
-73.73873
 20
23.757512
 11
-90.830378
 21
23.757512
  0
LINE
  8
型材断面
  6
CONTINUOUS
 10
59.311257
 20
21.257512
 11
-93.330382
 21
21.257512
  0
TEXT
  7
TextStyle03
  8
文字
  6
CONTINUOUS
 10
134.525
 20
-76.7
  1
網入り6.8t
 40
3.0
 72
     5
 11
151.2125
 21
-76.7
  0
TEXT
  7
TextStyle03
  8
文字
  6
CONTINUOUS
 10
-25.2
 20
9.325
  1
可動装置側
 40
3.0
 72
     5
 11
-8.7
 21
9.325
  0
TEXT
  7
TextStyle03
  8
文字
  6
CONTINUOUS
 10
-25.2
 20
63.275
  1
可動装置側
 40
3.0
 72
     5
 11
-8.7
 21
63.275
  0
TEXT
  7
TextStyle03
  8
文字
  6
CONTINUOUS
 10
141.2
 20
-81.375
  1
×４枚
 40
3.0
 72
     5
 11
150.95
 21
-81.375
  0
TEXT
  7
TextStyle03
  8
文字
  6
CONTINUOUS
 10
-130.075
 20
89.4
  1
はケーシング位置を示す
 40
3.0
 72
     5
 11
-93.325
 21
89.4
  0
TEXT
  7
TextStyle03
  8
文字
  6
CONTINUOUS
 10
-130.075
 20
86.025
  1
４ヶ所中1ヶ所に設定
 40
3.0
 72
     5
 11
-98.3875
 21
86.025
  0
TEXT
  7
TextStyle03
  8
文字
  6
CONTINUOUS
 10
-130.075
 20
94.925
  1
は排水穴位置を示す
 40
3.0
 72
     5
 11
-100.075
 21
94.925
  0
TEXT
  7
TextStyle03
  8
文字
  6
CONTINUOUS
 10
-113.0
 20
16.275
  1
アンカーピッチ
 40
3.0
 50
90.0
 72
     5
 11
-113.0
 21
39.525
  0
TEXT
  7
TextStyle03
  8
文字
  6
CONTINUOUS
 10
-77.075
 20
89.875
  1
アンカーピッチ
 40
3.0
 72
     5
 11
-53.825
 21
89.875
  0
TEXT
  7
TextStyle03
  8
文字
  6
CONTINUOUS
 10
-133.8
 20
80.05
  1
アンカー数量　１６ヶ所
 40
3.0
 72
     5
 11
-97.05
 21
80.05
  0
TEXT
  7
TextStyle03
  8
文字
  6
CONTINUOUS
 10
-133.85
 20
74.3
  1
アームユニット数　４ヶ所
 40
3.0
 72
     5
 11
-93.725
 21
74.3
  0
LINE
  8
文字
  6
CONTINUOUS
 10
145.880905
 20
66.643605
 11
145.880905
 21
56.093642
  0
LINE
  8
文字
  6
CONTINUOUS
 10
153.530955
 20
66.643605
 11
153.530955
 21
56.158722
  0
LINE
  8
文字
  6
CONTINUOUS
 10
71.225683
 20
-68.572975
 11
60.675718
 21
-68.572975
  0
LINE
  8
文字
  6
CONTINUOUS
 10
71.225683
 20
-76.223025
 11
60.7408
 21
-76.223025
  0
LINE
  8
文字
  6
CONTINUOUS
 10
71.225683
 20
-56.906308
 11
60.675718
 21
-56.906308
  0
LINE
  8
文字
  6
CONTINUOUS
 10
153.076993
 20
-46.359635
 11
153.076993
 21
-52.833288
  0
LINE
  8
文字
  6
CONTINUOUS
 10
116.616993
 20
-46.359635
 11
116.616993
 21
-52.833288
  0
TEXT
  7
TextStyle03
  8
文字
  6
CONTINUOUS
 10
60.3
 20
125.25
  1
シリーズ：ＴＦ２ＦＬ
 40
5.0
 72
     5
 11
115.925
 21
125.25
  0
TEXT
  7
TextStyle03
  8
文字
  6
CONTINUOUS
 10
60.3
 20
119.625
  1
　　　　　（上下可動）900×4500タイプ
 40
5.0
 72
     5
 11
163.7375
 21
119.625
  0
TEXT
  7
TextStyle03
  8
文字
  6
CONTINUOUS
 10
60.3
 20
114.0
  1
図面名　：外観姿図
 40
5.0
 72
     5
 11
110.3
 21
114.0
  0
TEXT
  7
TextStyle03
  8
文字
  6
CONTINUOUS
 10
60.3
 20
108.375
  1
　　　　　　
 40
5.0
 72
     5
 11
93.425
 21
108.375
  0
TEXT
  7
TextStyle03
  8
文字
  6
CONTINUOUS
 10
60.45
 20
104.525
  1
ＮＳコード：ＮＳＦＺＬ
 40
5.0
 72
     5
 11
121.7
 21
104.525
  0
INSERT
  2
*DIM_0002
  8
寸法
  6
CONTINUOUS
 10
0.0
 20
0.0
  0
INSERT
  2
*DIM_0003
  8
寸法
  6
CONTINUOUS
 10
0.0
 20
0.0
  0
INSERT
  2
*DIM_0004
  8
寸法
  6
CONTINUOUS
 10
0.0
 20
0.0
  0
INSERT
  2
*DIM_0005
  8
寸法
  6
CONTINUOUS
 10
0.0
 20
0.0
  0
INSERT
  2
*DIM_0006
  8
寸法
  6
CONTINUOUS
 10
0.0
 20
0.0
  0
INSERT
  2
*DIM_0007
  8
寸法
  6
CONTINUOUS
 10
0.0
 20
0.0
  0
INSERT
  2
*DIM_0008
  8
寸法
  6
CONTINUOUS
 10
0.0
 20
0.0
  0
INSERT
  2
*DIM_0009
  8
寸法
  6
CONTINUOUS
 10
0.0
 20
0.0
  0
INSERT
  2
*DIM_0010
  8
寸法
  6
CONTINUOUS
 10
0.0
 20
0.0
  0
INSERT
  2
*DIM_0011
  8
寸法
  6
CONTINUOUS
 10
0.0
 20
0.0
  0
INSERT
  2
*DIM_0012
  8
寸法
  6
CONTINUOUS
 10
0.0
 20
0.0
  0
INSERT
  2
*DIM_0013
  8
寸法
  6
CONTINUOUS
 10
0.0
 20
0.0
  0
INSERT
  2
*DIM_0014
  8
寸法
  6
CONTINUOUS
 10
0.0
 20
0.0
  0
INSERT
  2
*DIM_0015
  8
寸法
  6
CONTINUOUS
 10
0.0
 20
0.0
  0
INSERT
  2
*DIM_0016
  8
寸法
  6
CONTINUOUS
 10
0.0
 20
0.0
  0
INSERT
  2
*DIM_0017
  8
寸法
  6
CONTINUOUS
 10
0.0
 20
0.0
  0
INSERT
  2
*DIM_0018
  8
寸法
  6
CONTINUOUS
 10
0.0
 20
0.0
  0
INSERT
  2
*DIM_0019
  8
寸法
  6
CONTINUOUS
 10
0.0
 20
0.0
  0
INSERT
  2
*DIM_0024
  8
寸法
  6
CONTINUOUS
 10
0.0
 20
0.0
  0
INSERT
  2
*DIM_0025
  8
寸法
  6
CONTINUOUS
 10
0.0
 20
0.0
  0
INSERT
  2
*DIM_0026
  8
寸法
  6
CONTINUOUS
 10
0.0
 20
0.0
  0
LINE
  8
別途部材
  6
CONTINUOUS
 62
    47
 10
145.980905
 20
21.257512
 11
146.04757
 21
21.257512
  0
ARC
  8
別途部材
  6
CONTINUOUS
 62
    47
 10
145.980904
 20
21.357513
 40
0.1
 50
180.0
 51
270.0
  0
LINE
  8
別途部材
  6
CONTINUOUS
 62
    47
 10
145.880905
 20
21.357512
 11
145.880905
 21
23.72418
  0
LINE
  8
別途部材
  6
CONTINUOUS
 62
    47
 10
147.54757
 20
21.414035
 11
146.04757
 21
21.414035
  0
LINE
  8
別途部材
  6
CONTINUOUS
 62
    47
 10
145.980905
 20
54.370552
 11
146.04757
 21
54.370552
  0
ARC
  8
別途部材
  6
CONTINUOUS
 62
    47
 10
145.980904
 20
54.270555
 40
0.1
 50
90.0
 51
180.0
  0
LINE
  8
別途部材
  6
CONTINUOUS
 62
    47
 10
145.880905
 20
54.270552
 11
145.880905
 21
51.903888
  0
LINE
  8
別途部材
  6
CONTINUOUS
 62
    47
 10
147.54757
 20
54.214033
 11
146.04757
 21
54.214033
  0
LINE
  8
別途部材
  6
CONTINUOUS
 62
    47
 10
-93.566082
 20
-68.672975
 11
-93.566082
 21
-68.73964
  0
ARC
  8
別途部材
  6
CONTINUOUS
 62
    47
 10
-93.466086
 20
-68.672975
 40
0.1
 50
90.0
 51
180.0
  0
LINE
  8
別途部材
  6
CONTINUOUS
 62
    47
 10
-93.466082
 20
-68.572975
 11
-91.099417
 21
-68.572975
  0
LINE
  8
別途部材
  6
CONTINUOUS
 62
    47
 10
-93.409562
 20
-70.23964
 11
-93.409562
 21
-68.73964
  0
LINE
  8
別途部材
  6
CONTINUOUS
 62
    47
 10
59.546957
 20
-68.672975
 11
59.546957
 21
-68.73964
  0
ARC
  8
別途部材
  6
CONTINUOUS
 62
    47
 10
59.446956
 20
-68.672975
 40
0.1
 50
0.0
 51
90.0
  0
LINE
  8
別途部材
  6
CONTINUOUS
 62
    47
 10
59.446957
 20
-68.572975
 11
57.08029
 21
-68.572975
  0
LINE
  8
別途部材
  6
CONTINUOUS
 62
    47
 10
59.390435
 20
-70.23964
 11
59.390435
 21
-68.73964
  0
LINE
  8
別途部材
  6
DOT
 62
    47
 10
-93.566082
 20
-57.006308
 11
-93.566082
 21
-57.072973
  0
ARC
  8
別途部材
  6
DOT
 62
    47
 10
-93.466086
 20
-57.006308
 40
0.1
 50
90.0
 51
180.0
  0
LINE
  8
別途部材
  6
DOT
 62
    47
 10
-93.466082
 20
-56.906308
 11
-91.099417
 21
-56.906308
  0
LINE
  8
別途部材
  6
DOT
 62
    47
 10
-93.409562
 20
-58.572973
 11
-93.409562
 21
-57.072973
  0
LINE
  8
別途部材
  6
DOT
 62
    47
 10
59.546957
 20
-57.006308
 11
59.546957
 21
-57.072973
  0
ARC
  8
別途部材
  6
DOT
 62
    47
 10
59.446956
 20
-57.006308
 40
0.1
 50
0.0
 51
90.0
  0
LINE
  8
別途部材
  6
DOT
 62
    47
 10
59.446957
 20
-56.906308
 11
57.08029
 21
-56.906308
  0
LINE
  8
別途部材
  6
DOT
 62
    47
 10
59.390435
 20
-58.572973
 11
59.390435
 21
-57.072973
  0
LINE
  8
曲げ物
  6
CONTINUOUS
 10
153.076993
 20
-83.118728
 11
153.076993
 21
-53.785395
  0
LINE
  8
曲げ物
  6
CONTINUOUS
 10
42.716167
 20
39.693362
 11
39.020855
 21
35.99805
  0
LINE
  8
曲げ物
  6
CONTINUOUS
 10
42.012697
 20
38.157252
 11
40.556968
 21
36.701522
  0
LINE
  8
曲げ物
  6
CONTINUOUS
 10
41.180057
 20
38.989892
 11
39.724328
 21
37.534162
  0
LINE
  8
曲げ物
  6
CONTINUOUS
 10
4.7112
 20
39.693362
 11
1.015887
 21
35.99805
  0
LINE
  8
曲げ物
  6
CONTINUOUS
 10
4.00773
 20
38.157252
 11
2.552
 21
36.701522
  0
LINE
  8
曲げ物
  6
CONTINUOUS
 10
3.17509
 20
38.989892
 11
1.71936
 21
37.534162
  0
LINE
  8
曲げ物
  6
CONTINUOUS
 10
-33.658252
 20
39.693362
 11
-37.353565
 21
35.99805
  0
LINE
  8
曲げ物
  6
CONTINUOUS
 10
-34.361722
 20
38.157252
 11
-35.817453
 21
36.701522
  0
LINE
  8
曲げ物
  6
CONTINUOUS
 10
-35.194362
 20
38.989892
 11
-36.650093
 21
37.534162
  0
LINE
  8
曲げ物
  6
CONTINUOUS
 10
-71.175543
 20
39.693362
 11
-74.870855
 21
35.99805
  0
LINE
  8
曲げ物
  6
CONTINUOUS
 10
-71.879013
 20
38.157252
 11
-73.334742
 21
36.701522
  0
LINE
  8
曲げ物
  6
CONTINUOUS
 10
-72.711653
 20
38.989892
 11
-74.167382
 21
37.534162
  0
LINE
  8
曲げ物
  6
CONTINUOUS
 10
116.616993
 20
-83.118728
 11
116.616993
 21
-53.785395
  0
LINE
  8
曲げ物
  6
CONTINUOUS
 10
153.076993
 20
-53.785395
 11
116.616993
 21
-53.785395
  0
LINE
  8
曲げ物
  6
CONTINUOUS
 10
153.076993
 20
-83.118728
 11
116.616993
 21
-83.118728
  0
ENDSEC
  0
EOF
