  0
SECTION
  2
HEADER
  9
$EXTMIN
 10
-210.0
 20
-148.5
  9
$EXTMAX
 10
210.0
 20
148.5
  9
$PDMODE
 70
    32
  9
$PDSIZE
 40
1.5
  9
$LTSCALE
 40
10.0
  0
ENDSEC
  0
SECTION
  2
TABLES
  0
TABLE
  2
LTYPE
 70
    15
  0
LTYPE
  2
CONTINUOUS
 70
    64
  3
実線
 72
    65
 73
     0
 40
0.0
  0
LTYPE
  2
DASHED
 70
    64
  3
破線A
 72
    65
 73
     2
 40
0.6
 49
0.4
 49
-0.2
  0
LTYPE
  2
DASHEDX2
 70
    64
  3
破線B
 72
    65
 73
     2
 40
1.3
 49
0.9
 49
-0.4
  0
LTYPE
  2
DASHDOT
 70
    64
  3
１点鎖線A
 72
    65
 73
     4
 40
0.5375
 49
0.375
 49
-0.05
 49
0.0625
 49
-0.05
  0
LTYPE
  2
DASHDOTX2
 70
    64
  3
１点鎖線B
 72
    65
 73
     4
 40
1.075
 49
0.75
 49
-0.1
 49
0.125
 49
-0.1
  0
LTYPE
  2
DIVIDE2
 70
    64
  3
２点鎖線A
 72
    65
 73
     6
 40
0.5125
 49
0.3
 49
-0.0375
 49
0.05
 49
-0.0375
 49
0.05
 49
-0.0375
  0
LTYPE
  2
DIVIDE
 70
    64
  3
２点鎖線B
 72
    65
 73
     6
 40
1.05
 49
0.55
 49
-0.1
 49
0.1
 49
-0.1
 49
0.1
 49
-0.1
  0
LTYPE
  2
DOT
 70
    64
  3
点線A
 72
    65
 73
     2
 40
0.1125
 49
0.0625
 49
-0.05
  0
LTYPE
  2
DOTX2
 70
    64
  3
点線B
 72
    65
 73
     2
 40
0.275
 49
0.15
 49
-0.125
  0
LTYPE
  2
CONTINUOUS
 70
    64
  3
実線
 72
    65
 73
     0
 40
0.0
  0
LTYPE
  2
CONTINUOUS
 70
    64
  3
実線
 72
    65
 73
     0
 40
0.0
  0
LTYPE
  2
CONTINUOUS
 70
    64
  3
実線
 72
    65
 73
     0
 40
0.0
  0
LTYPE
  2
CONTINUOUS
 70
    64
  3
実線
 72
    65
 73
     0
 40
0.0
  0
LTYPE
  2
CONTINUOUS
 70
    64
  3
実線
 72
    65
 73
     0
 40
0.0
  0
LTYPE
  2
CONTINUOUS
 70
    64
  3
実線
 72
    65
 73
     0
 40
0.0
  0
ENDTAB
  0
TABLE
  2
LAYER
 70
    34
  0
LAYER
  2
通り芯
 70
     0
 62
    15
  6
CONTINUOUS
  0
LAYER
  2
補助線
 70
     0
 62
    16
  6
DOT
  0
LAYER
  2
躯体
 70
     0
 62
    31
  6
CONTINUOUS
  0
LAYER
  2
型材
 70
     0
 62
    32
  6
CONTINUOUS
  0
LAYER
  2
型材断面
 70
     0
 62
    47
  6
CONTINUOUS
  0
LAYER
  2
ガラス
 70
     0
 62
    48
  6
CONTINUOUS
  0
LAYER
  2
ゴム等
 70
     0
 62
    63
  6
CONTINUOUS
  0
LAYER
  2
ボルト／ビス
 70
     0
 62
    64
  6
CONTINUOUS
  0
LAYER
  2
文字
 70
     0
 62
    79
  6
CONTINUOUS
  0
LAYER
  2
寸法
 70
     0
 62
    80
  6
CONTINUOUS
  0
LAYER
  2
ﾊｯﾁﾝｸﾞ
 70
     0
 62
    95
  6
CONTINUOUS
  0
LAYER
  2
別途部材
 70
     0
 62
    96
  6
CONTINUOUS
  0
LAYER
  2
曲げ物
 70
     0
 62
   111
  6
CONTINUOUS
  0
LAYER
  2
鉄骨等
 70
     0
 62
   112
  6
CONTINUOUS
  0
LAYER
  2
St
 70
     0
 62
   127
  6
CONTINUOUS
  0
LAYER
  2
その他部品等
 70
     0
 62
   128
  6
CONTINUOUS
  0
LAYER
  2
ｶﾞｽｹｯﾄ
 70
     0
 62
   143
  6
CONTINUOUS
  0
LAYER
  2
ｽｹｯﾁ
 70
     0
 62
    14
  6
CONTINUOUS
  0
LAYER
  2
0
 70
     0
 62
    17
  6
CONTINUOUS
  0
LAYER
  2
1
 70
     0
 62
    30
  6
CONTINUOUS
  0
LAYER
  2
4
 70
     0
 62
    33
  6
CONTINUOUS
  0
LAYER
  2
ﾚｲﾔ3
 70
     0
 62
    46
  6
CONTINUOUS
  0
LAYER
  2
外形線
 70
     0
 62
    49
  6
CONTINUOUS
  0
LAYER
  2
部品
 70
     0
 62
    14
  6
CONTINUOUS
  0
LAYER
  2
サッシ芯
 70
     0
 62
    17
  6
DASHDOTX2
  0
LAYER
  2
寸法線
 70
     0
 62
    62
  6
CONTINUOUS
  0
LAYER
  2
姿図外形線
 70
     0
 62
    65
  6
CONTINUOUS
  0
LAYER
  2
姿補助線
 70
     0
 62
    30
  6
CONTINUOUS
  0
LAYER
  2
透視線
 70
     0
 62
    78
  6
DOT
  0
LAYER
  2
用紙
 70
     0
 62
    81
  6
CONTINUOUS
  0
LAYER
  2
実線図枠
 70
     0
 62
    94
  6
CONTINUOUS
  0
LAYER
  2
補助図枠
 70
     0
 62
    97
  6
CONTINUOUS
  0
LAYER
  2
建具記号
 70
     0
 62
   110
  6
CONTINUOUS
  0
LAYER
  2
補助文字
 70
     0
 62
   113
  6
CONTINUOUS
  0
ENDTAB
  0
TABLE
  2
STYLE
 70
    10
  0
STYLE
  2
STANDARD
 70
     0
 40
1.0
 41
1.0
 42
1.0
 50
0.0
 71
     0
  3
TXT
  4
BIGFONT
  0
STYLE
  2
TATE
 70
     4
 40
1.0
 41
1.0
 42
1.0
 50
0.0
 71
     0
  3
TXT
  4
BIGFONT
  0
STYLE
  2
TextStyle03
 70
     0
 40
1.0
 41
1.0
 42
1.0
 50
0.0
 71
     0
  3
MONOTXT
  4
BIGFONT
  0
STYLE
  2
TextStyle04
 70
     0
 40
1.0
 41
1.0
 42
1.0
 50
0.0
 71
     0
  3
MONOTXT
  4
BIGFONT
  0
STYLE
  2
TextStyle05
 70
     0
 40
1.0
 41
1.0
 42
1.0
 50
0.0
 71
     0
  3
MONOTXT
  4
BIGFONT
  0
STYLE
  2
TextStyle06
 70
     0
 40
1.0
 41
1.0
 42
1.0
 50
0.0
 71
     0
  3
MONOTXT
  4
BIGFONT
  0
STYLE
  2
TextStyle07
 70
     0
 40
1.0
 41
1.0
 42
1.0
 50
0.0
 71
     0
  3
MONOTXT
  4
BIGFONT
  0
STYLE
  2
TextStyle08
 70
     0
 40
1.0
 41
1.0
 42
1.0
 50
0.0
 71
     0
  3
MONOTXT
  4
BIGFONT
  0
STYLE
  2
TextStyle09
 70
     0
 40
1.0
 41
1.0
 42
1.0
 50
0.0
 71
     0
  3
MONOTXT
  4
BIGFONT
  0
STYLE
  2
TextStyle10
 70
     0
 40
1.0
 41
1.0
 42
1.0
 50
0.0
 71
     0
  3
MONOTXT
  4
BIGFONT
  0
ENDTAB
  0
ENDSEC
  0
SECTION
  2
BLOCKS
  0
BLOCK
  2
*GRP_0001
 70
    65
 10
0.0
 20
0.0
  0
LINE
  8
型材断面
  6
CONTINUOUS
 10
195.0
 20
133.5
 11
195.0
 21
-133.5
  0
LINE
  8
型材断面
  6
CONTINUOUS
 10
195.0
 20
-133.5
 11
-185.0
 21
-133.5
  0
LINE
  8
型材断面
  6
CONTINUOUS
 10
-185.0
 20
-133.5
 11
-185.0
 21
133.5
  0
LINE
  8
型材断面
  6
CONTINUOUS
 10
195.0
 20
133.5
 11
-185.0
 21
133.5
  0
LINE
  8
型材断面
  6
CONTINUOUS
 10
145.0
 20
-133.5
 11
145.0
 21
-118.5
  0
LINE
  8
型材断面
  6
CONTINUOUS
 10
195.0
 20
-118.5
 11
145.0
 21
-118.5
  0
ENDBLK
  0
BLOCK
  2
*DIM_0002
 70
    65
 10
0.0
 20
0.0
  0
LINE
  8
寸法
  6
BYBLOCK
 62
     0
 10
154.076993
 20
-53.785395
 11
162.135282
 21
-53.785395
  0
LINE
  8
寸法
  6
BYBLOCK
 62
     0
 10
154.076993
 20
-83.118728
 11
162.135282
 21
-83.118728
  0
LINE
  8
寸法
  6
BYBLOCK
 62
     0
 10
162.135282
 20
-53.785395
 11
162.135282
 21
-83.118728
  0
POINT
  8
寸法
 62
     0
 10
162.135282
 20
-53.785395
  0
POINT
  8
寸法
 62
     0
 10
162.135282
 20
-83.118728
  0
TEXT
  7
TextStyle03
  8
寸法
  6
CONTINUOUS
 62
     0
 10
161.775
 20
-70.9125
  1
880
 40
3.0
 50
90.0
 72
     5
 11
161.775
 21
-66.0375
  0
ENDBLK
  0
BLOCK
  2
*DIM_0003
 70
    65
 10
0.0
 20
0.0
  0
LINE
  8
寸法
  6
BYBLOCK
 62
     0
 10
-108.676228
 20
-13.511205
 11
-108.676228
 21
-13.121378
  0
LINE
  8
寸法
  6
BYBLOCK
 62
     0
 10
57.990438
 20
-13.121378
 11
-108.676228
 21
-13.121378
  0
POINT
  8
寸法
 62
     0
 10
57.990438
 20
-13.121378
  0
POINT
  8
寸法
 62
     0
 10
-108.676228
 20
-13.121378
  0
TEXT
  7
TextStyle03
  8
寸法
  6
CONTINUOUS
 62
     0
 10
-37.06875
 20
-12.775
  1
呼称寸法　5000
 40
3.0
 72
     5
 11
-13.63125
 21
-12.775
  0
ENDBLK
  0
BLOCK
  2
*DIM_0004
 70
    65
 10
0.0
 20
0.0
  0
LINE
  8
寸法
  6
BYBLOCK
 62
     0
 10
-92.00956
 20
19.183902
 11
-92.00956
 21
13.88158
  0
LINE
  8
寸法
  6
BYBLOCK
 62
     0
 10
-25.342895
 20
19.183905
 11
-25.342895
 21
13.88158
  0
LINE
  8
寸法
  6
BYBLOCK
 62
     0
 10
-92.00956
 20
13.88158
 11
-25.342895
 21
13.88158
  0
POINT
  8
寸法
 62
     0
 10
-92.00956
 20
13.88158
  0
POINT
  8
寸法
 62
     0
 10
-25.342895
 20
13.88158
  0
TEXT
  7
TextStyle03
  8
寸法
  6
CONTINUOUS
 62
     0
 10
-61.98125
 20
14.25
  1
2000
 40
3.0
 72
     5
 11
-55.41875
 21
14.25
  0
ENDBLK
  0
BLOCK
  2
*DIM_0005
 70
    65
 10
0.0
 20
0.0
  0
LINE
  8
寸法
  6
BYBLOCK
 62
     0
 10
41.32377
 20
19.183902
 11
41.32377
 21
13.88158
  0
LINE
  8
寸法
  6
BYBLOCK
 62
     0
 10
-25.342895
 20
13.88158
 11
41.32377
 21
13.88158
  0
POINT
  8
寸法
 62
     0
 10
41.32377
 20
13.88158
  0
TEXT
  7
TextStyle03
  8
寸法
  6
CONTINUOUS
 62
     0
 10
4.69375
 20
14.25
  1
2000
 40
3.0
 72
     5
 11
11.25625
 21
14.25
  0
ENDBLK
  0
BLOCK
  2
*DIM_0006
 70
    65
 10
0.0
 20
0.0
  0
LINE
  8
寸法
  6
BYBLOCK
 62
     0
 10
58.990438
 20
52.814035
 11
68.71472
 21
52.814035
  0
LINE
  8
寸法
  6
BYBLOCK
 62
     0
 10
61.620567
 20
49.114035
 11
68.71472
 21
49.114035
  0
LINE
  8
寸法
  6
BYBLOCK
 62
     0
 10
68.71472
 20
52.814035
 11
68.71472
 21
49.114035
  0
POINT
  8
寸法
 62
     0
 10
68.71472
 20
52.814035
  0
POINT
  8
寸法
 62
     0
 10
68.71472
 20
49.114035
  0
TEXT
  7
TextStyle03
  8
寸法
  6
CONTINUOUS
 62
     0
 10
68.375
 20
53.8125
  1
111
 40
3.0
 50
90.0
 72
     5
 11
68.375
 21
58.6875
  0
ENDBLK
  0
BLOCK
  2
*DIM_0007
 70
    65
 10
0.0
 20
0.0
  0
LINE
  8
寸法
  6
BYBLOCK
 62
     0
 10
58.990438
 20
22.81403
 11
68.71472
 21
22.814027
  0
LINE
  8
寸法
  6
BYBLOCK
 62
     0
 10
61.620567
 20
26.51403
 11
68.71472
 21
26.514027
  0
LINE
  8
寸法
  6
BYBLOCK
 62
     0
 10
68.71472
 20
22.814027
 11
68.71472
 21
26.514027
  0
POINT
  8
寸法
 62
     0
 10
68.71472
 20
22.814027
  0
POINT
  8
寸法
 62
     0
 10
68.71472
 20
26.514027
  0
TEXT
  7
TextStyle03
  8
寸法
  6
CONTINUOUS
 62
     0
 10
68.375
 20
16.9375
  1
111
 40
3.0
 50
90.0
 72
     5
 11
68.375
 21
21.8125
  0
ENDBLK
  0
BLOCK
  2
*DIM_0008
 70
    65
 10
0.0
 20
0.0
  0
LINE
  8
寸法
  6
BYBLOCK
 62
     0
 10
92.010088
 20
22.814033
 11
92.010088
 21
52.814033
  0
POINT
  8
寸法
 62
     0
 10
92.010088
 20
22.814033
  0
POINT
  8
寸法
 62
     0
 10
92.010088
 20
52.814033
  0
TEXT
  7
TextStyle03
  8
寸法
  6
CONTINUOUS
 62
     0
 10
91.65
 20
26.9
  1
呼称寸法　900
 40
3.0
 50
90.0
 72
     5
 11
91.65
 21
48.65
  0
ENDBLK
  0
BLOCK
  2
*DIM_0009
 70
    65
 10
0.0
 20
0.0
  0
LINE
  8
寸法
  6
BYBLOCK
 62
     0
 10
145.900483
 20
54.797365
 11
92.010088
 21
54.797365
  0
LINE
  8
寸法
  6
BYBLOCK
 62
     0
 10
92.010088
 20
52.814033
 11
92.010088
 21
54.797365
  0
POINT
  8
寸法
 62
     0
 10
92.010088
 20
52.814033
  0
POINT
  8
寸法
 62
     0
 10
92.010088
 20
54.797365
  0
TEXT
  7
TextStyle03
  8
寸法
  6
CONTINUOUS
 62
     0
 10
91.575
 20
57.26875
  1
59.5
 40
3.0
 50
90.0
 72
     5
 11
91.575
 21
63.83125
  0
ENDBLK
  0
BLOCK
  2
*DIM_0010
 70
    65
 10
0.0
 20
0.0
  0
LINE
  8
寸法
  6
BYBLOCK
 62
     0
 10
145.900483
 20
20.8307
 11
92.010088
 21
20.8307
  0
LINE
  8
寸法
  6
BYBLOCK
 62
     0
 10
92.010088
 20
22.814033
 11
92.010088
 21
20.8307
  0
POINT
  8
寸法
 62
     0
 10
92.010088
 20
22.814033
  0
POINT
  8
寸法
 62
     0
 10
92.010088
 20
20.8307
  0
TEXT
  7
TextStyle03
  8
寸法
  6
CONTINUOUS
 62
     0
 10
91.575
 20
11.76875
  1
59.5
 40
3.0
 50
90.0
 72
     5
 11
91.575
 21
18.33125
  0
ENDBLK
  0
BLOCK
  2
*DIM_0011
 70
    65
 10
0.0
 20
0.0
  0
LINE
  8
寸法
  6
BYBLOCK
 62
     0
 10
59.973775
 20
-56.919728
 11
59.973775
 21
-13.121378
  0
LINE
  8
寸法
  6
BYBLOCK
 62
     0
 10
57.990438
 20
-13.121378
 11
59.973775
 21
-13.121378
  0
POINT
  8
寸法
 62
     0
 10
57.990438
 20
-13.121378
  0
POINT
  8
寸法
 62
     0
 10
59.973775
 20
-13.121378
  0
TEXT
  7
TextStyle03
  8
寸法
  6
CONTINUOUS
 62
     0
 10
62.44375
 20
-12.75
  1
59.5
 40
3.0
 72
     5
 11
69.00625
 21
-12.75
  0
ENDBLK
  0
BLOCK
  2
*DIM_0012
 70
    65
 10
0.0
 20
0.0
  0
LINE
  8
寸法
  6
BYBLOCK
 62
     0
 10
-110.65956
 20
-56.919728
 11
-110.65956
 21
-13.121378
  0
LINE
  8
寸法
  6
BYBLOCK
 62
     0
 10
-108.676228
 20
-13.121378
 11
-110.65956
 21
-13.121378
  0
POINT
  8
寸法
 62
     0
 10
-108.676228
 20
-13.121378
  0
POINT
  8
寸法
 62
     0
 10
-110.65956
 20
-13.121378
  0
TEXT
  7
TextStyle03
  8
寸法
  6
CONTINUOUS
 62
     0
 10
-119.70625
 20
-12.75
  1
59.5
 40
3.0
 72
     5
 11
-113.14375
 21
-12.75
  0
ENDBLK
  0
BLOCK
  2
*DIM_0013
 70
    65
 10
0.0
 20
0.0
  0
LINE
  8
寸法
  6
BYBLOCK
 62
     0
 10
-111.676228
 20
47.814033
 11
-124.969065
 21
47.814033
  0
LINE
  8
寸法
  6
BYBLOCK
 62
     0
 10
-111.676228
 20
27.814033
 11
-124.969065
 21
27.814033
  0
LINE
  8
寸法
  6
BYBLOCK
 62
     0
 10
-124.969065
 20
47.814033
 11
-124.969065
 21
27.814033
  0
POINT
  8
寸法
 62
     0
 10
-124.969065
 20
47.814033
  0
POINT
  8
寸法
 62
     0
 10
-124.969065
 20
27.814033
  0
TEXT
  7
TextStyle03
  8
寸法
  6
CONTINUOUS
 62
     0
 10
-125.325
 20
35.3625
  1
600
 40
3.0
 50
90.0
 72
     5
 11
-125.325
 21
40.2375
  0
ENDBLK
  0
BLOCK
  2
*DIM_0014
 70
    65
 10
0.0
 20
0.0
  0
LINE
  8
寸法
  6
BYBLOCK
 62
     0
 10
-100.342893
 20
55.814033
 11
-100.342893
 21
84.922105
  0
LINE
  8
寸法
  6
BYBLOCK
 62
     0
 10
-75.342893
 20
55.814033
 11
-75.342893
 21
84.922105
  0
LINE
  8
寸法
  6
BYBLOCK
 62
     0
 10
-100.342893
 20
84.922105
 11
-75.342893
 21
84.922105
  0
POINT
  8
寸法
 62
     0
 10
-100.342893
 20
84.922105
  0
POINT
  8
寸法
 62
     0
 10
-75.342893
 20
84.922105
  0
TEXT
  7
TextStyle03
  8
寸法
  6
CONTINUOUS
 62
     0
 10
-90.3125
 20
85.275
  1
750
 40
3.0
 72
     5
 11
-85.4375
 21
85.275
  0
ENDBLK
  0
BLOCK
  2
*DIM_0015
 70
    65
 10
0.0
 20
0.0
  0
LINE
  8
寸法
  6
BYBLOCK
 62
     0
 10
-50.342893
 20
55.814033
 11
-50.342893
 21
84.922105
  0
LINE
  8
寸法
  6
BYBLOCK
 62
     0
 10
-75.342893
 20
84.922105
 11
-50.342893
 21
84.922105
  0
POINT
  8
寸法
 62
     0
 10
-50.342893
 20
84.922105
  0
TEXT
  7
TextStyle03
  8
寸法
  6
CONTINUOUS
 62
     0
 10
-65.3125
 20
85.275
  1
750
 40
3.0
 72
     5
 11
-60.4375
 21
85.275
  0
ENDBLK
  0
BLOCK
  2
*DIM_0016
 70
    65
 10
0.0
 20
0.0
  0
LINE
  8
寸法
  6
BYBLOCK
 62
     0
 10
-25.342893
 20
55.814033
 11
-25.342893
 21
84.922105
  0
LINE
  8
寸法
  6
BYBLOCK
 62
     0
 10
-50.342893
 20
84.922105
 11
-25.342893
 21
84.922105
  0
POINT
  8
寸法
 62
     0
 10
-25.342893
 20
84.922105
  0
TEXT
  7
TextStyle03
  8
寸法
  6
CONTINUOUS
 62
     0
 10
-40.3125
 20
85.275
  1
750
 40
3.0
 72
     5
 11
-35.4375
 21
85.275
  0
ENDBLK
  0
BLOCK
  2
*DIM_0017
 70
    65
 10
0.0
 20
0.0
  0
LINE
  8
寸法
  6
BYBLOCK
 62
     0
 10
-0.342893
 20
55.814033
 11
-0.342893
 21
84.922105
  0
LINE
  8
寸法
  6
BYBLOCK
 62
     0
 10
-25.342893
 20
84.922105
 11
-0.342893
 21
84.922105
  0
POINT
  8
寸法
 62
     0
 10
-0.342893
 20
84.922105
  0
TEXT
  7
TextStyle03
  8
寸法
  6
CONTINUOUS
 62
     0
 10
-15.3125
 20
85.275
  1
750
 40
3.0
 72
     5
 11
-10.4375
 21
85.275
  0
ENDBLK
  0
BLOCK
  2
*DIM_0018
 70
    65
 10
0.0
 20
0.0
  0
LINE
  8
寸法
  6
BYBLOCK
 62
     0
 10
24.657107
 20
55.814033
 11
24.657107
 21
84.922105
  0
LINE
  8
寸法
  6
BYBLOCK
 62
     0
 10
-0.342893
 20
84.922105
 11
24.657107
 21
84.922105
  0
POINT
  8
寸法
 62
     0
 10
24.657107
 20
84.922105
  0
TEXT
  7
TextStyle03
  8
寸法
  6
CONTINUOUS
 62
     0
 10
9.6875
 20
85.275
  1
750
 40
3.0
 72
     5
 11
14.5625
 21
85.275
  0
ENDBLK
  0
BLOCK
  2
*DIM_0019
 70
    65
 10
0.0
 20
0.0
  0
LINE
  8
寸法
  6
BYBLOCK
 62
     0
 10
49.657107
 20
55.814033
 11
49.657107
 21
84.922105
  0
LINE
  8
寸法
  6
BYBLOCK
 62
     0
 10
24.657107
 20
84.922105
 11
49.657107
 21
84.922105
  0
POINT
  8
寸法
 62
     0
 10
49.657107
 20
84.922105
  0
TEXT
  7
TextStyle03
  8
寸法
  6
CONTINUOUS
 62
     0
 10
34.6875
 20
85.275
  1
750
 40
3.0
 72
     5
 11
39.5625
 21
85.275
  0
ENDBLK
  0
BLOCK
  2
*DIM_0020
 70
    65
 10
0.0
 20
0.0
  0
LINE
  8
寸法
  6
CONTINUOUS
 10
146.763175
 20
66.643605
 11
154.413225
 21
66.643605
  0
POINT
  8
寸法
 10
146.763175
 20
66.643605
  0
POINT
  8
寸法
 10
154.413225
 20
66.643605
  0
TEXT
  7
TextStyle03
  8
寸法
  6
CONTINUOUS
 10
146.425
 20
67.0
  1
229.5
 40
3.0
 72
     5
 11
154.675
 21
67.0
  0
ENDBLK
  0
BLOCK
  2
*DIM_0021
 70
    65
 10
0.0
 20
0.0
  0
LINE
  8
寸法
  6
CONTINUOUS
 10
71.225683
 20
-68.344237
 11
71.225683
 21
-75.994287
  0
POINT
  8
寸法
 10
71.225683
 20
-68.344237
  0
POINT
  8
寸法
 10
71.225683
 20
-75.994287
  0
TEXT
  7
TextStyle03
  8
寸法
  6
CONTINUOUS
 10
75.325
 20
-76.225
  1
229.5
 40
3.0
 50
90.0
 72
     5
 11
75.325
 21
-67.975
  0
ENDBLK
  0
BLOCK
  2
*GRP_0022
 70
    65
 10
0.0
 20
0.0
  0
LINE
  8
補助線
  6
BYBLOCK
 62
    64
 10
-105.279155
 20
-73.94175
 11
-105.40664
 21
-74.04911
  0
LINE
  8
補助線
  6
BYBLOCK
 62
    64
 10
-105.396577
 20
-73.931685
 11
-105.289217
 21
-74.059173
  0
LINE
  8
補助線
  6
BYBLOCK
 62
    64
 10
-96.788738
 20
-66.791727
 11
-96.916223
 21
-66.899082
  0
LINE
  8
補助線
  6
BYBLOCK
 62
    64
 10
-96.90616
 20
-66.781663
 11
-96.7988
 21
-66.909145
  0
LINE
  8
補助線
  6
BYBLOCK
 62
    64
 10
-88.425803
 20
-59.749057
 11
-88.29832
 21
-59.6417
  0
LINE
  8
補助線
  6
BYBLOCK
 62
    64
 10
-88.415743
 20
-59.631635
 11
-88.308382
 21
-59.759123
  0
LINE
  8
型材断面
  6
CONTINUOUS
 10
-106.134652
 20
-73.572728
 11
-106.19503
 21
-74.277253
  0
LINE
  8
型材断面
  6
CONTINUOUS
 10
-106.19503
 20
-74.277253
 11
-105.765597
 21
-74.787187
  0
LINE
  8
型材断面
  6
CONTINUOUS
 10
-105.765597
 20
-74.787187
 11
-105.061072
 21
-74.847565
  0
LINE
  8
型材断面
  6
CONTINUOUS
 10
-88.643885
 20
-58.843247
 11
-87.93936
 21
-58.903625
  0
LINE
  8
型材断面
  6
CONTINUOUS
 10
-87.93936
 20
-58.903625
 11
-87.509927
 21
-59.41356
  0
LINE
  8
型材断面
  6
CONTINUOUS
 10
-87.509927
 20
-59.41356
 11
-87.570305
 21
-60.118085
  0
LINE
  8
型材断面
  6
CONTINUOUS
 10
-106.134652
 20
-73.572728
 11
-88.643885
 21
-58.843247
  0
LINE
  8
型材断面
  6
CONTINUOUS
 10
-105.061072
 20
-74.847565
 11
-87.570305
 21
-60.118085
  0
CIRCLE
  8
ボルト／ビス
  6
CONTINUOUS
 10
-105.342897
 20
-73.99543
 40
0.250185
  0
CIRCLE
  8
ボルト／ビス
  6
CONTINUOUS
 10
-105.342897
 20
-73.99543
 40
0.301025
  0
LINE
  8
ボルト／ビス
  6
CONTINUOUS
 62
    64
 10
-105.589205
 20
-74.039312
 11
-105.504053
 21
-73.804065
  0
LINE
  8
ボルト／ビス
  6
CONTINUOUS
 62
    64
 10
-105.257745
 20
-73.76018
 11
-105.504053
 21
-73.804065
  0
LINE
  8
ボルト／ビス
  6
CONTINUOUS
 62
    64
 10
-105.42805
 20
-74.23068
 11
-105.181743
 21
-74.186795
  0
LINE
  8
ボルト／ビス
  6
CONTINUOUS
 62
    64
 10
-105.09659
 20
-73.951548
 11
-105.181743
 21
-74.186795
  0
LINE
  8
ボルト／ビス
  6
CONTINUOUS
 62
    64
 10
-105.589205
 20
-74.039312
 11
-105.42805
 21
-74.23068
  0
LINE
  8
ボルト／ビス
  6
CONTINUOUS
 62
    64
 10
-105.257745
 20
-73.76018
 11
-105.09659
 21
-73.951548
  0
CIRCLE
  8
ボルト／ビス
  6
CONTINUOUS
 62
    64
 10
-105.342897
 20
-73.99543
 40
0.216668
  0
CIRCLE
  8
ボルト／ビス
  6
CONTINUOUS
 10
-96.85248
 20
-66.845405
 40
0.250185
  0
CIRCLE
  8
ボルト／ビス
  6
CONTINUOUS
 10
-96.85248
 20
-66.845405
 40
0.301025
  0
LINE
  8
ボルト／ビス
  6
CONTINUOUS
 62
    64
 10
-97.098787
 20
-66.889287
 11
-97.013635
 21
-66.654037
  0
LINE
  8
ボルト／ビス
  6
CONTINUOUS
 62
    64
 10
-96.767328
 20
-66.610155
 11
-97.013635
 21
-66.654037
  0
LINE
  8
ボルト／ビス
  6
CONTINUOUS
 62
    64
 10
-96.937633
 20
-67.080655
 11
-96.691323
 21
-67.036773
  0
LINE
  8
ボルト／ビス
  6
CONTINUOUS
 62
    64
 10
-96.606172
 20
-66.801525
 11
-96.691323
 21
-67.036773
  0
LINE
  8
ボルト／ビス
  6
CONTINUOUS
 62
    64
 10
-97.098787
 20
-66.889287
 11
-96.937633
 21
-67.080655
  0
LINE
  8
ボルト／ビス
  6
CONTINUOUS
 62
    64
 10
-96.767328
 20
-66.610155
 11
-96.606172
 21
-66.801525
  0
CIRCLE
  8
ボルト／ビス
  6
CONTINUOUS
 62
    64
 10
-96.85248
 20
-66.845405
 40
0.216668
  0
CIRCLE
  8
ボルト／ビス
  6
CONTINUOUS
 10
-88.36206
 20
-59.69538
 40
0.250185
  0
CIRCLE
  8
ボルト／ビス
  6
CONTINUOUS
 10
-88.36206
 20
-59.69538
 40
0.301025
  0
LINE
  8
ボルト／ビス
  6
CONTINUOUS
 62
    64
 10
-88.276908
 20
-59.46013
 11
-88.523218
 21
-59.504015
  0
LINE
  8
ボルト／ビス
  6
CONTINUOUS
 62
    64
 10
-88.60837
 20
-59.739263
 11
-88.523218
 21
-59.504015
  0
LINE
  8
ボルト／ビス
  6
CONTINUOUS
 62
    64
 10
-88.115755
 20
-59.651498
 11
-88.200905
 21
-59.886745
  0
LINE
  8
ボルト／ビス
  6
CONTINUOUS
 62
    64
 10
-88.447215
 20
-59.93063
 11
-88.200905
 21
-59.886745
  0
LINE
  8
ボルト／ビス
  6
CONTINUOUS
 62
    64
 10
-88.276908
 20
-59.46013
 11
-88.115755
 21
-59.651498
  0
LINE
  8
ボルト／ビス
  6
CONTINUOUS
 62
    64
 10
-88.60837
 20
-59.739263
 11
-88.447215
 21
-59.93063
  0
CIRCLE
  8
ボルト／ビス
  6
CONTINUOUS
 62
    64
 10
-88.36206
 20
-59.69538
 40
0.216668
  0
ENDBLK
  0
BLOCK
  2
*GRP_0023
 70
    65
 10
0.0
 20
0.0
  0
LINE
  8
補助線
  6
BYBLOCK
 62
    64
 10
-88.425805
 20
-73.94175
 11
-88.29832
 21
-74.04911
  0
LINE
  8
補助線
  6
BYBLOCK
 62
    64
 10
-88.308382
 20
-73.931685
 11
-88.415743
 21
-74.059173
  0
LINE
  8
補助線
  6
BYBLOCK
 62
    64
 10
-96.916223
 20
-66.791727
 11
-96.788738
 21
-66.899082
  0
LINE
  8
補助線
  6
BYBLOCK
 62
    64
 10
-96.7988
 20
-66.781663
 11
-96.90616
 21
-66.909145
  0
LINE
  8
補助線
  6
BYBLOCK
 62
    64
 10
-105.279158
 20
-59.749057
 11
-105.40664
 21
-59.6417
  0
LINE
  8
補助線
  6
BYBLOCK
 62
    64
 10
-105.289217
 20
-59.631635
 11
-105.396577
 21
-59.759123
  0
LINE
  8
型材断面
  6
CONTINUOUS
 10
-87.570308
 20
-73.572728
 11
-87.50993
 21
-74.277253
  0
LINE
  8
型材断面
  6
CONTINUOUS
 10
-87.50993
 20
-74.277253
 11
-87.939362
 21
-74.787187
  0
LINE
  8
型材断面
  6
CONTINUOUS
 10
-87.939362
 20
-74.787187
 11
-88.643887
 21
-74.847565
  0
LINE
  8
型材断面
  6
CONTINUOUS
 10
-105.061075
 20
-58.843247
 11
-105.7656
 21
-58.903625
  0
LINE
  8
型材断面
  6
CONTINUOUS
 10
-105.7656
 20
-58.903625
 11
-106.195032
 21
-59.41356
  0
LINE
  8
型材断面
  6
CONTINUOUS
 10
-106.195032
 20
-59.41356
 11
-106.134655
 21
-60.118085
  0
LINE
  8
型材断面
  6
CONTINUOUS
 10
-87.570308
 20
-73.572728
 11
-105.061075
 21
-58.843247
  0
LINE
  8
型材断面
  6
CONTINUOUS
 10
-88.643887
 20
-74.847565
 11
-106.134655
 21
-60.118085
  0
CIRCLE
  8
ボルト／ビス
  6
CONTINUOUS
 10
-88.362062
 20
-73.99543
 40
0.250185
  0
CIRCLE
  8
ボルト／ビス
  6
CONTINUOUS
 10
-88.362062
 20
-73.99543
 40
0.301025
  0
LINE
  8
ボルト／ビス
  6
CONTINUOUS
 62
    64
 10
-88.115755
 20
-74.039312
 11
-88.200908
 21
-73.804065
  0
LINE
  8
ボルト／ビス
  6
CONTINUOUS
 62
    64
 10
-88.447215
 20
-73.76018
 11
-88.200908
 21
-73.804065
  0
LINE
  8
ボルト／ビス
  6
CONTINUOUS
 62
    64
 10
-88.27691
 20
-74.23068
 11
-88.523218
 21
-74.186795
  0
LINE
  8
ボルト／ビス
  6
CONTINUOUS
 62
    64
 10
-88.60837
 20
-73.951548
 11
-88.523218
 21
-74.186795
  0
LINE
  8
ボルト／ビス
  6
CONTINUOUS
 62
    64
 10
-88.115755
 20
-74.039312
 11
-88.27691
 21
-74.23068
  0
LINE
  8
ボルト／ビス
  6
CONTINUOUS
 62
    64
 10
-88.447215
 20
-73.76018
 11
-88.60837
 21
-73.951548
  0
CIRCLE
  8
ボルト／ビス
  6
CONTINUOUS
 62
    64
 10
-88.362062
 20
-73.99543
 40
0.216668
  0
CIRCLE
  8
ボルト／ビス
  6
CONTINUOUS
 10
-96.85248
 20
-66.845405
 40
0.250185
  0
CIRCLE
  8
ボルト／ビス
  6
CONTINUOUS
 10
-96.85248
 20
-66.845405
 40
0.301025
  0
LINE
  8
ボルト／ビス
  6
CONTINUOUS
 62
    64
 10
-96.606172
 20
-66.889287
 11
-96.691325
 21
-66.654037
  0
LINE
  8
ボルト／ビス
  6
CONTINUOUS
 62
    64
 10
-96.937633
 20
-66.610155
 11
-96.691325
 21
-66.654037
  0
LINE
  8
ボルト／ビス
  6
CONTINUOUS
 62
    64
 10
-96.767328
 20
-67.080655
 11
-97.013638
 21
-67.036773
  0
LINE
  8
ボルト／ビス
  6
CONTINUOUS
 62
    64
 10
-97.098787
 20
-66.801525
 11
-97.013638
 21
-67.036773
  0
LINE
  8
ボルト／ビス
  6
CONTINUOUS
 62
    64
 10
-96.606172
 20
-66.889287
 11
-96.767328
 21
-67.080655
  0
LINE
  8
ボルト／ビス
  6
CONTINUOUS
 62
    64
 10
-96.937633
 20
-66.610155
 11
-97.098787
 21
-66.801525
  0
CIRCLE
  8
ボルト／ビス
  6
CONTINUOUS
 62
    64
 10
-96.85248
 20
-66.845405
 40
0.216668
  0
CIRCLE
  8
ボルト／ビス
  6
CONTINUOUS
 10
-105.3429
 20
-59.69538
 40
0.250185
  0
CIRCLE
  8
ボルト／ビス
  6
CONTINUOUS
 10
-105.3429
 20
-59.69538
 40
0.301025
  0
LINE
  8
ボルト／ビス
  6
CONTINUOUS
 62
    64
 10
-105.428053
 20
-59.46013
 11
-105.181743
 21
-59.504015
  0
LINE
  8
ボルト／ビス
  6
CONTINUOUS
 62
    64
 10
-105.09659
 20
-59.739263
 11
-105.181743
 21
-59.504015
  0
LINE
  8
ボルト／ビス
  6
CONTINUOUS
 62
    64
 10
-105.589205
 20
-59.651498
 11
-105.504055
 21
-59.886745
  0
LINE
  8
ボルト／ビス
  6
CONTINUOUS
 62
    64
 10
-105.257745
 20
-59.93063
 11
-105.504055
 21
-59.886745
  0
LINE
  8
ボルト／ビス
  6
CONTINUOUS
 62
    64
 10
-105.428053
 20
-59.46013
 11
-105.589205
 21
-59.651498
  0
LINE
  8
ボルト／ビス
  6
CONTINUOUS
 62
    64
 10
-105.09659
 20
-59.739263
 11
-105.257745
 21
-59.93063
  0
CIRCLE
  8
ボルト／ビス
  6
CONTINUOUS
 62
    64
 10
-105.3429
 20
-59.69538
 40
0.216668
  0
ENDBLK
  0
BLOCK
  2
*GRP_0024
 70
    65
 10
0.0
 20
0.0
  0
LINE
  8
補助線
  6
BYBLOCK
 62
    64
 10
54.59336
 20
-73.94175
 11
54.720845
 21
-74.04911
  0
LINE
  8
補助線
  6
BYBLOCK
 62
    64
 10
54.710782
 20
-73.931685
 11
54.603422
 21
-74.059173
  0
LINE
  8
補助線
  6
BYBLOCK
 62
    64
 10
46.102943
 20
-66.791727
 11
46.230428
 21
-66.899082
  0
LINE
  8
補助線
  6
BYBLOCK
 62
    64
 10
46.220365
 20
-66.781663
 11
46.113005
 21
-66.909145
  0
LINE
  8
補助線
  6
BYBLOCK
 62
    64
 10
37.740007
 20
-59.749057
 11
37.612525
 21
-59.6417
  0
LINE
  8
補助線
  6
BYBLOCK
 62
    64
 10
37.729947
 20
-59.631635
 11
37.622588
 21
-59.759123
  0
LINE
  8
型材断面
  6
CONTINUOUS
 10
55.448857
 20
-73.572728
 11
55.509235
 21
-74.277253
  0
LINE
  8
型材断面
  6
CONTINUOUS
 10
55.509235
 20
-74.277253
 11
55.079803
 21
-74.787187
  0
LINE
  8
型材断面
  6
CONTINUOUS
 10
55.079803
 20
-74.787187
 11
54.375278
 21
-74.847565
  0
LINE
  8
型材断面
  6
CONTINUOUS
 10
37.95809
 20
-58.843247
 11
37.253565
 21
-58.903625
  0
LINE
  8
型材断面
  6
CONTINUOUS
 10
37.253565
 20
-58.903625
 11
36.824133
 21
-59.41356
  0
LINE
  8
型材断面
  6
CONTINUOUS
 10
36.824133
 20
-59.41356
 11
36.88451
 21
-60.118085
  0
LINE
  8
型材断面
  6
CONTINUOUS
 10
55.448857
 20
-73.572728
 11
37.95809
 21
-58.843247
  0
LINE
  8
型材断面
  6
CONTINUOUS
 10
54.375278
 20
-74.847565
 11
36.88451
 21
-60.118085
  0
CIRCLE
  8
ボルト／ビス
  6
CONTINUOUS
 10
54.657102
 20
-73.99543
 40
0.250185
  0
CIRCLE
  8
ボルト／ビス
  6
CONTINUOUS
 10
54.657102
 20
-73.99543
 40
0.301025
  0
LINE
  8
ボルト／ビス
  6
CONTINUOUS
 62
    64
 10
54.90341
 20
-74.039312
 11
54.818258
 21
-73.804065
  0
LINE
  8
ボルト／ビス
  6
CONTINUOUS
 62
    64
 10
54.57195
 20
-73.76018
 11
54.818258
 21
-73.804065
  0
LINE
  8
ボルト／ビス
  6
CONTINUOUS
 62
    64
 10
54.742255
 20
-74.23068
 11
54.495947
 21
-74.186795
  0
LINE
  8
ボルト／ビス
  6
CONTINUOUS
 62
    64
 10
54.410795
 20
-73.951548
 11
54.495947
 21
-74.186795
  0
LINE
  8
ボルト／ビス
  6
CONTINUOUS
 62
    64
 10
54.90341
 20
-74.039312
 11
54.742255
 21
-74.23068
  0
LINE
  8
ボルト／ビス
  6
CONTINUOUS
 62
    64
 10
54.57195
 20
-73.76018
 11
54.410795
 21
-73.951548
  0
CIRCLE
  8
ボルト／ビス
  6
CONTINUOUS
 62
    64
 10
54.657102
 20
-73.99543
 40
0.216668
  0
CIRCLE
  8
ボルト／ビス
  6
CONTINUOUS
 10
46.166685
 20
-66.845405
 40
0.250185
  0
CIRCLE
  8
ボルト／ビス
  6
CONTINUOUS
 10
46.166685
 20
-66.845405
 40
0.301025
  0
LINE
  8
ボルト／ビス
  6
CONTINUOUS
 62
    64
 10
46.412992
 20
-66.889287
 11
46.32784
 21
-66.654037
  0
LINE
  8
ボルト／ビス
  6
CONTINUOUS
 62
    64
 10
46.081532
 20
-66.610155
 11
46.32784
 21
-66.654037
  0
LINE
  8
ボルト／ビス
  6
CONTINUOUS
 62
    64
 10
46.251837
 20
-67.080655
 11
46.005528
 21
-67.036773
  0
LINE
  8
ボルト／ビス
  6
CONTINUOUS
 62
    64
 10
45.920377
 20
-66.801525
 11
46.005528
 21
-67.036773
  0
LINE
  8
ボルト／ビス
  6
CONTINUOUS
 62
    64
 10
46.412992
 20
-66.889287
 11
46.251837
 21
-67.080655
  0
LINE
  8
ボルト／ビス
  6
CONTINUOUS
 62
    64
 10
46.081532
 20
-66.610155
 11
45.920377
 21
-66.801525
  0
CIRCLE
  8
ボルト／ビス
  6
CONTINUOUS
 62
    64
 10
46.166685
 20
-66.845405
 40
0.216668
  0
CIRCLE
  8
ボルト／ビス
  6
CONTINUOUS
 10
37.676265
 20
-59.69538
 40
0.250185
  0
CIRCLE
  8
ボルト／ビス
  6
CONTINUOUS
 10
37.676265
 20
-59.69538
 40
0.301025
  0
LINE
  8
ボルト／ビス
  6
CONTINUOUS
 62
    64
 10
37.591113
 20
-59.46013
 11
37.837422
 21
-59.504015
  0
LINE
  8
ボルト／ビス
  6
CONTINUOUS
 62
    64
 10
37.922575
 20
-59.739263
 11
37.837422
 21
-59.504015
  0
LINE
  8
ボルト／ビス
  6
CONTINUOUS
 62
    64
 10
37.42996
 20
-59.651498
 11
37.51511
 21
-59.886745
  0
LINE
  8
ボルト／ビス
  6
CONTINUOUS
 62
    64
 10
37.76142
 20
-59.93063
 11
37.51511
 21
-59.886745
  0
LINE
  8
ボルト／ビス
  6
CONTINUOUS
 62
    64
 10
37.591113
 20
-59.46013
 11
37.42996
 21
-59.651498
  0
LINE
  8
ボルト／ビス
  6
CONTINUOUS
 62
    64
 10
37.922575
 20
-59.739263
 11
37.76142
 21
-59.93063
  0
CIRCLE
  8
ボルト／ビス
  6
CONTINUOUS
 62
    64
 10
37.676265
 20
-59.69538
 40
0.216668
  0
ENDBLK
  0
BLOCK
  2
*GRP_0025
 70
    65
 10
0.0
 20
0.0
  0
LINE
  8
補助線
  6
BYBLOCK
 62
    64
 10
37.74001
 20
-73.94175
 11
37.612525
 21
-74.04911
  0
LINE
  8
補助線
  6
BYBLOCK
 62
    64
 10
37.622588
 20
-73.931685
 11
37.729947
 21
-74.059173
  0
LINE
  8
補助線
  6
BYBLOCK
 62
    64
 10
46.230428
 20
-66.791727
 11
46.102943
 21
-66.899082
  0
LINE
  8
補助線
  6
BYBLOCK
 62
    64
 10
46.113005
 20
-66.781663
 11
46.220365
 21
-66.909145
  0
LINE
  8
補助線
  6
BYBLOCK
 62
    64
 10
54.593362
 20
-59.749057
 11
54.720845
 21
-59.6417
  0
LINE
  8
補助線
  6
BYBLOCK
 62
    64
 10
54.603422
 20
-59.631635
 11
54.710782
 21
-59.759123
  0
LINE
  8
型材断面
  6
CONTINUOUS
 10
36.884512
 20
-73.572728
 11
36.824135
 21
-74.277253
  0
LINE
  8
型材断面
  6
CONTINUOUS
 10
36.824135
 20
-74.277253
 11
37.253567
 21
-74.787187
  0
LINE
  8
型材断面
  6
CONTINUOUS
 10
37.253567
 20
-74.787187
 11
37.958093
 21
-74.847565
  0
LINE
  8
型材断面
  6
CONTINUOUS
 10
54.37528
 20
-58.843247
 11
55.079805
 21
-58.903625
  0
LINE
  8
型材断面
  6
CONTINUOUS
 10
55.079805
 20
-58.903625
 11
55.509238
 21
-59.41356
  0
LINE
  8
型材断面
  6
CONTINUOUS
 10
55.509238
 20
-59.41356
 11
55.44886
 21
-60.118085
  0
LINE
  8
型材断面
  6
CONTINUOUS
 10
36.884512
 20
-73.572728
 11
54.37528
 21
-58.843247
  0
LINE
  8
型材断面
  6
CONTINUOUS
 10
37.958093
 20
-74.847565
 11
55.44886
 21
-60.118085
  0
CIRCLE
  8
ボルト／ビス
  6
CONTINUOUS
 10
37.676267
 20
-73.99543
 40
0.250185
  0
CIRCLE
  8
ボルト／ビス
  6
CONTINUOUS
 10
37.676267
 20
-73.99543
 40
0.301025
  0
LINE
  8
ボルト／ビス
  6
CONTINUOUS
 62
    64
 10
37.42996
 20
-74.039312
 11
37.515113
 21
-73.804065
  0
LINE
  8
ボルト／ビス
  6
CONTINUOUS
 62
    64
 10
37.76142
 20
-73.76018
 11
37.515113
 21
-73.804065
  0
LINE
  8
ボルト／ビス
  6
CONTINUOUS
 62
    64
 10
37.591115
 20
-74.23068
 11
37.837422
 21
-74.186795
  0
LINE
  8
ボルト／ビス
  6
CONTINUOUS
 62
    64
 10
37.922575
 20
-73.951548
 11
37.837422
 21
-74.186795
  0
LINE
  8
ボルト／ビス
  6
CONTINUOUS
 62
    64
 10
37.42996
 20
-74.039312
 11
37.591115
 21
-74.23068
  0
LINE
  8
ボルト／ビス
  6
CONTINUOUS
 62
    64
 10
37.76142
 20
-73.76018
 11
37.922575
 21
-73.951548
  0
CIRCLE
  8
ボルト／ビス
  6
CONTINUOUS
 62
    64
 10
37.676267
 20
-73.99543
 40
0.216668
  0
CIRCLE
  8
ボルト／ビス
  6
CONTINUOUS
 10
46.166685
 20
-66.845405
 40
0.250185
  0
CIRCLE
  8
ボルト／ビス
  6
CONTINUOUS
 10
46.166685
 20
-66.845405
 40
0.301025
  0
LINE
  8
ボルト／ビス
  6
CONTINUOUS
 62
    64
 10
45.920377
 20
-66.889287
 11
46.00553
 21
-66.654037
  0
LINE
  8
ボルト／ビス
  6
CONTINUOUS
 62
    64
 10
46.251837
 20
-66.610155
 11
46.00553
 21
-66.654037
  0
LINE
  8
ボルト／ビス
  6
CONTINUOUS
 62
    64
 10
46.081532
 20
-67.080655
 11
46.327843
 21
-67.036773
  0
LINE
  8
ボルト／ビス
  6
CONTINUOUS
 62
    64
 10
46.412992
 20
-66.801525
 11
46.327843
 21
-67.036773
  0
LINE
  8
ボルト／ビス
  6
CONTINUOUS
 62
    64
 10
45.920377
 20
-66.889287
 11
46.081532
 21
-67.080655
  0
LINE
  8
ボルト／ビス
  6
CONTINUOUS
 62
    64
 10
46.251837
 20
-66.610155
 11
46.412992
 21
-66.801525
  0
CIRCLE
  8
ボルト／ビス
  6
CONTINUOUS
 62
    64
 10
46.166685
 20
-66.845405
 40
0.216668
  0
CIRCLE
  8
ボルト／ビス
  6
CONTINUOUS
 10
54.657105
 20
-59.69538
 40
0.250185
  0
CIRCLE
  8
ボルト／ビス
  6
CONTINUOUS
 10
54.657105
 20
-59.69538
 40
0.301025
  0
LINE
  8
ボルト／ビス
  6
CONTINUOUS
 62
    64
 10
54.742258
 20
-59.46013
 11
54.495947
 21
-59.504015
  0
LINE
  8
ボルト／ビス
  6
CONTINUOUS
 62
    64
 10
54.410795
 20
-59.739263
 11
54.495947
 21
-59.504015
  0
LINE
  8
ボルト／ビス
  6
CONTINUOUS
 62
    64
 10
54.90341
 20
-59.651498
 11
54.81826
 21
-59.886745
  0
LINE
  8
ボルト／ビス
  6
CONTINUOUS
 62
    64
 10
54.57195
 20
-59.93063
 11
54.81826
 21
-59.886745
  0
LINE
  8
ボルト／ビス
  6
CONTINUOUS
 62
    64
 10
54.742258
 20
-59.46013
 11
54.90341
 21
-59.651498
  0
LINE
  8
ボルト／ビス
  6
CONTINUOUS
 62
    64
 10
54.410795
 20
-59.739263
 11
54.57195
 21
-59.93063
  0
CIRCLE
  8
ボルト／ビス
  6
CONTINUOUS
 62
    64
 10
54.657105
 20
-59.69538
 40
0.216668
  0
ENDBLK
  0
BLOCK
  2
*DIM_0026
 70
    65
 10
0.0
 20
0.0
  0
LINE
  8
寸法
  6
CONTINUOUS
 10
153.076993
 20
-46.194145
 11
120.810325
 21
-46.194145
  0
POINT
  8
寸法
 10
153.076993
 20
-46.194145
  0
POINT
  8
寸法
 10
120.810325
 20
-46.194145
  0
TEXT
  7
TextStyle03
  8
寸法
  6
CONTINUOUS
 10
134.4875
 20
-45.825
  1
968
 40
3.0
 72
     5
 11
139.3625
 21
-45.825
  0
ENDBLK
  0
BLOCK
  2
*DIM_0027
 70
    65
 10
0.0
 20
0.0
  0
LINE
  8
寸法
  6
BYBLOCK
 62
     0
 10
71.225683
 20
-68.344237
 11
71.225683
 21
-56.67757
  0
POINT
  8
寸法
 62
     0
 10
71.225683
 20
-68.344237
  0
POINT
  8
寸法
 62
     0
 10
71.225683
 20
-56.67757
  0
TEXT
  7
TextStyle03
  8
寸法
  6
CONTINUOUS
 62
     0
 10
70.85
 20
-54.71875
  1
上昇319以上
 40
3.0
 50
90.0
 72
     5
 11
70.85
 21
-36.53125
  0
ENDBLK
  0
ENDSEC
  0
SECTION
  2
ENTITIES
  0
POLYLINE
  8
通り芯
  6
CONTINUOUS
 66
     1
 70
     1
  0
VERTEX
  8
通り芯
 10
-210.0
 20
-148.5
  0
VERTEX
  8
通り芯
 10
210.0
 20
-148.5
  0
VERTEX
  8
通り芯
 10
210.0
 20
148.5
  0
VERTEX
  8
通り芯
 10
-210.0
 20
148.5
  0
SEQEND
  0
INSERT
  2
*GRP_0001
  8
型材断面
  6
CONTINUOUS
 10
0.0
 20
0.0
  0
LINE
  8
型材断面
  6
DASHDOT
 10
57.990438
 20
-77.836442
 11
57.990438
 21
52.814033
  0
LINE
  8
型材断面
  6
DASHDOT
 10
-25.342895
 20
-77.836442
 11
-25.342895
 21
52.814033
  0
LINE
  8
型材断面
  6
DASHDOT
 10
-108.676228
 20
-77.836442
 11
-108.676228
 21
52.814033
  0
LINE
  8
型材断面
  6
DASHDOT
 10
155.6672
 20
52.814033
 11
-108.676228
 21
52.814033
  0
LINE
  8
型材断面
  6
DASHDOT
 10
155.6672
 20
37.814033
 11
-108.676228
 21
37.814033
  0
LINE
  8
型材断面
  6
DASHDOT
 10
155.6672
 20
22.814033
 11
-108.676228
 21
22.814033
  0
POLYLINE
  8
型材断面
  6
CONTINUOUS
 66
     1
 70
     1
  0
VERTEX
  8
型材断面
 10
-16.01484
 20
13.03811
  0
VERTEX
  8
型材断面
 10
-34.78677
 20
13.03811
  0
VERTEX
  8
型材断面
 10
-34.78677
 20
8.301267
  0
VERTEX
  8
型材断面
 10
-16.01484
 20
8.301267
  0
SEQEND
  0
POLYLINE
  8
型材断面
  6
CONTINUOUS
 66
     1
 70
     1
  0
VERTEX
  8
型材断面
 10
-16.01484
 20
62.589955
  0
VERTEX
  8
型材断面
 10
-34.78677
 20
62.589955
  0
VERTEX
  8
型材断面
 10
-34.78677
 20
67.326798
  0
VERTEX
  8
型材断面
 10
-16.01484
 20
67.326798
  0
SEQEND
  0
LINE
  8
型材断面
  6
CONTINUOUS
 10
-92.00956
 20
55.444162
 11
-93.50519
 21
58.03467
  0
LINE
  8
型材断面
  6
CONTINUOUS
 10
-92.00956
 20
55.444162
 11
-90.51393
 21
58.03467
  0
LINE
  8
型材断面
  6
CONTINUOUS
 10
-90.51393
 20
58.03467
 11
-93.50519
 21
58.03467
  0
LINE
  8
型材断面
  6
CONTINUOUS
 10
-149.528435
 20
90.791505
 11
-148.93238
 21
88.200998
  0
LINE
  8
型材断面
  6
CONTINUOUS
 10
-149.528435
 20
90.791505
 11
-150.124493
 21
88.200998
  0
LINE
  8
型材断面
  6
CONTINUOUS
 10
-150.124493
 20
88.200998
 11
-148.93238
 21
88.200998
  0
LINE
  8
型材断面
  6
CONTINUOUS
 10
-155.551022
 20
84.922105
 11
-109.309245
 21
84.922105
  0
LINE
  8
型材断面
  6
CONTINUOUS
 10
-149.528435
 20
97.32138
 11
-151.024065
 21
94.730873
  0
LINE
  8
型材断面
  6
CONTINUOUS
 10
-149.528435
 20
97.32138
 11
-148.032805
 21
94.730873
  0
LINE
  8
型材断面
  6
CONTINUOUS
 10
-148.032805
 20
94.730873
 11
-151.024065
 21
94.730873
  0
LINE
  8
型材断面
  6
CONTINUOUS
 10
-155.551022
 20
93.792277
 11
-109.309245
 21
93.792277
  0
LINE
  8
型材断面
  6
CONTINUOUS
 10
-155.551022
 20
79.134073
 11
-109.309245
 21
79.134073
  0
LINE
  8
型材断面
  6
CONTINUOUS
 10
-111.306358
 20
37.814033
 11
-113.896865
 21
39.309663
  0
LINE
  8
型材断面
  6
CONTINUOUS
 10
-111.306358
 20
37.814033
 11
-113.896865
 21
36.318403
  0
LINE
  8
型材断面
  6
CONTINUOUS
 10
-113.896865
 20
36.318403
 11
-113.896865
 21
39.309663
  0
LINE
  8
型材断面
  6
CONTINUOUS
 10
-92.00956
 20
20.183902
 11
-93.50519
 21
17.593395
  0
LINE
  8
型材断面
  6
CONTINUOUS
 10
-92.00956
 20
20.183902
 11
-90.51393
 21
17.593395
  0
LINE
  8
型材断面
  6
CONTINUOUS
 10
-90.51393
 20
17.593395
 11
-93.50519
 21
17.593395
  0
LINE
  8
型材断面
  6
CONTINUOUS
 10
41.32377
 20
55.444162
 11
42.8194
 21
58.03467
  0
LINE
  8
型材断面
  6
CONTINUOUS
 10
41.32377
 20
55.444162
 11
39.82814
 21
58.03467
  0
LINE
  8
型材断面
  6
CONTINUOUS
 10
39.82814
 20
58.03467
 11
42.8194
 21
58.03467
  0
LINE
  8
型材断面
  6
CONTINUOUS
 10
60.620567
 20
37.814033
 11
63.211075
 21
39.309663
  0
LINE
  8
型材断面
  6
CONTINUOUS
 10
60.620567
 20
37.814033
 11
63.211075
 21
36.318403
  0
LINE
  8
型材断面
  6
CONTINUOUS
 10
63.211075
 20
36.318403
 11
63.211075
 21
39.309663
  0
LINE
  8
型材断面
  6
CONTINUOUS
 10
41.32377
 20
20.183902
 11
42.8194
 21
17.593395
  0
LINE
  8
型材断面
  6
CONTINUOUS
 10
41.32377
 20
20.183902
 11
39.82814
 21
17.593395
  0
LINE
  8
型材断面
  6
CONTINUOUS
 10
39.82814
 20
17.593395
 11
42.8194
 21
17.593395
  0
LINE
  8
型材断面
  6
CONTINUOUS
 10
-25.342895
 20
55.44416
 11
-23.847265
 21
58.034668
  0
LINE
  8
型材断面
  6
CONTINUOUS
 10
-25.342895
 20
55.44416
 11
-26.838525
 21
58.034668
  0
LINE
  8
型材断面
  6
CONTINUOUS
 10
-26.838525
 20
58.034668
 11
-23.847265
 21
58.034668
  0
LINE
  8
型材断面
  6
CONTINUOUS
 10
-25.342895
 20
20.1839
 11
-23.847265
 21
17.593392
  0
LINE
  8
型材断面
  6
CONTINUOUS
 10
-25.342895
 20
20.1839
 11
-26.838525
 21
17.593392
  0
LINE
  8
型材断面
  6
CONTINUOUS
 10
-26.838525
 20
17.593392
 11
-23.847265
 21
17.593392
  0
LINE
  8
型材断面
  6
CONTINUOUS
 10
60.620567
 20
49.114035
 11
63.211077
 21
48.517982
  0
LINE
  8
型材断面
  6
CONTINUOUS
 10
60.620567
 20
49.114035
 11
63.211075
 21
49.710095
  0
LINE
  8
型材断面
  6
CONTINUOUS
 10
63.211075
 20
49.710095
 11
63.211077
 21
48.517982
  0
LINE
  8
型材断面
  6
CONTINUOUS
 10
60.620567
 20
26.51403
 11
63.211077
 21
27.110082
  0
LINE
  8
型材断面
  6
CONTINUOUS
 10
60.620567
 20
26.51403
 11
63.211075
 21
25.91797
  0
LINE
  8
型材断面
  6
CONTINUOUS
 10
63.211075
 20
25.91797
 11
63.211077
 21
27.110082
  0
LINE
  8
型材断面
  6
CONTINUOUS
 10
-111.306358
 20
49.114035
 11
-113.896868
 21
48.517982
  0
LINE
  8
型材断面
  6
CONTINUOUS
 10
-111.306358
 20
49.114035
 11
-113.896865
 21
49.710095
  0
LINE
  8
型材断面
  6
CONTINUOUS
 10
-113.896865
 20
49.710095
 11
-113.896868
 21
48.517982
  0
LINE
  8
型材断面
  6
CONTINUOUS
 10
-111.306358
 20
26.51403
 11
-113.896868
 21
27.110082
  0
LINE
  8
型材断面
  6
CONTINUOUS
 10
-111.306358
 20
26.51403
 11
-113.896865
 21
25.91797
  0
LINE
  8
型材断面
  6
CONTINUOUS
 10
-113.896865
 20
25.91797
 11
-113.896868
 21
27.110082
  0
LINE
  8
型材断面
  6
CONTINUOUS
 10
-110.659412
 20
20.830853
 11
-25.342895
 21
20.830853
  0
LINE
  8
型材断面
  6
CONTINUOUS
 10
-110.659412
 20
54.797213
 11
-25.342895
 21
54.797213
  0
LINE
  8
型材断面
  6
CONTINUOUS
 10
59.973623
 20
54.797213
 11
-25.342895
 21
54.797213
  0
LINE
  8
型材断面
  6
CONTINUOUS
 10
59.973623
 20
20.830853
 11
-25.342895
 21
20.830853
  0
LINE
  8
型材断面
  6
CONTINUOUS
 10
-155.551022
 20
73.34604
 11
-109.309245
 21
73.34604
  0
ARC
  8
型材断面
  6
CONTINUOUS
 62
    47
 10
150.879835
 20
20.830698
 40
0.016668
 50
179.999123
 51
270.0
  0
ARC
  8
型材断面
  6
CONTINUOUS
 62
    47
 10
150.919837
 20
20.824032
 40
0.010002
 50
270.0
 51
359.791626
  0
LINE
  8
型材断面
  6
CONTINUOUS
 62
    47
 10
151.096558
 20
20.864035
 11
151.096558
 21
21.714183
  0
LINE
  8
型材断面
  6
CONTINUOUS
 62
    47
 10
150.86317
 20
20.830697
 11
148.75651
 21
20.830697
  0
LINE
  8
型材断面
  6
CONTINUOUS
 62
    47
 10
151.096558
 20
20.830703
 11
154.413225
 21
20.830703
  0
LINE
  8
型材断面
  6
CONTINUOUS
 62
    47
 10
154.913225
 20
21.330703
 11
154.413225
 21
21.330703
  0
LINE
  8
型材断面
  6
CONTINUOUS
 62
    47
 10
148.75651
 20
21.714038
 11
148.42984
 21
21.714038
  0
LINE
  8
型材断面
  6
CONTINUOUS
 62
    47
 10
150.879835
 20
20.814035
 11
150.919495
 21
20.814035
  0
ARC
  8
型材断面
  6
CONTINUOUS
 62
    47
 10
150.879835
 20
54.79737
 40
0.016668
 50
90.0
 51
180.000877
  0
ARC
  8
型材断面
  6
CONTINUOUS
 62
    47
 10
150.919837
 20
54.804036
 40
0.010002
 50
0.208374
 51
90.0
  0
LINE
  8
型材断面
  6
CONTINUOUS
 62
    47
 10
151.096558
 20
54.764033
 11
151.096558
 21
53.913885
  0
LINE
  8
型材断面
  6
CONTINUOUS
 62
    47
 10
150.86317
 20
54.79737
 11
148.75651
 21
54.79737
  0
LINE
  8
型材断面
  6
CONTINUOUS
 62
    47
 10
151.096558
 20
54.797365
 11
154.413225
 21
54.797365
  0
LINE
  8
型材断面
  6
CONTINUOUS
 62
    47
 10
154.913225
 20
54.297365
 11
154.413225
 21
54.297365
  0
LINE
  8
型材断面
  6
CONTINUOUS
 62
    47
 10
148.75651
 20
53.91403
 11
148.42984
 21
53.91403
  0
LINE
  8
型材断面
  6
CONTINUOUS
 62
    47
 10
150.879835
 20
54.814033
 11
150.919495
 21
54.814033
  0
LINE
  8
型材断面
  6
CONTINUOUS
 10
146.763175
 20
54.214033
 11
146.763175
 21
37.814033
  0
LINE
  8
型材断面
  6
CONTINUOUS
 10
146.92984
 20
54.370552
 11
146.92984
 21
37.814033
  0
LINE
  8
型材断面
  6
CONTINUOUS
 10
148.42984
 20
54.214033
 11
148.42984
 21
37.814033
  0
LINE
  8
型材断面
  6
CONTINUOUS
 10
148.75651
 20
54.79737
 11
148.75651
 21
37.814033
  0
LINE
  8
型材断面
  6
CONTINUOUS
 10
150.92984
 20
54.804035
 11
150.92984
 21
37.814033
  0
LINE
  8
型材断面
  6
CONTINUOUS
 10
151.096558
 20
54.797365
 11
151.096558
 21
37.814033
  0
LINE
  8
型材断面
  6
CONTINUOUS
 10
154.413225
 20
54.797365
 11
154.413225
 21
37.814033
  0
LINE
  8
型材断面
  6
CONTINUOUS
 10
154.913225
 20
54.297365
 11
154.913225
 21
37.814033
  0
LINE
  8
型材断面
  6
CONTINUOUS
 10
154.913225
 20
21.330703
 11
154.913225
 21
37.814033
  0
LINE
  8
型材断面
  6
CONTINUOUS
 10
154.413225
 20
20.830703
 11
154.413225
 21
37.814033
  0
LINE
  8
型材断面
  6
CONTINUOUS
 10
150.92984
 20
20.824033
 11
150.92984
 21
37.814033
  0
LINE
  8
型材断面
  6
CONTINUOUS
 10
151.096558
 20
20.830703
 11
151.096558
 21
37.814033
  0
LINE
  8
型材断面
  6
CONTINUOUS
 10
148.75651
 20
20.830697
 11
148.75651
 21
37.814033
  0
LINE
  8
型材断面
  6
CONTINUOUS
 10
148.42984
 20
21.414035
 11
148.42984
 21
37.814033
  0
LINE
  8
型材断面
  6
CONTINUOUS
 10
146.92984
 20
21.257512
 11
146.92984
 21
37.814033
  0
LINE
  8
型材断面
  6
CONTINUOUS
 10
146.763175
 20
21.414035
 11
146.763175
 21
37.814033
  0
ARC
  8
型材断面
  6
CONTINUOUS
 62
    47
 10
-110.659567
 20
-72.460901
 40
0.016668
 50
89.999123
 51
180.0
  0
ARC
  8
型材断面
  6
CONTINUOUS
 62
    47
 10
-110.666233
 20
-72.500902
 40
0.010002
 50
180.0
 51
269.791626
  0
LINE
  8
型材断面
  6
CONTINUOUS
 62
    47
 10
-110.626228
 20
-72.677622
 11
-109.776083
 21
-72.677622
  0
LINE
  8
型材断面
  6
CONTINUOUS
 62
    47
 10
-110.659567
 20
-72.444232
 11
-110.659567
 21
-70.337572
  0
LINE
  8
型材断面
  6
CONTINUOUS
 62
    47
 10
-110.659562
 20
-72.677622
 11
-110.659562
 21
-75.994287
  0
LINE
  8
型材断面
  6
CONTINUOUS
 62
    47
 10
-110.159562
 20
-76.494287
 11
-110.159562
 21
-75.994287
  0
LINE
  8
型材断面
  6
CONTINUOUS
 62
    47
 10
-109.776228
 20
-70.337572
 11
-109.776228
 21
-70.010905
  0
LINE
  8
型材断面
  6
CONTINUOUS
 62
    47
 10
-110.676228
 20
-72.4609
 11
-110.676228
 21
-72.50056
  0
ARC
  8
型材断面
  6
CONTINUOUS
 62
    47
 10
59.973773
 20
-72.460901
 40
0.016668
 50
0.0
 51
90.000877
  0
ARC
  8
型材断面
  6
CONTINUOUS
 62
    47
 10
59.980439
 20
-72.500902
 40
0.010002
 50
270.208374
 51
360.0
  0
LINE
  8
型材断面
  6
CONTINUOUS
 62
    47
 10
59.940435
 20
-72.677622
 11
59.090287
 21
-72.677622
  0
LINE
  8
型材断面
  6
CONTINUOUS
 62
    47
 10
59.973773
 20
-72.444232
 11
59.973773
 21
-70.337572
  0
LINE
  8
型材断面
  6
CONTINUOUS
 62
    47
 10
59.973768
 20
-72.677622
 11
59.973768
 21
-75.994287
  0
LINE
  8
型材断面
  6
CONTINUOUS
 62
    47
 10
59.473768
 20
-76.494287
 11
59.473768
 21
-75.994287
  0
LINE
  8
型材断面
  6
CONTINUOUS
 62
    47
 10
59.090432
 20
-70.337572
 11
59.090432
 21
-70.010905
  0
LINE
  8
型材断面
  6
CONTINUOUS
 62
    47
 10
59.990435
 20
-72.4609
 11
59.990435
 21
-72.50056
  0
LINE
  8
型材断面
  6
CONTINUOUS
 10
-110.076228
 20
-68.344237
 11
-25.342897
 21
-68.344237
  0
LINE
  8
型材断面
  6
CONTINUOUS
 10
-110.23275
 20
-68.510905
 11
-25.342897
 21
-68.510905
  0
LINE
  8
型材断面
  6
CONTINUOUS
 10
-110.076228
 20
-70.010905
 11
-25.342897
 21
-70.010905
  0
LINE
  8
型材断面
  6
CONTINUOUS
 10
-110.659567
 20
-70.337572
 11
-25.342897
 21
-70.337572
  0
LINE
  8
型材断面
  6
CONTINUOUS
 10
-110.659562
 20
-72.677622
 11
-25.342897
 21
-72.677622
  0
LINE
  8
型材断面
  6
CONTINUOUS
 10
-110.666233
 20
-72.510905
 11
-25.342897
 21
-72.510905
  0
LINE
  8
型材断面
  6
CONTINUOUS
 10
-110.159562
 20
-76.494287
 11
-25.342897
 21
-76.494287
  0
LINE
  8
型材断面
  6
CONTINUOUS
 10
-110.659562
 20
-75.994287
 11
-25.342897
 21
-75.994287
  0
LINE
  8
型材断面
  6
CONTINUOUS
 10
59.390435
 20
-68.344237
 11
-25.342897
 21
-68.344237
  0
LINE
  8
型材断面
  6
CONTINUOUS
 10
59.546957
 20
-68.510905
 11
-25.342897
 21
-68.510905
  0
LINE
  8
型材断面
  6
CONTINUOUS
 10
59.390435
 20
-70.010905
 11
-25.342897
 21
-70.010905
  0
LINE
  8
型材断面
  6
CONTINUOUS
 10
59.973773
 20
-70.337572
 11
-25.342897
 21
-70.337572
  0
LINE
  8
型材断面
  6
CONTINUOUS
 10
59.973768
 20
-72.677622
 11
-25.342897
 21
-72.677622
  0
LINE
  8
型材断面
  6
CONTINUOUS
 10
59.980437
 20
-72.510905
 11
-25.342897
 21
-72.510905
  0
LINE
  8
型材断面
  6
CONTINUOUS
 10
59.973768
 20
-75.994287
 11
-25.342897
 21
-75.994287
  0
LINE
  8
型材断面
  6
CONTINUOUS
 10
59.473768
 20
-76.494287
 11
-25.342897
 21
-76.494287
  0
ARC
  8
型材断面
  6
DOT
 62
    47
 10
-110.659567
 20
-60.794234
 40
0.016668
 50
89.999123
 51
180.0
  0
ARC
  8
型材断面
  6
DOT
 62
    47
 10
-110.666233
 20
-60.834236
 40
0.010002
 50
180.0
 51
269.791626
  0
LINE
  8
型材断面
  6
DOT
 62
    47
 10
-110.659567
 20
-60.777565
 11
-110.659567
 21
-58.670905
  0
LINE
  8
型材断面
  6
DOT
 62
    47
 10
-109.776228
 20
-58.670905
 11
-109.776228
 21
-58.344237
  0
LINE
  8
型材断面
  6
DOT
 62
    47
 10
-110.676228
 20
-60.794233
 11
-110.676228
 21
-60.833893
  0
ARC
  8
型材断面
  6
DOT
 62
    47
 10
59.973773
 20
-60.794234
 40
0.016668
 50
0.0
 51
90.000877
  0
ARC
  8
型材断面
  6
DOT
 62
    47
 10
59.980439
 20
-60.834236
 40
0.010002
 50
270.208374
 51
360.0
  0
LINE
  8
型材断面
  6
DOT
 62
    47
 10
59.973773
 20
-60.777565
 11
59.973773
 21
-58.670905
  0
LINE
  8
型材断面
  6
DOT
 62
    47
 10
59.090432
 20
-58.670905
 11
59.090432
 21
-58.344237
  0
LINE
  8
型材断面
  6
DOT
 62
    47
 10
59.990435
 20
-60.794233
 11
59.990435
 21
-60.833893
  0
LINE
  8
型材断面
  6
DOT
 10
-110.076228
 20
-56.67757
 11
-25.342897
 21
-56.67757
  0
LINE
  8
型材断面
  6
DOT
 10
-110.23275
 20
-56.844237
 11
-25.342897
 21
-56.844237
  0
LINE
  8
型材断面
  6
DOT
 10
-110.076228
 20
-58.344237
 11
-25.342897
 21
-58.344237
  0
LINE
  8
型材断面
  6
DOT
 10
-110.666233
 20
-60.844237
 11
-25.342897
 21
-60.844237
  0
LINE
  8
型材断面
  6
DOT
 10
-110.659567
 20
-58.670905
 11
-25.342897
 21
-58.670905
  0
LINE
  8
型材断面
  6
DOT
 10
59.390435
 20
-58.344237
 11
-25.342897
 21
-58.344237
  0
LINE
  8
型材断面
  6
DOT
 10
59.546957
 20
-56.844237
 11
-25.342897
 21
-56.844237
  0
LINE
  8
型材断面
  6
DOT
 10
59.390435
 20
-56.67757
 11
-25.342897
 21
-56.67757
  0
LINE
  8
型材断面
  6
DOT
 10
59.973773
 20
-58.670905
 11
-25.342897
 21
-58.670905
  0
LINE
  8
型材断面
  6
DOT
 10
59.980437
 20
-60.844237
 11
-25.342897
 21
-60.844237
  0
INSERT
  2
*GRP_0022
  8
型材断面
  6
CONTINUOUS
 10
0.0
 20
0.0
  0
INSERT
  2
*GRP_0023
  8
型材断面
  6
CONTINUOUS
 10
0.0
 20
0.0
  0
INSERT
  2
*GRP_0024
  8
型材断面
  6
CONTINUOUS
 10
0.0
 20
0.0
  0
INSERT
  2
*GRP_0025
  8
型材断面
  6
CONTINUOUS
 10
0.0
 20
0.0
  0
LINE
  8
型材断面
  6
DASHDOT
 10
-75.492893
 20
22.814033
 11
-75.492893
 21
52.814033
  0
LINE
  8
型材断面
  6
DASHDOT
 10
-42.059558
 20
22.814033
 11
-42.059558
 21
52.814033
  0
LINE
  8
型材断面
  6
DASHDOT
 10
24.807102
 20
22.814033
 11
24.807102
 21
52.814033
  0
LINE
  8
型材断面
  6
DASHDOT
 10
-8.626232
 20
22.814033
 11
-8.626232
 21
52.814033
  0
LINE
  8
型材断面
  6
CONTINUOUS
 10
8.507102
 20
23.757512
 11
40.982102
 21
23.757512
  0
LINE
  8
型材断面
  6
CONTINUOUS
 10
8.507102
 20
51.870552
 11
40.982102
 21
51.870552
  0
LINE
  8
型材断面
  6
CONTINUOUS
 10
-24.926232
 20
51.870552
 11
7.673768
 21
51.870552
  0
LINE
  8
型材断面
  6
CONTINUOUS
 10
-24.926232
 20
23.757512
 11
7.673768
 21
23.757512
  0
LINE
  8
型材断面
  6
CONTINUOUS
 10
-58.359558
 20
23.757512
 11
-25.759567
 21
23.757512
  0
LINE
  8
型材断面
  6
CONTINUOUS
 10
-58.359558
 20
51.870552
 11
-25.759567
 21
51.870552
  0
LINE
  8
型材断面
  6
CONTINUOUS
 10
-91.667893
 20
51.870552
 11
-59.192893
 21
51.870552
  0
LINE
  8
型材断面
  6
CONTINUOUS
 10
-91.667893
 20
23.757512
 11
-59.192893
 21
23.757512
  0
LINE
  8
型材断面
  6
CONTINUOUS
 10
26.057102
 20
24.590845
 11
26.057102
 21
51.03722
  0
LINE
  8
型材断面
  6
CONTINUOUS
 10
23.557102
 20
24.590845
 11
23.557102
 21
51.03722
  0
LINE
  8
型材断面
  6
CONTINUOUS
 10
-7.376232
 20
24.590845
 11
-7.376232
 21
51.03722
  0
LINE
  8
型材断面
  6
CONTINUOUS
 10
-9.876232
 20
24.590845
 11
-9.876232
 21
51.03722
  0
LINE
  8
型材断面
  6
CONTINUOUS
 10
-76.742893
 20
24.590845
 11
-76.742893
 21
51.03722
  0
LINE
  8
型材断面
  6
CONTINUOUS
 10
-74.242893
 20
24.590845
 11
-74.242893
 21
51.03722
  0
LINE
  8
型材断面
  6
CONTINUOUS
 10
-43.309558
 20
24.590845
 11
-43.309558
 21
51.03722
  0
LINE
  8
型材断面
  6
CONTINUOUS
 10
-40.809558
 20
24.590845
 11
-40.809558
 21
51.03722
  0
LINE
  8
型材断面
  6
CONTINUOUS
 10
59.973623
 20
54.797213
 11
59.973623
 21
37.814033
  0
LINE
  8
型材断面
  6
CONTINUOUS
 10
59.973623
 20
20.830853
 11
59.973623
 21
37.814033
  0
LINE
  8
型材断面
  6
CONTINUOUS
 10
59.546957
 20
37.397365
 11
57.046957
 21
37.397365
  0
LINE
  8
型材断面
  6
CONTINUOUS
 10
59.546957
 20
38.2307
 11
57.046957
 21
38.2307
  0
LINE
  8
型材断面
  6
CONTINUOUS
 10
59.31126
 20
21.25751
 11
59.546957
 21
21.493217
  0
LINE
  8
型材断面
  6
CONTINUOUS
 10
59.973623
 20
20.830853
 11
59.42911
 21
21.375365
  0
LINE
  8
型材断面
  6
CONTINUOUS
 10
57.046957
 20
37.397365
 11
57.046957
 21
23.993212
  0
LINE
  8
型材断面
  6
CONTINUOUS
 10
57.046957
 20
23.993212
 11
56.811257
 21
23.757512
  0
LINE
  8
型材断面
  6
CONTINUOUS
 10
56.811255
 20
23.75751
 11
59.311257
 21
21.257512
  0
LINE
  8
型材断面
  6
CONTINUOUS
 10
57.046957
 20
23.993212
 11
59.546957
 21
21.493217
  0
LINE
  8
型材断面
  6
CONTINUOUS
 10
59.31126
 20
54.370555
 11
59.546957
 21
54.134848
  0
LINE
  8
型材断面
  6
CONTINUOUS
 10
59.973623
 20
54.797213
 11
59.42911
 21
54.2527
  0
LINE
  8
型材断面
  6
CONTINUOUS
 10
57.046957
 20
51.634852
 11
59.546957
 21
54.134848
  0
LINE
  8
型材断面
  6
CONTINUOUS
 10
59.546957
 20
21.493217
 11
59.546957
 21
54.134848
  0
LINE
  8
型材断面
  6
CONTINUOUS
 10
56.811255
 20
51.870555
 11
59.311257
 21
54.370552
  0
LINE
  8
型材断面
  6
CONTINUOUS
 10
57.046957
 20
38.2307
 11
57.046957
 21
51.634852
  0
LINE
  8
型材断面
  6
CONTINUOUS
 10
57.046957
 20
51.634852
 11
56.811257
 21
51.870552
  0
LINE
  8
型材断面
  6
CONTINUOUS
 10
-110.659412
 20
54.797213
 11
-110.659412
 21
37.814033
  0
LINE
  8
型材断面
  6
CONTINUOUS
 10
-110.659412
 20
20.830853
 11
-110.659412
 21
37.814033
  0
LINE
  8
型材断面
  6
CONTINUOUS
 10
-110.232748
 20
37.397365
 11
-107.732748
 21
37.397365
  0
LINE
  8
型材断面
  6
CONTINUOUS
 10
-110.232748
 20
38.2307
 11
-107.732748
 21
38.2307
  0
LINE
  8
型材断面
  6
CONTINUOUS
 10
-109.99705
 20
21.25751
 11
-110.232748
 21
21.493217
  0
LINE
  8
型材断面
  6
CONTINUOUS
 10
-110.659412
 20
20.830853
 11
-110.1149
 21
21.375365
  0
LINE
  8
型材断面
  6
CONTINUOUS
 10
-107.732748
 20
37.397365
 11
-107.732748
 21
23.993212
  0
LINE
  8
型材断面
  6
CONTINUOUS
 10
-107.732748
 20
23.993212
 11
-107.497048
 21
23.757512
  0
LINE
  8
型材断面
  6
CONTINUOUS
 10
-107.497045
 20
23.75751
 11
-109.997048
 21
21.257512
  0
LINE
  8
型材断面
  6
CONTINUOUS
 10
-107.732748
 20
23.993212
 11
-110.232748
 21
21.493217
  0
LINE
  8
型材断面
  6
CONTINUOUS
 10
-109.99705
 20
54.370555
 11
-110.232748
 21
54.134848
  0
LINE
  8
型材断面
  6
CONTINUOUS
 10
-110.659412
 20
54.797213
 11
-110.1149
 21
54.2527
  0
LINE
  8
型材断面
  6
CONTINUOUS
 10
-107.732748
 20
51.634852
 11
-110.232748
 21
54.134848
  0
LINE
  8
型材断面
  6
CONTINUOUS
 10
-110.232748
 20
21.493217
 11
-110.232748
 21
54.134848
  0
LINE
  8
型材断面
  6
CONTINUOUS
 10
-107.497045
 20
51.870555
 11
-109.997048
 21
54.370552
  0
LINE
  8
型材断面
  6
CONTINUOUS
 10
-107.732748
 20
38.2307
 11
-107.732748
 21
51.634852
  0
LINE
  8
型材断面
  6
CONTINUOUS
 10
-107.732748
 20
51.634852
 11
-107.497048
 21
51.870552
  0
LINE
  8
型材断面
  6
CONTINUOUS
 10
41.815438
 20
23.757512
 11
56.811253
 21
23.757512
  0
LINE
  8
型材断面
  6
CONTINUOUS
 10
41.815438
 20
51.870552
 11
56.811253
 21
51.870552
  0
LINE
  8
型材断面
  6
CONTINUOUS
 10
-92.501227
 20
51.870552
 11
-107.497043
 21
51.870552
  0
LINE
  8
型材断面
  6
CONTINUOUS
 10
59.311257
 20
54.370552
 11
-109.997048
 21
54.370552
  0
LINE
  8
型材断面
  6
CONTINUOUS
 10
-92.501227
 20
23.757512
 11
-107.497043
 21
23.757512
  0
LINE
  8
型材断面
  6
CONTINUOUS
 10
59.311257
 20
21.257512
 11
-109.997048
 21
21.257512
  0
TEXT
  7
TextStyle03
  8
文字
  6
CONTINUOUS
 10
134.525
 20
-76.7
  1
網入り6.8t
 40
3.0
 72
     5
 11
151.2125
 21
-76.7
  0
TEXT
  7
TextStyle03
  8
文字
  6
CONTINUOUS
 10
141.2
 20
-81.375
  1
×５枚
 40
3.0
 72
     5
 11
150.95
 21
-81.375
  0
TEXT
  7
TextStyle03
  8
文字
  6
CONTINUOUS
 10
-33.7
 20
9.325
  1
可動装置側
 40
3.0
 72
     5
 11
-17.2
 21
9.325
  0
TEXT
  7
TextStyle03
  8
文字
  6
CONTINUOUS
 10
-33.7
 20
63.275
  1
可動装置側
 40
3.0
 72
     5
 11
-17.2
 21
63.275
  0
TEXT
  7
TextStyle03
  8
文字
  6
CONTINUOUS
 10
-146.725
 20
89.4
  1
はケーシング位置を示す
 40
3.0
 72
     5
 11
-109.975
 21
89.4
  0
TEXT
  7
TextStyle03
  8
文字
  6
CONTINUOUS
 10
-146.725
 20
86.025
  1
４ヶ所中1ヶ所に設定
 40
3.0
 72
     5
 11
-115.0375
 21
86.025
  0
TEXT
  7
TextStyle03
  8
文字
  6
CONTINUOUS
 10
-146.725
 20
94.925
  1
は排水穴位置を示す
 40
3.0
 72
     5
 11
-116.725
 21
94.925
  0
TEXT
  7
TextStyle03
  8
文字
  6
CONTINUOUS
 10
-129.65
 20
16.275
  1
アンカーピッチ
 40
3.0
 50
90.0
 72
     5
 11
-129.65
 21
39.525
  0
TEXT
  7
TextStyle03
  8
文字
  6
CONTINUOUS
 10
-97.95
 20
90.25
  1
アンカーピッチ
 40
3.0
 72
     5
 11
-74.7
 21
90.25
  0
TEXT
  7
TextStyle03
  8
文字
  6
CONTINUOUS
 10
-150.45
 20
80.05
  1
アンカー数量　１８ヶ所
 40
3.0
 72
     5
 11
-113.7
 21
80.05
  0
TEXT
  7
TextStyle03
  8
文字
  6
CONTINUOUS
 10
-150.5
 20
74.3
  1
アームユニット数　４ヶ所
 40
3.0
 72
     5
 11
-110.375
 21
74.3
  0
LINE
  8
文字
  6
CONTINUOUS
 10
146.763175
 20
66.643605
 11
146.763175
 21
56.093642
  0
LINE
  8
文字
  6
CONTINUOUS
 10
154.413225
 20
66.643605
 11
154.413225
 21
56.158722
  0
LINE
  8
文字
  6
CONTINUOUS
 10
71.225683
 20
-68.344237
 11
60.675718
 21
-68.344237
  0
LINE
  8
文字
  6
CONTINUOUS
 10
71.225683
 20
-75.994287
 11
60.7408
 21
-75.994287
  0
LINE
  8
文字
  6
CONTINUOUS
 10
71.225683
 20
-56.67757
 11
60.675718
 21
-56.67757
  0
LINE
  8
文字
  6
CONTINUOUS
 10
153.076993
 20
-46.194145
 11
153.076993
 21
-52.412978
  0
LINE
  8
文字
  6
CONTINUOUS
 10
120.810325
 20
-46.194145
 11
120.810325
 21
-52.412978
  0
TEXT
  7
TextStyle03
  8
文字
  6
CONTINUOUS
 10
61.925
 20
125.25
  1
シリーズ：ＴＦ２ＦＬ
 40
5.0
 72
     5
 11
117.55
 21
125.25
  0
TEXT
  7
TextStyle03
  8
文字
  6
CONTINUOUS
 10
61.925
 20
119.625
  1
　　　　　（上下可動）900×5000タイプ
 40
5.0
 72
     5
 11
165.3625
 21
119.625
  0
TEXT
  7
TextStyle03
  8
文字
  6
CONTINUOUS
 10
61.925
 20
114.0
  1
図面名　：外観姿図
 40
5.0
 72
     5
 11
111.925
 21
114.0
  0
TEXT
  7
TextStyle03
  8
文字
  6
CONTINUOUS
 10
61.925
 20
108.375
  1
　　　　　　
 40
5.0
 72
     5
 11
95.05
 21
108.375
  0
LINE
  8
文字
  6
CONTINUOUS
 10
40.982102
 20
21.257512
 11
40.982102
 21
23.757512
  0
LINE
  8
文字
  6
CONTINUOUS
 10
41.815438
 20
21.257512
 11
41.815438
 21
23.757512
  0
LINE
  8
文字
  6
CONTINUOUS
 10
7.673768
 20
21.257512
 11
7.673768
 21
23.757512
  0
LINE
  8
文字
  6
CONTINUOUS
 10
8.507102
 20
21.257512
 11
8.507102
 21
23.757512
  0
LINE
  8
文字
  6
CONTINUOUS
 10
-25.759567
 20
21.257512
 11
-25.759567
 21
23.757512
  0
LINE
  8
文字
  6
CONTINUOUS
 10
-24.926232
 20
21.257512
 11
-24.926232
 21
23.757512
  0
LINE
  8
文字
  6
CONTINUOUS
 10
-91.667893
 20
21.257512
 11
-91.667893
 21
23.757512
  0
LINE
  8
文字
  6
CONTINUOUS
 10
-92.501227
 20
21.257512
 11
-92.501227
 21
23.757512
  0
LINE
  8
文字
  6
CONTINUOUS
 10
-58.359558
 20
21.257512
 11
-58.359558
 21
23.757512
  0
LINE
  8
文字
  6
CONTINUOUS
 10
-59.192893
 20
21.257512
 11
-59.192893
 21
23.757512
  0
LINE
  8
文字
  6
CONTINUOUS
 10
40.982102
 20
54.370552
 11
40.982102
 21
51.870552
  0
LINE
  8
文字
  6
CONTINUOUS
 10
41.815438
 20
54.370552
 11
41.815438
 21
51.870552
  0
LINE
  8
文字
  6
CONTINUOUS
 10
7.673768
 20
54.370552
 11
7.673768
 21
51.870552
  0
LINE
  8
文字
  6
CONTINUOUS
 10
8.507102
 20
54.370552
 11
8.507102
 21
51.870552
  0
LINE
  8
文字
  6
CONTINUOUS
 10
-25.759567
 20
54.370552
 11
-25.759567
 21
51.870552
  0
LINE
  8
文字
  6
CONTINUOUS
 10
-24.926232
 20
54.370552
 11
-24.926232
 21
51.870552
  0
LINE
  8
文字
  6
CONTINUOUS
 10
-91.667893
 20
54.370552
 11
-91.667893
 21
51.870552
  0
LINE
  8
文字
  6
CONTINUOUS
 10
-92.501227
 20
54.370552
 11
-92.501227
 21
51.870552
  0
LINE
  8
文字
  6
CONTINUOUS
 10
-58.359558
 20
54.370552
 11
-58.359558
 21
51.870552
  0
LINE
  8
文字
  6
CONTINUOUS
 10
-59.192893
 20
54.370552
 11
-59.192893
 21
51.870552
  0
LINE
  8
文字
  6
CONTINUOUS
 10
26.057102
 20
24.590845
 11
23.557102
 21
24.590845
  0
LINE
  8
文字
  6
CONTINUOUS
 10
26.057102
 20
51.03722
 11
23.557102
 21
51.03722
  0
LINE
  8
文字
  6
CONTINUOUS
 10
-7.376232
 20
24.590845
 11
-9.876232
 21
24.590845
  0
LINE
  8
文字
  6
CONTINUOUS
 10
-7.376232
 20
51.03722
 11
-9.876232
 21
51.03722
  0
LINE
  8
文字
  6
CONTINUOUS
 10
-76.742893
 20
24.590845
 11
-74.242893
 21
24.590845
  0
LINE
  8
文字
  6
CONTINUOUS
 10
-76.742893
 20
51.03722
 11
-74.242893
 21
51.03722
  0
LINE
  8
文字
  6
CONTINUOUS
 10
-43.309558
 20
24.590845
 11
-40.809558
 21
24.590845
  0
LINE
  8
文字
  6
CONTINUOUS
 10
-43.309558
 20
51.03722
 11
-40.809558
 21
51.03722
  0
TEXT
  7
TextStyle03
  8
文字
  6
CONTINUOUS
 10
62.075
 20
104.525
  1
ＮＳコード：ＮＳＦＺＬ
 40
5.0
 72
     5
 11
123.325
 21
104.525
  0
INSERT
  2
*DIM_0002
  8
寸法
  6
CONTINUOUS
 10
0.0
 20
0.0
  0
INSERT
  2
*DIM_0003
  8
寸法
  6
CONTINUOUS
 10
0.0
 20
0.0
  0
INSERT
  2
*DIM_0004
  8
寸法
  6
CONTINUOUS
 10
0.0
 20
0.0
  0
INSERT
  2
*DIM_0005
  8
寸法
  6
CONTINUOUS
 10
0.0
 20
0.0
  0
INSERT
  2
*DIM_0006
  8
寸法
  6
CONTINUOUS
 10
0.0
 20
0.0
  0
INSERT
  2
*DIM_0007
  8
寸法
  6
CONTINUOUS
 10
0.0
 20
0.0
  0
INSERT
  2
*DIM_0008
  8
寸法
  6
CONTINUOUS
 10
0.0
 20
0.0
  0
INSERT
  2
*DIM_0009
  8
寸法
  6
CONTINUOUS
 10
0.0
 20
0.0
  0
INSERT
  2
*DIM_0010
  8
寸法
  6
CONTINUOUS
 10
0.0
 20
0.0
  0
INSERT
  2
*DIM_0011
  8
寸法
  6
CONTINUOUS
 10
0.0
 20
0.0
  0
INSERT
  2
*DIM_0012
  8
寸法
  6
CONTINUOUS
 10
0.0
 20
0.0
  0
INSERT
  2
*DIM_0013
  8
寸法
  6
CONTINUOUS
 10
0.0
 20
0.0
  0
INSERT
  2
*DIM_0014
  8
寸法
  6
CONTINUOUS
 10
0.0
 20
0.0
  0
INSERT
  2
*DIM_0015
  8
寸法
  6
CONTINUOUS
 10
0.0
 20
0.0
  0
INSERT
  2
*DIM_0016
  8
寸法
  6
CONTINUOUS
 10
0.0
 20
0.0
  0
INSERT
  2
*DIM_0017
  8
寸法
  6
CONTINUOUS
 10
0.0
 20
0.0
  0
INSERT
  2
*DIM_0018
  8
寸法
  6
CONTINUOUS
 10
0.0
 20
0.0
  0
INSERT
  2
*DIM_0019
  8
寸法
  6
CONTINUOUS
 10
0.0
 20
0.0
  0
INSERT
  2
*DIM_0020
  8
寸法
  6
CONTINUOUS
 10
0.0
 20
0.0
  0
INSERT
  2
*DIM_0021
  8
寸法
  6
CONTINUOUS
 10
0.0
 20
0.0
  0
INSERT
  2
*DIM_0026
  8
寸法
  6
CONTINUOUS
 10
0.0
 20
0.0
  0
INSERT
  2
*DIM_0027
  8
寸法
  6
CONTINUOUS
 10
0.0
 20
0.0
  0
LINE
  8
別途部材
  6
CONTINUOUS
 62
    47
 10
146.863175
 20
21.257512
 11
146.92984
 21
21.257512
  0
ARC
  8
別途部材
  6
CONTINUOUS
 62
    47
 10
146.863173
 20
21.357513
 40
0.1
 50
180.0
 51
270.0
  0
LINE
  8
別途部材
  6
CONTINUOUS
 62
    47
 10
146.763175
 20
21.357512
 11
146.763175
 21
23.72418
  0
LINE
  8
別途部材
  6
CONTINUOUS
 62
    47
 10
148.42984
 20
21.414035
 11
146.92984
 21
21.414035
  0
LINE
  8
別途部材
  6
CONTINUOUS
 62
    47
 10
146.863175
 20
54.370552
 11
146.92984
 21
54.370552
  0
ARC
  8
別途部材
  6
CONTINUOUS
 62
    47
 10
146.863173
 20
54.270555
 40
0.1
 50
90.0
 51
180.0
  0
LINE
  8
別途部材
  6
CONTINUOUS
 62
    47
 10
146.763175
 20
54.270552
 11
146.763175
 21
51.903888
  0
LINE
  8
別途部材
  6
CONTINUOUS
 62
    47
 10
148.42984
 20
54.214033
 11
146.92984
 21
54.214033
  0
LINE
  8
別途部材
  6
CONTINUOUS
 62
    47
 10
-110.23275
 20
-68.444237
 11
-110.23275
 21
-68.510905
  0
ARC
  8
別途部材
  6
CONTINUOUS
 62
    47
 10
-110.132751
 20
-68.444238
 40
0.1
 50
90.0
 51
180.0
  0
LINE
  8
別途部材
  6
CONTINUOUS
 62
    47
 10
-110.13275
 20
-68.344237
 11
-107.766083
 21
-68.344237
  0
LINE
  8
別途部材
  6
CONTINUOUS
 62
    47
 10
-110.076228
 20
-70.010905
 11
-110.076228
 21
-68.510905
  0
LINE
  8
別途部材
  6
CONTINUOUS
 62
    47
 10
59.546957
 20
-68.444237
 11
59.546957
 21
-68.510905
  0
ARC
  8
別途部材
  6
CONTINUOUS
 62
    47
 10
59.446957
 20
-68.444238
 40
0.1
 50
0.0
 51
90.0
  0
LINE
  8
別途部材
  6
CONTINUOUS
 62
    47
 10
59.446957
 20
-68.344237
 11
57.08029
 21
-68.344237
  0
LINE
  8
別途部材
  6
CONTINUOUS
 62
    47
 10
59.390435
 20
-70.010905
 11
59.390435
 21
-68.510905
  0
LINE
  8
別途部材
  6
DOT
 62
    47
 10
-110.23275
 20
-56.77757
 11
-110.23275
 21
-56.844237
  0
ARC
  8
別途部材
  6
DOT
 62
    47
 10
-110.132751
 20
-56.777572
 40
0.1
 50
90.0
 51
180.0
  0
LINE
  8
別途部材
  6
DOT
 62
    47
 10
-110.13275
 20
-56.67757
 11
-107.766083
 21
-56.67757
  0
LINE
  8
別途部材
  6
DOT
 62
    47
 10
-110.076228
 20
-58.344237
 11
-110.076228
 21
-56.844237
  0
LINE
  8
別途部材
  6
DOT
 62
    47
 10
59.546957
 20
-56.77757
 11
59.546957
 21
-56.844237
  0
ARC
  8
別途部材
  6
DOT
 62
    47
 10
59.446957
 20
-56.777572
 40
0.1
 50
0.0
 51
90.0
  0
LINE
  8
別途部材
  6
DOT
 62
    47
 10
59.446957
 20
-56.67757
 11
57.08029
 21
-56.67757
  0
LINE
  8
別途部材
  6
DOT
 62
    47
 10
59.390435
 20
-58.344237
 11
59.390435
 21
-56.844237
  0
LINE
  8
曲げ物
  6
CONTINUOUS
 10
153.076993
 20
-83.118728
 11
153.076993
 21
-53.785395
  0
LINE
  8
曲げ物
  6
CONTINUOUS
 10
42.716167
 20
39.693362
 11
39.020855
 21
35.99805
  0
LINE
  8
曲げ物
  6
CONTINUOUS
 10
42.012697
 20
38.157252
 11
40.556968
 21
36.701522
  0
LINE
  8
曲げ物
  6
CONTINUOUS
 10
41.180057
 20
38.989892
 11
39.724328
 21
37.534162
  0
LINE
  8
曲げ物
  6
CONTINUOUS
 10
10.713703
 20
39.693362
 11
7.01839
 21
35.99805
  0
LINE
  8
曲げ物
  6
CONTINUOUS
 10
10.010232
 20
38.157252
 11
8.554502
 21
36.701522
  0
LINE
  8
曲げ物
  6
CONTINUOUS
 10
9.177592
 20
38.989892
 11
7.721862
 21
37.534162
  0
LINE
  8
曲げ物
  6
CONTINUOUS
 10
-23.387765
 20
39.693362
 11
-27.083078
 21
35.99805
  0
LINE
  8
曲げ物
  6
CONTINUOUS
 10
-24.091235
 20
38.157252
 11
-25.546965
 21
36.701522
  0
LINE
  8
曲げ物
  6
CONTINUOUS
 10
-24.923875
 20
38.989892
 11
-26.379605
 21
37.534162
  0
LINE
  8
曲げ物
  6
CONTINUOUS
 10
-56.475853
 20
39.693362
 11
-60.171165
 21
35.99805
  0
LINE
  8
曲げ物
  6
CONTINUOUS
 10
-57.179323
 20
38.157252
 11
-58.635052
 21
36.701522
  0
LINE
  8
曲げ物
  6
CONTINUOUS
 10
-58.011963
 20
38.989892
 11
-59.467692
 21
37.534162
  0
LINE
  8
曲げ物
  6
CONTINUOUS
 10
-89.7415
 20
39.693362
 11
-93.436813
 21
35.99805
  0
LINE
  8
曲げ物
  6
CONTINUOUS
 10
-90.44497
 20
38.157252
 11
-91.9007
 21
36.701522
  0
LINE
  8
曲げ物
  6
CONTINUOUS
 10
-91.27761
 20
38.989892
 11
-92.73334
 21
37.534162
  0
LINE
  8
曲げ物
  6
CONTINUOUS
 10
120.810325
 20
-83.118728
 11
120.810325
 21
-53.785395
  0
LINE
  8
曲げ物
  6
CONTINUOUS
 10
153.076993
 20
-53.785395
 11
120.810325
 21
-53.785395
  0
LINE
  8
曲げ物
  6
CONTINUOUS
 10
153.076993
 20
-83.118728
 11
120.810325
 21
-83.118728
  0
ENDSEC
  0
EOF
