  0
SECTION
  2
HEADER
  9
$EXTMIN
 10
-210.0
 20
-148.5
  9
$EXTMAX
 10
210.0
 20
148.5
  9
$PDMODE
 70
    32
  9
$PDSIZE
 40
1.5
  9
$LTSCALE
 40
10.0
  0
ENDSEC
  0
SECTION
  2
TABLES
  0
TABLE
  2
LTYPE
 70
    15
  0
LTYPE
  2
CONTINUOUS
 70
    64
  3
実線
 72
    65
 73
     0
 40
0.0
  0
LTYPE
  2
DASHED
 70
    64
  3
破線A
 72
    65
 73
     2
 40
0.6
 49
0.4
 49
-0.2
  0
LTYPE
  2
DASHEDX2
 70
    64
  3
破線B
 72
    65
 73
     2
 40
1.3
 49
0.9
 49
-0.4
  0
LTYPE
  2
DASHDOT
 70
    64
  3
１点鎖線A
 72
    65
 73
     4
 40
0.5375
 49
0.375
 49
-0.05
 49
0.0625
 49
-0.05
  0
LTYPE
  2
DASHDOTX2
 70
    64
  3
１点鎖線B
 72
    65
 73
     4
 40
1.075
 49
0.75
 49
-0.1
 49
0.125
 49
-0.1
  0
LTYPE
  2
DIVIDE2
 70
    64
  3
２点鎖線A
 72
    65
 73
     6
 40
0.5125
 49
0.3
 49
-0.0375
 49
0.05
 49
-0.0375
 49
0.05
 49
-0.0375
  0
LTYPE
  2
DIVIDE
 70
    64
  3
２点鎖線B
 72
    65
 73
     6
 40
1.05
 49
0.55
 49
-0.1
 49
0.1
 49
-0.1
 49
0.1
 49
-0.1
  0
LTYPE
  2
DOT
 70
    64
  3
点線A
 72
    65
 73
     2
 40
0.1125
 49
0.0625
 49
-0.05
  0
LTYPE
  2
DOTX2
 70
    64
  3
点線B
 72
    65
 73
     2
 40
0.275
 49
0.15
 49
-0.125
  0
LTYPE
  2
CONTINUOUS
 70
    64
  3
実線
 72
    65
 73
     0
 40
0.0
  0
LTYPE
  2
CONTINUOUS
 70
    64
  3
実線
 72
    65
 73
     0
 40
0.0
  0
LTYPE
  2
CONTINUOUS
 70
    64
  3
実線
 72
    65
 73
     0
 40
0.0
  0
LTYPE
  2
CONTINUOUS
 70
    64
  3
実線
 72
    65
 73
     0
 40
0.0
  0
LTYPE
  2
CONTINUOUS
 70
    64
  3
実線
 72
    65
 73
     0
 40
0.0
  0
LTYPE
  2
CONTINUOUS
 70
    64
  3
実線
 72
    65
 73
     0
 40
0.0
  0
ENDTAB
  0
TABLE
  2
LAYER
 70
    34
  0
LAYER
  2
通り芯
 70
     0
 62
    15
  6
CONTINUOUS
  0
LAYER
  2
補助線
 70
     0
 62
    16
  6
DOT
  0
LAYER
  2
躯体
 70
     0
 62
    31
  6
CONTINUOUS
  0
LAYER
  2
型材
 70
     0
 62
    32
  6
CONTINUOUS
  0
LAYER
  2
型材断面
 70
     0
 62
    47
  6
CONTINUOUS
  0
LAYER
  2
ガラス
 70
     0
 62
    48
  6
CONTINUOUS
  0
LAYER
  2
ゴム等
 70
     0
 62
    63
  6
CONTINUOUS
  0
LAYER
  2
ボルト／ビス
 70
     0
 62
    64
  6
CONTINUOUS
  0
LAYER
  2
文字
 70
     0
 62
    79
  6
CONTINUOUS
  0
LAYER
  2
寸法
 70
     0
 62
    80
  6
CONTINUOUS
  0
LAYER
  2
ﾊｯﾁﾝｸﾞ
 70
     0
 62
    95
  6
CONTINUOUS
  0
LAYER
  2
別途部材
 70
     0
 62
    96
  6
CONTINUOUS
  0
LAYER
  2
曲げ物
 70
     0
 62
   111
  6
CONTINUOUS
  0
LAYER
  2
鉄骨等
 70
     0
 62
   112
  6
CONTINUOUS
  0
LAYER
  2
St
 70
     0
 62
   127
  6
CONTINUOUS
  0
LAYER
  2
その他部品等
 70
     0
 62
   128
  6
CONTINUOUS
  0
LAYER
  2
ｶﾞｽｹｯﾄ
 70
     0
 62
   143
  6
CONTINUOUS
  0
LAYER
  2
ｽｹｯﾁ
 70
     0
 62
    14
  6
CONTINUOUS
  0
LAYER
  2
0
 70
     0
 62
    17
  6
CONTINUOUS
  0
LAYER
  2
1
 70
     0
 62
    30
  6
CONTINUOUS
  0
LAYER
  2
4
 70
     0
 62
    33
  6
CONTINUOUS
  0
LAYER
  2
ﾚｲﾔ3
 70
     0
 62
    46
  6
CONTINUOUS
  0
LAYER
  2
外形線
 70
     0
 62
    49
  6
CONTINUOUS
  0
LAYER
  2
部品
 70
     0
 62
    14
  6
CONTINUOUS
  0
LAYER
  2
サッシ芯
 70
     0
 62
    17
  6
DASHDOTX2
  0
LAYER
  2
寸法線
 70
     0
 62
    62
  6
CONTINUOUS
  0
LAYER
  2
姿図外形線
 70
     0
 62
    65
  6
CONTINUOUS
  0
LAYER
  2
姿補助線
 70
     0
 62
    30
  6
CONTINUOUS
  0
LAYER
  2
透視線
 70
     0
 62
    78
  6
DOT
  0
LAYER
  2
用紙
 70
     0
 62
    81
  6
CONTINUOUS
  0
LAYER
  2
実線図枠
 70
     0
 62
    94
  6
CONTINUOUS
  0
LAYER
  2
補助図枠
 70
     0
 62
    97
  6
CONTINUOUS
  0
LAYER
  2
建具記号
 70
     0
 62
   110
  6
CONTINUOUS
  0
LAYER
  2
補助文字
 70
     0
 62
   113
  6
CONTINUOUS
  0
ENDTAB
  0
TABLE
  2
STYLE
 70
    10
  0
STYLE
  2
STANDARD
 70
     0
 40
1.0
 41
1.0
 42
1.0
 50
0.0
 71
     0
  3
TXT
  4
BIGFONT
  0
STYLE
  2
TATE
 70
     4
 40
1.0
 41
1.0
 42
1.0
 50
0.0
 71
     0
  3
TXT
  4
BIGFONT
  0
STYLE
  2
TextStyle03
 70
     0
 40
1.0
 41
1.0
 42
1.0
 50
0.0
 71
     0
  3
MONOTXT
  4
BIGFONT
  0
STYLE
  2
TextStyle04
 70
     0
 40
1.0
 41
1.0
 42
1.0
 50
0.0
 71
     0
  3
MONOTXT
  4
BIGFONT
  0
STYLE
  2
TextStyle05
 70
     0
 40
1.0
 41
1.0
 42
1.0
 50
0.0
 71
     0
  3
MONOTXT
  4
BIGFONT
  0
STYLE
  2
TextStyle06
 70
     0
 40
1.0
 41
1.0
 42
1.0
 50
0.0
 71
     0
  3
MONOTXT
  4
BIGFONT
  0
STYLE
  2
TextStyle07
 70
     0
 40
1.0
 41
1.0
 42
1.0
 50
0.0
 71
     0
  3
MONOTXT
  4
BIGFONT
  0
STYLE
  2
TextStyle08
 70
     0
 40
1.0
 41
1.0
 42
1.0
 50
0.0
 71
     0
  3
MONOTXT
  4
BIGFONT
  0
STYLE
  2
TextStyle09
 70
     0
 40
1.0
 41
1.0
 42
1.0
 50
0.0
 71
     0
  3
MONOTXT
  4
BIGFONT
  0
STYLE
  2
TextStyle10
 70
     0
 40
1.0
 41
1.0
 42
1.0
 50
0.0
 71
     0
  3
MONOTXT
  4
BIGFONT
  0
ENDTAB
  0
ENDSEC
  0
SECTION
  2
BLOCKS
  0
BLOCK
  2
*GRP_0001
 70
    65
 10
0.0
 20
0.0
  0
LINE
  8
型材断面
  6
CONTINUOUS
 10
195.0
 20
133.5
 11
195.0
 21
-133.5
  0
LINE
  8
型材断面
  6
CONTINUOUS
 10
195.0
 20
-133.5
 11
-185.0
 21
-133.5
  0
LINE
  8
型材断面
  6
CONTINUOUS
 10
-185.0
 20
-133.5
 11
-185.0
 21
133.5
  0
LINE
  8
型材断面
  6
CONTINUOUS
 10
195.0
 20
133.5
 11
-185.0
 21
133.5
  0
LINE
  8
型材断面
  6
CONTINUOUS
 10
145.0
 20
-133.5
 11
145.0
 21
-118.5
  0
LINE
  8
型材断面
  6
CONTINUOUS
 10
195.0
 20
-118.5
 11
145.0
 21
-118.5
  0
ENDBLK
  0
BLOCK
  2
*DIM_0002
 70
    65
 10
0.0
 20
0.0
  0
LINE
  8
寸法
  6
BYBLOCK
 62
     0
 10
167.343563
 20
-63.20038
 11
175.401852
 21
-63.20038
  0
LINE
  8
寸法
  6
BYBLOCK
 62
     0
 10
167.343563
 20
-92.533713
 11
175.401852
 21
-92.533713
  0
LINE
  8
寸法
  6
BYBLOCK
 62
     0
 10
175.401852
 20
-63.20038
 11
175.401852
 21
-92.533713
  0
POINT
  8
寸法
 62
     0
 10
175.401852
 20
-63.20038
  0
POINT
  8
寸法
 62
     0
 10
175.401852
 20
-92.533713
  0
TEXT
  7
TextStyle03
  8
寸法
  6
CONTINUOUS
 62
     0
 10
175.025
 20
-80.3125
  1
880
 40
3.0
 50
90.0
 72
     5
 11
175.025
 21
-75.4375
  0
ENDBLK
  0
BLOCK
  2
*DIM_0003
 70
    65
 10
0.0
 20
0.0
  0
LINE
  8
寸法
  6
BYBLOCK
 62
     0
 10
-112.076325
 20
-22.92619
 11
-112.076325
 21
-22.536362
  0
LINE
  8
寸法
  6
BYBLOCK
 62
     0
 10
71.257007
 20
-22.536362
 11
-112.076325
 21
-22.536362
  0
POINT
  8
寸法
 62
     0
 10
71.257007
 20
-22.536362
  0
POINT
  8
寸法
 62
     0
 10
-112.076325
 20
-22.536362
  0
TEXT
  7
TextStyle03
  8
寸法
  6
CONTINUOUS
 62
     0
 10
-32.14375
 20
-22.175
  1
呼称寸法　5500
 40
3.0
 72
     5
 11
-8.70625
 21
-22.175
  0
ENDBLK
  0
BLOCK
  2
*DIM_0004
 70
    65
 10
0.0
 20
0.0
  0
LINE
  8
寸法
  6
BYBLOCK
 62
     0
 10
-95.409657
 20
9.768917
 11
-95.409657
 21
4.783553
  0
LINE
  8
寸法
  6
BYBLOCK
 62
     0
 10
-20.40966
 20
9.76892
 11
-20.40966
 21
4.783553
  0
LINE
  8
寸法
  6
BYBLOCK
 62
     0
 10
-95.409657
 20
4.783553
 11
-20.40966
 21
4.783553
  0
POINT
  8
寸法
 62
     0
 10
-95.409657
 20
4.783553
  0
POINT
  8
寸法
 62
     0
 10
-20.40966
 20
4.783553
  0
TEXT
  7
TextStyle03
  8
寸法
  6
CONTINUOUS
 62
     0
 10
-61.20625
 20
5.15
  1
2250
 40
3.0
 72
     5
 11
-54.64375
 21
5.15
  0
ENDBLK
  0
BLOCK
  2
*DIM_0005
 70
    65
 10
0.0
 20
0.0
  0
LINE
  8
寸法
  6
BYBLOCK
 62
     0
 10
54.590337
 20
9.768917
 11
54.590337
 21
4.783553
  0
LINE
  8
寸法
  6
BYBLOCK
 62
     0
 10
-20.40966
 20
4.783553
 11
54.590337
 21
4.783553
  0
POINT
  8
寸法
 62
     0
 10
54.590337
 20
4.783553
  0
TEXT
  7
TextStyle03
  8
寸法
  6
CONTINUOUS
 62
     0
 10
13.79375
 20
5.15
  1
2250
 40
3.0
 72
     5
 11
20.35625
 21
5.15
  0
ENDBLK
  0
BLOCK
  2
*DIM_0006
 70
    65
 10
0.0
 20
0.0
  0
LINE
  8
寸法
  6
BYBLOCK
 62
     0
 10
72.257007
 20
43.39905
 11
81.98129
 21
43.39905
  0
LINE
  8
寸法
  6
BYBLOCK
 62
     0
 10
74.887138
 20
39.69905
 11
81.98129
 21
39.69905
  0
LINE
  8
寸法
  6
BYBLOCK
 62
     0
 10
81.98129
 20
43.39905
 11
81.98129
 21
39.69905
  0
POINT
  8
寸法
 62
     0
 10
81.98129
 20
43.39905
  0
POINT
  8
寸法
 62
     0
 10
81.98129
 20
39.69905
  0
TEXT
  7
TextStyle03
  8
寸法
  6
CONTINUOUS
 62
     0
 10
81.65
 20
44.4125
  1
111
 40
3.0
 50
90.0
 72
     5
 11
81.65
 21
49.2875
  0
ENDBLK
  0
BLOCK
  2
*DIM_0007
 70
    65
 10
0.0
 20
0.0
  0
LINE
  8
寸法
  6
BYBLOCK
 62
     0
 10
72.257007
 20
13.399045
 11
81.98129
 21
13.399042
  0
LINE
  8
寸法
  6
BYBLOCK
 62
     0
 10
74.887138
 20
17.099045
 11
81.98129
 21
17.099042
  0
LINE
  8
寸法
  6
BYBLOCK
 62
     0
 10
81.98129
 20
13.399042
 11
81.98129
 21
17.099042
  0
POINT
  8
寸法
 62
     0
 10
81.98129
 20
13.399042
  0
POINT
  8
寸法
 62
     0
 10
81.98129
 20
17.099042
  0
TEXT
  7
TextStyle03
  8
寸法
  6
CONTINUOUS
 62
     0
 10
81.65
 20
7.5375
  1
111
 40
3.0
 50
90.0
 72
     5
 11
81.65
 21
12.4125
  0
ENDBLK
  0
BLOCK
  2
*DIM_0008
 70
    65
 10
0.0
 20
0.0
  0
LINE
  8
寸法
  6
BYBLOCK
 62
     0
 10
105.276657
 20
13.399048
 11
105.276657
 21
43.399048
  0
POINT
  8
寸法
 62
     0
 10
105.276657
 20
13.399048
  0
POINT
  8
寸法
 62
     0
 10
105.276657
 20
43.399048
  0
TEXT
  7
TextStyle03
  8
寸法
  6
CONTINUOUS
 62
     0
 10
104.9
 20
17.5
  1
呼称寸法　900
 40
3.0
 50
90.0
 72
     5
 11
104.9
 21
39.25
  0
ENDBLK
  0
BLOCK
  2
*DIM_0009
 70
    65
 10
0.0
 20
0.0
  0
LINE
  8
寸法
  6
BYBLOCK
 62
     0
 10
159.167052
 20
45.38238
 11
105.276657
 21
45.38238
  0
LINE
  8
寸法
  6
BYBLOCK
 62
     0
 10
105.276657
 20
43.399048
 11
105.276657
 21
45.38238
  0
POINT
  8
寸法
 62
     0
 10
105.276657
 20
43.399048
  0
POINT
  8
寸法
 62
     0
 10
105.276657
 20
45.38238
  0
TEXT
  7
TextStyle03
  8
寸法
  6
CONTINUOUS
 62
     0
 10
104.825
 20
47.86875
  1
59.5
 40
3.0
 50
90.0
 72
     5
 11
104.825
 21
54.43125
  0
ENDBLK
  0
BLOCK
  2
*DIM_0010
 70
    65
 10
0.0
 20
0.0
  0
LINE
  8
寸法
  6
BYBLOCK
 62
     0
 10
159.167052
 20
11.415715
 11
105.276657
 21
11.415715
  0
LINE
  8
寸法
  6
BYBLOCK
 62
     0
 10
105.276657
 20
13.399048
 11
105.276657
 21
11.415715
  0
POINT
  8
寸法
 62
     0
 10
105.276657
 20
13.399048
  0
POINT
  8
寸法
 62
     0
 10
105.276657
 20
11.415715
  0
TEXT
  7
TextStyle03
  8
寸法
  6
CONTINUOUS
 62
     0
 10
104.825
 20
2.36875
  1
59.5
 40
3.0
 50
90.0
 72
     5
 11
104.825
 21
8.93125
  0
ENDBLK
  0
BLOCK
  2
*DIM_0011
 70
    65
 10
0.0
 20
0.0
  0
LINE
  8
寸法
  6
BYBLOCK
 62
     0
 10
73.240337
 20
-66.334713
 11
73.240337
 21
-22.536362
  0
LINE
  8
寸法
  6
BYBLOCK
 62
     0
 10
71.257007
 20
-22.536362
 11
73.240337
 21
-22.536362
  0
POINT
  8
寸法
 62
     0
 10
71.257007
 20
-22.536362
  0
POINT
  8
寸法
 62
     0
 10
73.240337
 20
-22.536362
  0
TEXT
  7
TextStyle03
  8
寸法
  6
CONTINUOUS
 62
     0
 10
75.69375
 20
-22.175
  1
59.5
 40
3.0
 72
     5
 11
82.25625
 21
-22.175
  0
ENDBLK
  0
BLOCK
  2
*DIM_0012
 70
    65
 10
0.0
 20
0.0
  0
LINE
  8
寸法
  6
BYBLOCK
 62
     0
 10
-114.059657
 20
-66.334713
 11
-114.059657
 21
-22.536362
  0
LINE
  8
寸法
  6
BYBLOCK
 62
     0
 10
-112.076325
 20
-22.536362
 11
-114.059657
 21
-22.536362
  0
POINT
  8
寸法
 62
     0
 10
-112.076325
 20
-22.536362
  0
POINT
  8
寸法
 62
     0
 10
-114.059657
 20
-22.536362
  0
TEXT
  7
TextStyle03
  8
寸法
  6
CONTINUOUS
 62
     0
 10
-123.10625
 20
-22.175
  1
59.5
 40
3.0
 72
     5
 11
-116.54375
 21
-22.175
  0
ENDBLK
  0
BLOCK
  2
*DIM_0013
 70
    65
 10
0.0
 20
0.0
  0
LINE
  8
寸法
  6
BYBLOCK
 62
     0
 10
-115.076325
 20
38.399048
 11
-128.369163
 21
38.399048
  0
LINE
  8
寸法
  6
BYBLOCK
 62
     0
 10
-115.076325
 20
18.399048
 11
-128.369163
 21
18.399048
  0
LINE
  8
寸法
  6
BYBLOCK
 62
     0
 10
-128.369163
 20
38.399048
 11
-128.369163
 21
18.399048
  0
POINT
  8
寸法
 62
     0
 10
-128.369163
 20
38.399048
  0
POINT
  8
寸法
 62
     0
 10
-128.369163
 20
18.399048
  0
TEXT
  7
TextStyle03
  8
寸法
  6
CONTINUOUS
 62
     0
 10
-128.725
 20
25.9625
  1
600
 40
3.0
 50
90.0
 72
     5
 11
-128.725
 21
30.8375
  0
ENDBLK
  0
BLOCK
  2
*DIM_0014
 70
    65
 10
0.0
 20
0.0
  0
LINE
  8
寸法
  6
BYBLOCK
 62
     0
 10
-100.40966
 20
46.399048
 11
-100.40966
 21
75.50712
  0
LINE
  8
寸法
  6
BYBLOCK
 62
     0
 10
-73.742993
 20
46.399048
 11
-73.742993
 21
75.50712
  0
LINE
  8
寸法
  6
BYBLOCK
 62
     0
 10
-100.40966
 20
75.50712
 11
-73.742993
 21
75.50712
  0
POINT
  8
寸法
 62
     0
 10
-100.40966
 20
75.50712
  0
POINT
  8
寸法
 62
     0
 10
-73.742993
 20
75.50712
  0
TEXT
  7
TextStyle03
  8
寸法
  6
CONTINUOUS
 62
     0
 10
-89.5375
 20
75.875
  1
800
 40
3.0
 72
     5
 11
-84.6625
 21
75.875
  0
ENDBLK
  0
BLOCK
  2
*DIM_0015
 70
    65
 10
0.0
 20
0.0
  0
LINE
  8
寸法
  6
BYBLOCK
 62
     0
 10
-47.076328
 20
46.399048
 11
-47.076328
 21
75.50712
  0
LINE
  8
寸法
  6
BYBLOCK
 62
     0
 10
-73.742993
 20
75.50712
 11
-47.076328
 21
75.50712
  0
POINT
  8
寸法
 62
     0
 10
-47.076328
 20
75.50712
  0
TEXT
  7
TextStyle03
  8
寸法
  6
CONTINUOUS
 62
     0
 10
-62.8625
 20
75.875
  1
800
 40
3.0
 72
     5
 11
-57.9875
 21
75.875
  0
ENDBLK
  0
BLOCK
  2
*DIM_0016
 70
    65
 10
0.0
 20
0.0
  0
LINE
  8
寸法
  6
BYBLOCK
 62
     0
 10
-20.40966
 20
46.399048
 11
-20.40966
 21
75.50712
  0
LINE
  8
寸法
  6
BYBLOCK
 62
     0
 10
-47.076328
 20
75.50712
 11
-20.40966
 21
75.50712
  0
POINT
  8
寸法
 62
     0
 10
-20.40966
 20
75.50712
  0
TEXT
  7
TextStyle03
  8
寸法
  6
CONTINUOUS
 62
     0
 10
-36.1875
 20
75.875
  1
800
 40
3.0
 72
     5
 11
-31.3125
 21
75.875
  0
ENDBLK
  0
BLOCK
  2
*DIM_0017
 70
    65
 10
0.0
 20
0.0
  0
LINE
  8
寸法
  6
BYBLOCK
 62
     0
 10
6.257007
 20
46.399048
 11
6.257007
 21
75.50712
  0
LINE
  8
寸法
  6
BYBLOCK
 62
     0
 10
-20.40966
 20
75.50712
 11
6.257007
 21
75.50712
  0
POINT
  8
寸法
 62
     0
 10
6.257007
 20
75.50712
  0
TEXT
  7
TextStyle03
  8
寸法
  6
CONTINUOUS
 62
     0
 10
-9.5375
 20
75.875
  1
800
 40
3.0
 72
     5
 11
-4.6625
 21
75.875
  0
ENDBLK
  0
BLOCK
  2
*DIM_0018
 70
    65
 10
0.0
 20
0.0
  0
LINE
  8
寸法
  6
BYBLOCK
 62
     0
 10
32.923673
 20
46.399048
 11
32.923673
 21
75.50712
  0
LINE
  8
寸法
  6
BYBLOCK
 62
     0
 10
6.257007
 20
75.50712
 11
32.923673
 21
75.50712
  0
POINT
  8
寸法
 62
     0
 10
32.923673
 20
75.50712
  0
TEXT
  7
TextStyle03
  8
寸法
  6
CONTINUOUS
 62
     0
 10
17.1375
 20
75.875
  1
800
 40
3.0
 72
     5
 11
22.0125
 21
75.875
  0
ENDBLK
  0
BLOCK
  2
*DIM_0019
 70
    65
 10
0.0
 20
0.0
  0
LINE
  8
寸法
  6
BYBLOCK
 62
     0
 10
59.59034
 20
46.399048
 11
59.59034
 21
75.50712
  0
LINE
  8
寸法
  6
BYBLOCK
 62
     0
 10
32.923673
 20
75.50712
 11
59.59034
 21
75.50712
  0
POINT
  8
寸法
 62
     0
 10
59.59034
 20
75.50712
  0
TEXT
  7
TextStyle03
  8
寸法
  6
CONTINUOUS
 62
     0
 10
43.8125
 20
75.875
  1
800
 40
3.0
 72
     5
 11
48.6875
 21
75.875
  0
ENDBLK
  0
BLOCK
  2
*DIM_0020
 70
    65
 10
0.0
 20
0.0
  0
LINE
  8
寸法
  6
CONTINUOUS
 10
159.441565
 20
57.22862
 11
167.091615
 21
57.22862
  0
POINT
  8
寸法
 10
159.441565
 20
57.22862
  0
POINT
  8
寸法
 10
167.091615
 20
57.22862
  0
TEXT
  7
TextStyle03
  8
寸法
  6
CONTINUOUS
 10
159.1
 20
57.6
  1
229.5
 40
3.0
 72
     5
 11
167.35
 21
57.6
  0
ENDBLK
  0
BLOCK
  2
*DIM_0021
 70
    65
 10
0.0
 20
0.0
  0
LINE
  8
寸法
  6
CONTINUOUS
 10
84.492252
 20
-77.98796
 11
84.492252
 21
-85.63801
  0
POINT
  8
寸法
 10
84.492252
 20
-77.98796
  0
POINT
  8
寸法
 10
84.492252
 20
-85.63801
  0
TEXT
  7
TextStyle03
  8
寸法
  6
CONTINUOUS
 10
88.575
 20
-86.1
  1
229.5
 40
3.0
 50
90.0
 72
     5
 11
88.575
 21
-77.85
  0
ENDBLK
  0
BLOCK
  2
*GRP_0022
 70
    65
 10
0.0
 20
0.0
  0
LINE
  8
補助線
  6
BYBLOCK
 62
    64
 10
-108.679245
 20
-83.585473
 11
-108.80673
 21
-83.692832
  0
LINE
  8
補助線
  6
BYBLOCK
 62
    64
 10
-108.796667
 20
-83.575407
 11
-108.689308
 21
-83.702895
  0
LINE
  8
補助線
  6
BYBLOCK
 62
    64
 10
-100.188828
 20
-76.43545
 11
-100.316313
 21
-76.542805
  0
LINE
  8
補助線
  6
BYBLOCK
 62
    64
 10
-100.30625
 20
-76.425385
 11
-100.19889
 21
-76.552867
  0
LINE
  8
補助線
  6
BYBLOCK
 62
    64
 10
-91.825893
 20
-69.39278
 11
-91.69841
 21
-69.285423
  0
LINE
  8
補助線
  6
BYBLOCK
 62
    64
 10
-91.815833
 20
-69.275357
 11
-91.708472
 21
-69.402845
  0
LINE
  8
型材断面
  6
CONTINUOUS
 10
-109.534742
 20
-83.21645
 11
-109.59512
 21
-83.920975
  0
LINE
  8
型材断面
  6
CONTINUOUS
 10
-109.59512
 20
-83.920975
 11
-109.165687
 21
-84.43091
  0
LINE
  8
型材断面
  6
CONTINUOUS
 10
-109.165687
 20
-84.43091
 11
-108.461162
 21
-84.491287
  0
LINE
  8
型材断面
  6
CONTINUOUS
 10
-92.043975
 20
-68.48697
 11
-91.33945
 21
-68.547347
  0
LINE
  8
型材断面
  6
CONTINUOUS
 10
-91.33945
 20
-68.547347
 11
-90.910017
 21
-69.057283
  0
LINE
  8
型材断面
  6
CONTINUOUS
 10
-90.910017
 20
-69.057283
 11
-90.970395
 21
-69.761808
  0
LINE
  8
型材断面
  6
CONTINUOUS
 10
-109.534742
 20
-83.21645
 11
-92.043975
 21
-68.48697
  0
LINE
  8
型材断面
  6
CONTINUOUS
 10
-108.461162
 20
-84.491287
 11
-90.970395
 21
-69.761808
  0
CIRCLE
  8
ボルト／ビス
  6
CONTINUOUS
 10
-108.742987
 20
-83.639152
 40
0.250185
  0
CIRCLE
  8
ボルト／ビス
  6
CONTINUOUS
 10
-108.742987
 20
-83.639152
 40
0.301025
  0
LINE
  8
ボルト／ビス
  6
CONTINUOUS
 62
    64
 10
-108.989295
 20
-83.683035
 11
-108.904143
 21
-83.447787
  0
LINE
  8
ボルト／ビス
  6
CONTINUOUS
 62
    64
 10
-108.657835
 20
-83.403903
 11
-108.904143
 21
-83.447787
  0
LINE
  8
ボルト／ビス
  6
CONTINUOUS
 62
    64
 10
-108.82814
 20
-83.874403
 11
-108.581833
 21
-83.830518
  0
LINE
  8
ボルト／ビス
  6
CONTINUOUS
 62
    64
 10
-108.49668
 20
-83.59527
 11
-108.581833
 21
-83.830518
  0
LINE
  8
ボルト／ビス
  6
CONTINUOUS
 62
    64
 10
-108.989295
 20
-83.683035
 11
-108.82814
 21
-83.874403
  0
LINE
  8
ボルト／ビス
  6
CONTINUOUS
 62
    64
 10
-108.657835
 20
-83.403903
 11
-108.49668
 21
-83.59527
  0
CIRCLE
  8
ボルト／ビス
  6
CONTINUOUS
 62
    64
 10
-108.742987
 20
-83.639152
 40
0.216668
  0
CIRCLE
  8
ボルト／ビス
  6
CONTINUOUS
 10
-100.25257
 20
-76.489127
 40
0.250185
  0
CIRCLE
  8
ボルト／ビス
  6
CONTINUOUS
 10
-100.25257
 20
-76.489127
 40
0.301025
  0
LINE
  8
ボルト／ビス
  6
CONTINUOUS
 62
    64
 10
-100.498877
 20
-76.53301
 11
-100.413725
 21
-76.29776
  0
LINE
  8
ボルト／ビス
  6
CONTINUOUS
 62
    64
 10
-100.167418
 20
-76.253878
 11
-100.413725
 21
-76.29776
  0
LINE
  8
ボルト／ビス
  6
CONTINUOUS
 62
    64
 10
-100.337723
 20
-76.724377
 11
-100.091413
 21
-76.680495
  0
LINE
  8
ボルト／ビス
  6
CONTINUOUS
 62
    64
 10
-100.006262
 20
-76.445248
 11
-100.091413
 21
-76.680495
  0
LINE
  8
ボルト／ビス
  6
CONTINUOUS
 62
    64
 10
-100.498877
 20
-76.53301
 11
-100.337723
 21
-76.724377
  0
LINE
  8
ボルト／ビス
  6
CONTINUOUS
 62
    64
 10
-100.167418
 20
-76.253878
 11
-100.006262
 21
-76.445248
  0
CIRCLE
  8
ボルト／ビス
  6
CONTINUOUS
 62
    64
 10
-100.25257
 20
-76.489127
 40
0.216668
  0
CIRCLE
  8
ボルト／ビス
  6
CONTINUOUS
 10
-91.76215
 20
-69.339102
 40
0.250185
  0
CIRCLE
  8
ボルト／ビス
  6
CONTINUOUS
 10
-91.76215
 20
-69.339102
 40
0.301025
  0
LINE
  8
ボルト／ビス
  6
CONTINUOUS
 62
    64
 10
-91.676998
 20
-69.103852
 11
-91.923308
 21
-69.147738
  0
LINE
  8
ボルト／ビス
  6
CONTINUOUS
 62
    64
 10
-92.00846
 20
-69.382985
 11
-91.923308
 21
-69.147738
  0
LINE
  8
ボルト／ビス
  6
CONTINUOUS
 62
    64
 10
-91.515845
 20
-69.29522
 11
-91.600995
 21
-69.530468
  0
LINE
  8
ボルト／ビス
  6
CONTINUOUS
 62
    64
 10
-91.847305
 20
-69.574352
 11
-91.600995
 21
-69.530468
  0
LINE
  8
ボルト／ビス
  6
CONTINUOUS
 62
    64
 10
-91.676998
 20
-69.103852
 11
-91.515845
 21
-69.29522
  0
LINE
  8
ボルト／ビス
  6
CONTINUOUS
 62
    64
 10
-92.00846
 20
-69.382985
 11
-91.847305
 21
-69.574352
  0
CIRCLE
  8
ボルト／ビス
  6
CONTINUOUS
 62
    64
 10
-91.76215
 20
-69.339102
 40
0.216668
  0
ENDBLK
  0
BLOCK
  2
*GRP_0023
 70
    65
 10
0.0
 20
0.0
  0
LINE
  8
補助線
  6
BYBLOCK
 62
    64
 10
-91.825895
 20
-83.585473
 11
-91.69841
 21
-83.692832
  0
LINE
  8
補助線
  6
BYBLOCK
 62
    64
 10
-91.708472
 20
-83.575407
 11
-91.815833
 21
-83.702895
  0
LINE
  8
補助線
  6
BYBLOCK
 62
    64
 10
-100.316313
 20
-76.43545
 11
-100.188828
 21
-76.542805
  0
LINE
  8
補助線
  6
BYBLOCK
 62
    64
 10
-100.19889
 20
-76.425385
 11
-100.30625
 21
-76.552867
  0
LINE
  8
補助線
  6
BYBLOCK
 62
    64
 10
-108.679248
 20
-69.39278
 11
-108.80673
 21
-69.285423
  0
LINE
  8
補助線
  6
BYBLOCK
 62
    64
 10
-108.689308
 20
-69.275357
 11
-108.796667
 21
-69.402845
  0
LINE
  8
型材断面
  6
CONTINUOUS
 10
-90.970398
 20
-83.21645
 11
-90.91002
 21
-83.920975
  0
LINE
  8
型材断面
  6
CONTINUOUS
 10
-90.91002
 20
-83.920975
 11
-91.339452
 21
-84.43091
  0
LINE
  8
型材断面
  6
CONTINUOUS
 10
-91.339452
 20
-84.43091
 11
-92.043977
 21
-84.491287
  0
LINE
  8
型材断面
  6
CONTINUOUS
 10
-108.461165
 20
-68.48697
 11
-109.16569
 21
-68.547347
  0
LINE
  8
型材断面
  6
CONTINUOUS
 10
-109.16569
 20
-68.547347
 11
-109.595122
 21
-69.057283
  0
LINE
  8
型材断面
  6
CONTINUOUS
 10
-109.595122
 20
-69.057283
 11
-109.534745
 21
-69.761808
  0
LINE
  8
型材断面
  6
CONTINUOUS
 10
-90.970398
 20
-83.21645
 11
-108.461165
 21
-68.48697
  0
LINE
  8
型材断面
  6
CONTINUOUS
 10
-92.043977
 20
-84.491287
 11
-109.534745
 21
-69.761808
  0
CIRCLE
  8
ボルト／ビス
  6
CONTINUOUS
 10
-91.762152
 20
-83.639152
 40
0.250185
  0
CIRCLE
  8
ボルト／ビス
  6
CONTINUOUS
 10
-91.762152
 20
-83.639152
 40
0.301025
  0
LINE
  8
ボルト／ビス
  6
CONTINUOUS
 62
    64
 10
-91.515845
 20
-83.683035
 11
-91.600997
 21
-83.447787
  0
LINE
  8
ボルト／ビス
  6
CONTINUOUS
 62
    64
 10
-91.847305
 20
-83.403903
 11
-91.600997
 21
-83.447787
  0
LINE
  8
ボルト／ビス
  6
CONTINUOUS
 62
    64
 10
-91.677
 20
-83.874403
 11
-91.923308
 21
-83.830518
  0
LINE
  8
ボルト／ビス
  6
CONTINUOUS
 62
    64
 10
-92.00846
 20
-83.59527
 11
-91.923308
 21
-83.830518
  0
LINE
  8
ボルト／ビス
  6
CONTINUOUS
 62
    64
 10
-91.515845
 20
-83.683035
 11
-91.677
 21
-83.874403
  0
LINE
  8
ボルト／ビス
  6
CONTINUOUS
 62
    64
 10
-91.847305
 20
-83.403903
 11
-92.00846
 21
-83.59527
  0
CIRCLE
  8
ボルト／ビス
  6
CONTINUOUS
 62
    64
 10
-91.762152
 20
-83.639152
 40
0.216668
  0
CIRCLE
  8
ボルト／ビス
  6
CONTINUOUS
 10
-100.25257
 20
-76.489127
 40
0.250185
  0
CIRCLE
  8
ボルト／ビス
  6
CONTINUOUS
 10
-100.25257
 20
-76.489127
 40
0.301025
  0
LINE
  8
ボルト／ビス
  6
CONTINUOUS
 62
    64
 10
-100.006262
 20
-76.53301
 11
-100.091415
 21
-76.29776
  0
LINE
  8
ボルト／ビス
  6
CONTINUOUS
 62
    64
 10
-100.337723
 20
-76.253878
 11
-100.091415
 21
-76.29776
  0
LINE
  8
ボルト／ビス
  6
CONTINUOUS
 62
    64
 10
-100.167418
 20
-76.724377
 11
-100.413728
 21
-76.680495
  0
LINE
  8
ボルト／ビス
  6
CONTINUOUS
 62
    64
 10
-100.498877
 20
-76.445248
 11
-100.413728
 21
-76.680495
  0
LINE
  8
ボルト／ビス
  6
CONTINUOUS
 62
    64
 10
-100.006262
 20
-76.53301
 11
-100.167418
 21
-76.724377
  0
LINE
  8
ボルト／ビス
  6
CONTINUOUS
 62
    64
 10
-100.337723
 20
-76.253878
 11
-100.498877
 21
-76.445248
  0
CIRCLE
  8
ボルト／ビス
  6
CONTINUOUS
 62
    64
 10
-100.25257
 20
-76.489127
 40
0.216668
  0
CIRCLE
  8
ボルト／ビス
  6
CONTINUOUS
 10
-108.74299
 20
-69.339102
 40
0.250185
  0
CIRCLE
  8
ボルト／ビス
  6
CONTINUOUS
 10
-108.74299
 20
-69.339102
 40
0.301025
  0
LINE
  8
ボルト／ビス
  6
CONTINUOUS
 62
    64
 10
-108.828143
 20
-69.103852
 11
-108.581833
 21
-69.147738
  0
LINE
  8
ボルト／ビス
  6
CONTINUOUS
 62
    64
 10
-108.49668
 20
-69.382985
 11
-108.581833
 21
-69.147738
  0
LINE
  8
ボルト／ビス
  6
CONTINUOUS
 62
    64
 10
-108.989295
 20
-69.29522
 11
-108.904145
 21
-69.530468
  0
LINE
  8
ボルト／ビス
  6
CONTINUOUS
 62
    64
 10
-108.657835
 20
-69.574352
 11
-108.904145
 21
-69.530468
  0
LINE
  8
ボルト／ビス
  6
CONTINUOUS
 62
    64
 10
-108.828143
 20
-69.103852
 11
-108.989295
 21
-69.29522
  0
LINE
  8
ボルト／ビス
  6
CONTINUOUS
 62
    64
 10
-108.49668
 20
-69.382985
 11
-108.657835
 21
-69.574352
  0
CIRCLE
  8
ボルト／ビス
  6
CONTINUOUS
 62
    64
 10
-108.74299
 20
-69.339102
 40
0.216668
  0
ENDBLK
  0
BLOCK
  2
*GRP_0024
 70
    65
 10
0.0
 20
0.0
  0
LINE
  8
補助線
  6
BYBLOCK
 62
    64
 10
67.85994
 20
-83.585473
 11
67.987425
 21
-83.692832
  0
LINE
  8
補助線
  6
BYBLOCK
 62
    64
 10
67.977362
 20
-83.575407
 11
67.870003
 21
-83.702895
  0
LINE
  8
補助線
  6
BYBLOCK
 62
    64
 10
59.369522
 20
-76.43545
 11
59.497007
 21
-76.542805
  0
LINE
  8
補助線
  6
BYBLOCK
 62
    64
 10
59.486945
 20
-76.425385
 11
59.379585
 21
-76.552867
  0
LINE
  8
補助線
  6
BYBLOCK
 62
    64
 10
51.006588
 20
-69.39278
 11
50.879105
 21
-69.285423
  0
LINE
  8
補助線
  6
BYBLOCK
 62
    64
 10
50.996528
 20
-69.275357
 11
50.889168
 21
-69.402845
  0
LINE
  8
型材断面
  6
CONTINUOUS
 10
68.715438
 20
-83.21645
 11
68.775815
 21
-83.920975
  0
LINE
  8
型材断面
  6
CONTINUOUS
 10
68.775815
 20
-83.920975
 11
68.346383
 21
-84.43091
  0
LINE
  8
型材断面
  6
CONTINUOUS
 10
68.346383
 20
-84.43091
 11
67.641857
 21
-84.491287
  0
LINE
  8
型材断面
  6
CONTINUOUS
 10
51.22467
 20
-68.48697
 11
50.520145
 21
-68.547347
  0
LINE
  8
型材断面
  6
CONTINUOUS
 10
50.520145
 20
-68.547347
 11
50.090712
 21
-69.057283
  0
LINE
  8
型材断面
  6
CONTINUOUS
 10
50.090712
 20
-69.057283
 11
50.15109
 21
-69.761808
  0
LINE
  8
型材断面
  6
CONTINUOUS
 10
68.715438
 20
-83.21645
 11
51.22467
 21
-68.48697
  0
LINE
  8
型材断面
  6
CONTINUOUS
 10
67.641857
 20
-84.491287
 11
50.15109
 21
-69.761808
  0
CIRCLE
  8
ボルト／ビス
  6
CONTINUOUS
 10
67.923682
 20
-83.639152
 40
0.250185
  0
CIRCLE
  8
ボルト／ビス
  6
CONTINUOUS
 10
67.923682
 20
-83.639152
 40
0.301025
  0
LINE
  8
ボルト／ビス
  6
CONTINUOUS
 62
    64
 10
68.16999
 20
-83.683035
 11
68.084837
 21
-83.447787
  0
LINE
  8
ボルト／ビス
  6
CONTINUOUS
 62
    64
 10
67.83853
 20
-83.403903
 11
68.084837
 21
-83.447787
  0
LINE
  8
ボルト／ビス
  6
CONTINUOUS
 62
    64
 10
68.008835
 20
-83.874403
 11
67.762528
 21
-83.830518
  0
LINE
  8
ボルト／ビス
  6
CONTINUOUS
 62
    64
 10
67.677375
 20
-83.59527
 11
67.762528
 21
-83.830518
  0
LINE
  8
ボルト／ビス
  6
CONTINUOUS
 62
    64
 10
68.16999
 20
-83.683035
 11
68.008835
 21
-83.874403
  0
LINE
  8
ボルト／ビス
  6
CONTINUOUS
 62
    64
 10
67.83853
 20
-83.403903
 11
67.677375
 21
-83.59527
  0
CIRCLE
  8
ボルト／ビス
  6
CONTINUOUS
 62
    64
 10
67.923682
 20
-83.639152
 40
0.216668
  0
CIRCLE
  8
ボルト／ビス
  6
CONTINUOUS
 10
59.433265
 20
-76.489127
 40
0.250185
  0
CIRCLE
  8
ボルト／ビス
  6
CONTINUOUS
 10
59.433265
 20
-76.489127
 40
0.301025
  0
LINE
  8
ボルト／ビス
  6
CONTINUOUS
 62
    64
 10
59.679572
 20
-76.53301
 11
59.59442
 21
-76.29776
  0
LINE
  8
ボルト／ビス
  6
CONTINUOUS
 62
    64
 10
59.348113
 20
-76.253878
 11
59.59442
 21
-76.29776
  0
LINE
  8
ボルト／ビス
  6
CONTINUOUS
 62
    64
 10
59.518418
 20
-76.724377
 11
59.272107
 21
-76.680495
  0
LINE
  8
ボルト／ビス
  6
CONTINUOUS
 62
    64
 10
59.186958
 20
-76.445248
 11
59.272107
 21
-76.680495
  0
LINE
  8
ボルト／ビス
  6
CONTINUOUS
 62
    64
 10
59.679572
 20
-76.53301
 11
59.518418
 21
-76.724377
  0
LINE
  8
ボルト／ビス
  6
CONTINUOUS
 62
    64
 10
59.348113
 20
-76.253878
 11
59.186958
 21
-76.445248
  0
CIRCLE
  8
ボルト／ビス
  6
CONTINUOUS
 62
    64
 10
59.433265
 20
-76.489127
 40
0.216668
  0
CIRCLE
  8
ボルト／ビス
  6
CONTINUOUS
 10
50.942845
 20
-69.339102
 40
0.250185
  0
CIRCLE
  8
ボルト／ビス
  6
CONTINUOUS
 10
50.942845
 20
-69.339102
 40
0.301025
  0
LINE
  8
ボルト／ビス
  6
CONTINUOUS
 62
    64
 10
50.857692
 20
-69.103852
 11
51.104003
 21
-69.147738
  0
LINE
  8
ボルト／ビス
  6
CONTINUOUS
 62
    64
 10
51.189155
 20
-69.382985
 11
51.104003
 21
-69.147738
  0
LINE
  8
ボルト／ビス
  6
CONTINUOUS
 62
    64
 10
50.69654
 20
-69.29522
 11
50.78169
 21
-69.530468
  0
LINE
  8
ボルト／ビス
  6
CONTINUOUS
 62
    64
 10
51.028
 20
-69.574352
 11
50.78169
 21
-69.530468
  0
LINE
  8
ボルト／ビス
  6
CONTINUOUS
 62
    64
 10
50.857692
 20
-69.103852
 11
50.69654
 21
-69.29522
  0
LINE
  8
ボルト／ビス
  6
CONTINUOUS
 62
    64
 10
51.189155
 20
-69.382985
 11
51.028
 21
-69.574352
  0
CIRCLE
  8
ボルト／ビス
  6
CONTINUOUS
 62
    64
 10
50.942845
 20
-69.339102
 40
0.216668
  0
ENDBLK
  0
BLOCK
  2
*GRP_0025
 70
    65
 10
0.0
 20
0.0
  0
LINE
  8
補助線
  6
BYBLOCK
 62
    64
 10
51.00659
 20
-83.585473
 11
50.879105
 21
-83.692832
  0
LINE
  8
補助線
  6
BYBLOCK
 62
    64
 10
50.889168
 20
-83.575407
 11
50.996528
 21
-83.702895
  0
LINE
  8
補助線
  6
BYBLOCK
 62
    64
 10
59.497007
 20
-76.43545
 11
59.369522
 21
-76.542805
  0
LINE
  8
補助線
  6
BYBLOCK
 62
    64
 10
59.379585
 20
-76.425385
 11
59.486945
 21
-76.552867
  0
LINE
  8
補助線
  6
BYBLOCK
 62
    64
 10
67.859943
 20
-69.39278
 11
67.987425
 21
-69.285423
  0
LINE
  8
補助線
  6
BYBLOCK
 62
    64
 10
67.870003
 20
-69.275357
 11
67.977362
 21
-69.402845
  0
LINE
  8
型材断面
  6
CONTINUOUS
 10
50.151093
 20
-83.21645
 11
50.090715
 21
-83.920975
  0
LINE
  8
型材断面
  6
CONTINUOUS
 10
50.090715
 20
-83.920975
 11
50.520147
 21
-84.43091
  0
LINE
  8
型材断面
  6
CONTINUOUS
 10
50.520147
 20
-84.43091
 11
51.224673
 21
-84.491287
  0
LINE
  8
型材断面
  6
CONTINUOUS
 10
67.64186
 20
-68.48697
 11
68.346385
 21
-68.547347
  0
LINE
  8
型材断面
  6
CONTINUOUS
 10
68.346385
 20
-68.547347
 11
68.775818
 21
-69.057283
  0
LINE
  8
型材断面
  6
CONTINUOUS
 10
68.775818
 20
-69.057283
 11
68.71544
 21
-69.761808
  0
LINE
  8
型材断面
  6
CONTINUOUS
 10
50.151093
 20
-83.21645
 11
67.64186
 21
-68.48697
  0
LINE
  8
型材断面
  6
CONTINUOUS
 10
51.224673
 20
-84.491287
 11
68.71544
 21
-69.761808
  0
CIRCLE
  8
ボルト／ビス
  6
CONTINUOUS
 10
50.942848
 20
-83.639152
 40
0.250185
  0
CIRCLE
  8
ボルト／ビス
  6
CONTINUOUS
 10
50.942848
 20
-83.639152
 40
0.301025
  0
LINE
  8
ボルト／ビス
  6
CONTINUOUS
 62
    64
 10
50.69654
 20
-83.683035
 11
50.781692
 21
-83.447787
  0
LINE
  8
ボルト／ビス
  6
CONTINUOUS
 62
    64
 10
51.028
 20
-83.403903
 11
50.781692
 21
-83.447787
  0
LINE
  8
ボルト／ビス
  6
CONTINUOUS
 62
    64
 10
50.857695
 20
-83.874403
 11
51.104003
 21
-83.830518
  0
LINE
  8
ボルト／ビス
  6
CONTINUOUS
 62
    64
 10
51.189155
 20
-83.59527
 11
51.104003
 21
-83.830518
  0
LINE
  8
ボルト／ビス
  6
CONTINUOUS
 62
    64
 10
50.69654
 20
-83.683035
 11
50.857695
 21
-83.874403
  0
LINE
  8
ボルト／ビス
  6
CONTINUOUS
 62
    64
 10
51.028
 20
-83.403903
 11
51.189155
 21
-83.59527
  0
CIRCLE
  8
ボルト／ビス
  6
CONTINUOUS
 62
    64
 10
50.942848
 20
-83.639152
 40
0.216668
  0
CIRCLE
  8
ボルト／ビス
  6
CONTINUOUS
 10
59.433265
 20
-76.489127
 40
0.250185
  0
CIRCLE
  8
ボルト／ビス
  6
CONTINUOUS
 10
59.433265
 20
-76.489127
 40
0.301025
  0
LINE
  8
ボルト／ビス
  6
CONTINUOUS
 62
    64
 10
59.186958
 20
-76.53301
 11
59.27211
 21
-76.29776
  0
LINE
  8
ボルト／ビス
  6
CONTINUOUS
 62
    64
 10
59.518418
 20
-76.253878
 11
59.27211
 21
-76.29776
  0
LINE
  8
ボルト／ビス
  6
CONTINUOUS
 62
    64
 10
59.348113
 20
-76.724377
 11
59.594422
 21
-76.680495
  0
LINE
  8
ボルト／ビス
  6
CONTINUOUS
 62
    64
 10
59.679572
 20
-76.445248
 11
59.594422
 21
-76.680495
  0
LINE
  8
ボルト／ビス
  6
CONTINUOUS
 62
    64
 10
59.186958
 20
-76.53301
 11
59.348113
 21
-76.724377
  0
LINE
  8
ボルト／ビス
  6
CONTINUOUS
 62
    64
 10
59.518418
 20
-76.253878
 11
59.679572
 21
-76.445248
  0
CIRCLE
  8
ボルト／ビス
  6
CONTINUOUS
 62
    64
 10
59.433265
 20
-76.489127
 40
0.216668
  0
CIRCLE
  8
ボルト／ビス
  6
CONTINUOUS
 10
67.923685
 20
-69.339102
 40
0.250185
  0
CIRCLE
  8
ボルト／ビス
  6
CONTINUOUS
 10
67.923685
 20
-69.339102
 40
0.301025
  0
LINE
  8
ボルト／ビス
  6
CONTINUOUS
 62
    64
 10
68.008837
 20
-69.103852
 11
67.762528
 21
-69.147738
  0
LINE
  8
ボルト／ビス
  6
CONTINUOUS
 62
    64
 10
67.677375
 20
-69.382985
 11
67.762528
 21
-69.147738
  0
LINE
  8
ボルト／ビス
  6
CONTINUOUS
 62
    64
 10
68.16999
 20
-69.29522
 11
68.08484
 21
-69.530468
  0
LINE
  8
ボルト／ビス
  6
CONTINUOUS
 62
    64
 10
67.83853
 20
-69.574352
 11
68.08484
 21
-69.530468
  0
LINE
  8
ボルト／ビス
  6
CONTINUOUS
 62
    64
 10
68.008837
 20
-69.103852
 11
68.16999
 21
-69.29522
  0
LINE
  8
ボルト／ビス
  6
CONTINUOUS
 62
    64
 10
67.677375
 20
-69.382985
 11
67.83853
 21
-69.574352
  0
CIRCLE
  8
ボルト／ビス
  6
CONTINUOUS
 62
    64
 10
67.923685
 20
-69.339102
 40
0.216668
  0
ENDBLK
  0
BLOCK
  2
*GRP_0026
 70
    65
 10
0.0
 20
0.0
  0
LINE
  8
補助線
  6
BYBLOCK
 62
    64
 10
-11.982978
 20
-83.585473
 11
-11.855493
 21
-83.692832
  0
LINE
  8
補助線
  6
BYBLOCK
 62
    64
 10
-11.865555
 20
-83.575407
 11
-11.972915
 21
-83.702895
  0
LINE
  8
補助線
  6
BYBLOCK
 62
    64
 10
-20.473395
 20
-76.43545
 11
-20.34591
 21
-76.542805
  0
LINE
  8
補助線
  6
BYBLOCK
 62
    64
 10
-20.355973
 20
-76.425385
 11
-20.463332
 21
-76.552867
  0
LINE
  8
補助線
  6
BYBLOCK
 62
    64
 10
-28.83633
 20
-69.39278
 11
-28.963813
 21
-69.285423
  0
LINE
  8
補助線
  6
BYBLOCK
 62
    64
 10
-28.84639
 20
-69.275357
 11
-28.95375
 21
-69.402845
  0
LINE
  8
型材断面
  6
CONTINUOUS
 10
-11.12748
 20
-83.21645
 11
-11.067102
 21
-83.920975
  0
LINE
  8
型材断面
  6
CONTINUOUS
 10
-11.067102
 20
-83.920975
 11
-11.496535
 21
-84.43091
  0
LINE
  8
型材断面
  6
CONTINUOUS
 10
-11.496535
 20
-84.43091
 11
-12.20106
 21
-84.491287
  0
LINE
  8
型材断面
  6
CONTINUOUS
 10
-28.618247
 20
-68.48697
 11
-29.322772
 21
-68.547347
  0
LINE
  8
型材断面
  6
CONTINUOUS
 10
-29.322772
 20
-68.547347
 11
-29.752205
 21
-69.057283
  0
LINE
  8
型材断面
  6
CONTINUOUS
 10
-29.752205
 20
-69.057283
 11
-29.691827
 21
-69.761808
  0
LINE
  8
型材断面
  6
CONTINUOUS
 10
-11.12748
 20
-83.21645
 11
-28.618247
 21
-68.48697
  0
LINE
  8
型材断面
  6
CONTINUOUS
 10
-12.20106
 20
-84.491287
 11
-29.691827
 21
-69.761808
  0
CIRCLE
  8
ボルト／ビス
  6
CONTINUOUS
 10
-11.919235
 20
-83.639152
 40
0.250185
  0
CIRCLE
  8
ボルト／ビス
  6
CONTINUOUS
 10
-11.919235
 20
-83.639152
 40
0.301025
  0
LINE
  8
ボルト／ビス
  6
CONTINUOUS
 62
    64
 10
-11.672927
 20
-83.683035
 11
-11.75808
 21
-83.447787
  0
LINE
  8
ボルト／ビス
  6
CONTINUOUS
 62
    64
 10
-12.004388
 20
-83.403903
 11
-11.75808
 21
-83.447787
  0
LINE
  8
ボルト／ビス
  6
CONTINUOUS
 62
    64
 10
-11.834083
 20
-83.874403
 11
-12.08039
 21
-83.830518
  0
LINE
  8
ボルト／ビス
  6
CONTINUOUS
 62
    64
 10
-12.165542
 20
-83.59527
 11
-12.08039
 21
-83.830518
  0
LINE
  8
ボルト／ビス
  6
CONTINUOUS
 62
    64
 10
-11.672927
 20
-83.683035
 11
-11.834083
 21
-83.874403
  0
LINE
  8
ボルト／ビス
  6
CONTINUOUS
 62
    64
 10
-12.004388
 20
-83.403903
 11
-12.165542
 21
-83.59527
  0
CIRCLE
  8
ボルト／ビス
  6
CONTINUOUS
 62
    64
 10
-11.919235
 20
-83.639152
 40
0.216668
  0
CIRCLE
  8
ボルト／ビス
  6
CONTINUOUS
 10
-20.409652
 20
-76.489127
 40
0.250185
  0
CIRCLE
  8
ボルト／ビス
  6
CONTINUOUS
 10
-20.409652
 20
-76.489127
 40
0.301025
  0
LINE
  8
ボルト／ビス
  6
CONTINUOUS
 62
    64
 10
-20.163345
 20
-76.53301
 11
-20.248498
 21
-76.29776
  0
LINE
  8
ボルト／ビス
  6
CONTINUOUS
 62
    64
 10
-20.494805
 20
-76.253878
 11
-20.248498
 21
-76.29776
  0
LINE
  8
ボルト／ビス
  6
CONTINUOUS
 62
    64
 10
-20.3245
 20
-76.724377
 11
-20.57081
 21
-76.680495
  0
LINE
  8
ボルト／ビス
  6
CONTINUOUS
 62
    64
 10
-20.65596
 20
-76.445248
 11
-20.57081
 21
-76.680495
  0
LINE
  8
ボルト／ビス
  6
CONTINUOUS
 62
    64
 10
-20.163345
 20
-76.53301
 11
-20.3245
 21
-76.724377
  0
LINE
  8
ボルト／ビス
  6
CONTINUOUS
 62
    64
 10
-20.494805
 20
-76.253878
 11
-20.65596
 21
-76.445248
  0
CIRCLE
  8
ボルト／ビス
  6
CONTINUOUS
 62
    64
 10
-20.409652
 20
-76.489127
 40
0.216668
  0
CIRCLE
  8
ボルト／ビス
  6
CONTINUOUS
 10
-28.900072
 20
-69.339102
 40
0.250185
  0
CIRCLE
  8
ボルト／ビス
  6
CONTINUOUS
 10
-28.900072
 20
-69.339102
 40
0.301025
  0
LINE
  8
ボルト／ビス
  6
CONTINUOUS
 62
    64
 10
-28.985225
 20
-69.103852
 11
-28.738915
 21
-69.147738
  0
LINE
  8
ボルト／ビス
  6
CONTINUOUS
 62
    64
 10
-28.653762
 20
-69.382985
 11
-28.738915
 21
-69.147738
  0
LINE
  8
ボルト／ビス
  6
CONTINUOUS
 62
    64
 10
-29.146378
 20
-69.29522
 11
-29.061228
 21
-69.530468
  0
LINE
  8
ボルト／ビス
  6
CONTINUOUS
 62
    64
 10
-28.814917
 20
-69.574352
 11
-29.061228
 21
-69.530468
  0
LINE
  8
ボルト／ビス
  6
CONTINUOUS
 62
    64
 10
-28.985225
 20
-69.103852
 11
-29.146378
 21
-69.29522
  0
LINE
  8
ボルト／ビス
  6
CONTINUOUS
 62
    64
 10
-28.653762
 20
-69.382985
 11
-28.814917
 21
-69.574352
  0
CIRCLE
  8
ボルト／ビス
  6
CONTINUOUS
 62
    64
 10
-28.900072
 20
-69.339102
 40
0.216668
  0
ENDBLK
  0
BLOCK
  2
*GRP_0027
 70
    65
 10
0.0
 20
0.0
  0
LINE
  8
補助線
  6
BYBLOCK
 62
    64
 10
-28.836327
 20
-83.585473
 11
-28.963813
 21
-83.692832
  0
LINE
  8
補助線
  6
BYBLOCK
 62
    64
 10
-28.95375
 20
-83.575407
 11
-28.84639
 21
-83.702895
  0
LINE
  8
補助線
  6
BYBLOCK
 62
    64
 10
-20.34591
 20
-76.43545
 11
-20.473395
 21
-76.542805
  0
LINE
  8
補助線
  6
BYBLOCK
 62
    64
 10
-20.463332
 20
-76.425385
 11
-20.355973
 21
-76.552867
  0
LINE
  8
補助線
  6
BYBLOCK
 62
    64
 10
-11.982975
 20
-69.39278
 11
-11.855493
 21
-69.285423
  0
LINE
  8
補助線
  6
BYBLOCK
 62
    64
 10
-11.972915
 20
-69.275357
 11
-11.865555
 21
-69.402845
  0
LINE
  8
型材断面
  6
CONTINUOUS
 10
-29.691825
 20
-83.21645
 11
-29.752203
 21
-83.920975
  0
LINE
  8
型材断面
  6
CONTINUOUS
 10
-29.752203
 20
-83.920975
 11
-29.32277
 21
-84.43091
  0
LINE
  8
型材断面
  6
CONTINUOUS
 10
-29.32277
 20
-84.43091
 11
-28.618245
 21
-84.491287
  0
LINE
  8
型材断面
  6
CONTINUOUS
 10
-12.201058
 20
-68.48697
 11
-11.496533
 21
-68.547347
  0
LINE
  8
型材断面
  6
CONTINUOUS
 10
-11.496533
 20
-68.547347
 11
-11.0671
 21
-69.057283
  0
LINE
  8
型材断面
  6
CONTINUOUS
 10
-11.0671
 20
-69.057283
 11
-11.127477
 21
-69.761808
  0
LINE
  8
型材断面
  6
CONTINUOUS
 10
-29.691825
 20
-83.21645
 11
-12.201058
 21
-68.48697
  0
LINE
  8
型材断面
  6
CONTINUOUS
 10
-28.618245
 20
-84.491287
 11
-11.127477
 21
-69.761808
  0
CIRCLE
  8
ボルト／ビス
  6
CONTINUOUS
 10
-28.90007
 20
-83.639152
 40
0.250185
  0
CIRCLE
  8
ボルト／ビス
  6
CONTINUOUS
 10
-28.90007
 20
-83.639152
 40
0.301025
  0
LINE
  8
ボルト／ビス
  6
CONTINUOUS
 62
    64
 10
-29.146378
 20
-83.683035
 11
-29.061225
 21
-83.447787
  0
LINE
  8
ボルト／ビス
  6
CONTINUOUS
 62
    64
 10
-28.814917
 20
-83.403903
 11
-29.061225
 21
-83.447787
  0
LINE
  8
ボルト／ビス
  6
CONTINUOUS
 62
    64
 10
-28.985222
 20
-83.874403
 11
-28.738915
 21
-83.830518
  0
LINE
  8
ボルト／ビス
  6
CONTINUOUS
 62
    64
 10
-28.653762
 20
-83.59527
 11
-28.738915
 21
-83.830518
  0
LINE
  8
ボルト／ビス
  6
CONTINUOUS
 62
    64
 10
-29.146378
 20
-83.683035
 11
-28.985222
 21
-83.874403
  0
LINE
  8
ボルト／ビス
  6
CONTINUOUS
 62
    64
 10
-28.814917
 20
-83.403903
 11
-28.653762
 21
-83.59527
  0
CIRCLE
  8
ボルト／ビス
  6
CONTINUOUS
 62
    64
 10
-28.90007
 20
-83.639152
 40
0.216668
  0
CIRCLE
  8
ボルト／ビス
  6
CONTINUOUS
 10
-20.409652
 20
-76.489127
 40
0.250185
  0
CIRCLE
  8
ボルト／ビス
  6
CONTINUOUS
 10
-20.409652
 20
-76.489127
 40
0.301025
  0
LINE
  8
ボルト／ビス
  6
CONTINUOUS
 62
    64
 10
-20.65596
 20
-76.53301
 11
-20.570807
 21
-76.29776
  0
LINE
  8
ボルト／ビス
  6
CONTINUOUS
 62
    64
 10
-20.3245
 20
-76.253878
 11
-20.570807
 21
-76.29776
  0
LINE
  8
ボルト／ビス
  6
CONTINUOUS
 62
    64
 10
-20.494805
 20
-76.724377
 11
-20.248495
 21
-76.680495
  0
LINE
  8
ボルト／ビス
  6
CONTINUOUS
 62
    64
 10
-20.163345
 20
-76.445248
 11
-20.248495
 21
-76.680495
  0
LINE
  8
ボルト／ビス
  6
CONTINUOUS
 62
    64
 10
-20.65596
 20
-76.53301
 11
-20.494805
 21
-76.724377
  0
LINE
  8
ボルト／ビス
  6
CONTINUOUS
 62
    64
 10
-20.3245
 20
-76.253878
 11
-20.163345
 21
-76.445248
  0
CIRCLE
  8
ボルト／ビス
  6
CONTINUOUS
 62
    64
 10
-20.409652
 20
-76.489127
 40
0.216668
  0
CIRCLE
  8
ボルト／ビス
  6
CONTINUOUS
 10
-11.919232
 20
-69.339102
 40
0.250185
  0
CIRCLE
  8
ボルト／ビス
  6
CONTINUOUS
 10
-11.919232
 20
-69.339102
 40
0.301025
  0
LINE
  8
ボルト／ビス
  6
CONTINUOUS
 62
    64
 10
-11.83408
 20
-69.103852
 11
-12.08039
 21
-69.147738
  0
LINE
  8
ボルト／ビス
  6
CONTINUOUS
 62
    64
 10
-12.165542
 20
-69.382985
 11
-12.08039
 21
-69.147738
  0
LINE
  8
ボルト／ビス
  6
CONTINUOUS
 62
    64
 10
-11.672927
 20
-69.29522
 11
-11.758078
 21
-69.530468
  0
LINE
  8
ボルト／ビス
  6
CONTINUOUS
 62
    64
 10
-12.004388
 20
-69.574352
 11
-11.758078
 21
-69.530468
  0
LINE
  8
ボルト／ビス
  6
CONTINUOUS
 62
    64
 10
-11.83408
 20
-69.103852
 11
-11.672927
 21
-69.29522
  0
LINE
  8
ボルト／ビス
  6
CONTINUOUS
 62
    64
 10
-12.165542
 20
-69.382985
 11
-12.004388
 21
-69.574352
  0
CIRCLE
  8
ボルト／ビス
  6
CONTINUOUS
 62
    64
 10
-11.919232
 20
-69.339102
 40
0.216668
  0
ENDBLK
  0
BLOCK
  2
*DIM_0028
 70
    65
 10
0.0
 20
0.0
  0
LINE
  8
寸法
  6
CONTINUOUS
 10
166.343563
 20
-54.098222
 11
130.743563
 21
-54.098222
  0
POINT
  8
寸法
 10
166.343563
 20
-54.098222
  0
POINT
  8
寸法
 10
130.743563
 20
-54.098222
  0
TEXT
  7
TextStyle03
  8
寸法
  6
CONTINUOUS
 10
145.24375
 20
-53.75
  1
1068
 40
3.0
 72
     5
 11
151.80625
 21
-53.75
  0
ENDBLK
  0
BLOCK
  2
*DIM_0029
 70
    65
 10
0.0
 20
0.0
  0
LINE
  8
寸法
  6
BYBLOCK
 62
     0
 10
84.492252
 20
-77.98796
 11
84.492252
 21
-66.321292
  0
POINT
  8
寸法
 62
     0
 10
84.492252
 20
-77.98796
  0
POINT
  8
寸法
 62
     0
 10
84.492252
 20
-66.321292
  0
TEXT
  7
TextStyle03
  8
寸法
  6
CONTINUOUS
 62
     0
 10
84.375
 20
-64.04375
  1
上昇324以上
 40
3.0
 50
90.0
 72
     5
 11
84.375
 21
-45.85625
  0
ENDBLK
  0
ENDSEC
  0
SECTION
  2
ENTITIES
  0
POLYLINE
  8
通り芯
  6
CONTINUOUS
 66
     1
 70
     1
  0
VERTEX
  8
通り芯
 10
-210.0
 20
-148.5
  0
VERTEX
  8
通り芯
 10
210.0
 20
-148.5
  0
VERTEX
  8
通り芯
 10
210.0
 20
148.5
  0
VERTEX
  8
通り芯
 10
-210.0
 20
148.5
  0
SEQEND
  0
INSERT
  2
*GRP_0001
  8
型材断面
  6
CONTINUOUS
 10
0.0
 20
0.0
  0
LINE
  8
型材断面
  6
DASHDOT
 10
71.257007
 20
-87.251428
 11
71.257007
 21
43.399048
  0
LINE
  8
型材断面
  6
DASHDOT
 10
-20.40966
 20
-87.251428
 11
-20.40966
 21
43.399048
  0
LINE
  8
型材断面
  6
DASHDOT
 10
-112.076325
 20
-87.251428
 11
-112.076325
 21
43.399048
  0
LINE
  8
型材断面
  6
DASHDOT
 10
168.93377
 20
43.399048
 11
-112.076325
 21
43.399048
  0
LINE
  8
型材断面
  6
DASHDOT
 10
168.93377
 20
28.399048
 11
-112.076325
 21
28.399048
  0
LINE
  8
型材断面
  6
DASHDOT
 10
168.93377
 20
13.399048
 11
-112.076325
 21
13.399048
  0
POLYLINE
  8
型材断面
  6
CONTINUOUS
 66
     1
 70
     1
  0
VERTEX
  8
型材断面
 10
-10.957247
 20
3.623125
  0
VERTEX
  8
型材断面
 10
-29.729177
 20
3.623125
  0
VERTEX
  8
型材断面
 10
-29.729177
 20
-1.113717
  0
VERTEX
  8
型材断面
 10
-10.957247
 20
-1.113717
  0
SEQEND
  0
POLYLINE
  8
型材断面
  6
CONTINUOUS
 66
     1
 70
     1
  0
VERTEX
  8
型材断面
 10
-10.957247
 20
53.17497
  0
VERTEX
  8
型材断面
 10
-29.729177
 20
53.17497
  0
VERTEX
  8
型材断面
 10
-29.729177
 20
57.911813
  0
VERTEX
  8
型材断面
 10
-10.957247
 20
57.911813
  0
SEQEND
  0
LINE
  8
型材断面
  6
CONTINUOUS
 10
-95.409657
 20
46.029177
 11
-96.905288
 21
48.619685
  0
LINE
  8
型材断面
  6
CONTINUOUS
 10
-95.409657
 20
46.029177
 11
-93.914027
 21
48.619685
  0
LINE
  8
型材断面
  6
CONTINUOUS
 10
-93.914027
 20
48.619685
 11
-96.905288
 21
48.619685
  0
LINE
  8
型材断面
  6
CONTINUOUS
 10
-152.928532
 20
81.37652
 11
-152.332478
 21
78.786012
  0
LINE
  8
型材断面
  6
CONTINUOUS
 10
-152.928532
 20
81.37652
 11
-153.52459
 21
78.786012
  0
LINE
  8
型材断面
  6
CONTINUOUS
 10
-153.52459
 20
78.786012
 11
-152.332478
 21
78.786012
  0
LINE
  8
型材断面
  6
CONTINUOUS
 10
-158.95112
 20
75.50712
 11
-112.709343
 21
75.50712
  0
LINE
  8
型材断面
  6
CONTINUOUS
 10
-152.928532
 20
87.906395
 11
-154.424162
 21
85.315887
  0
LINE
  8
型材断面
  6
CONTINUOUS
 10
-152.928532
 20
87.906395
 11
-151.432903
 21
85.315887
  0
LINE
  8
型材断面
  6
CONTINUOUS
 10
-151.432903
 20
85.315887
 11
-154.424162
 21
85.315887
  0
LINE
  8
型材断面
  6
CONTINUOUS
 10
-158.95112
 20
84.377292
 11
-112.709343
 21
84.377292
  0
LINE
  8
型材断面
  6
CONTINUOUS
 10
-158.95112
 20
69.719088
 11
-112.709343
 21
69.719088
  0
LINE
  8
型材断面
  6
CONTINUOUS
 10
-114.706455
 20
28.399048
 11
-117.296962
 21
29.894678
  0
LINE
  8
型材断面
  6
CONTINUOUS
 10
-114.706455
 20
28.399048
 11
-117.296962
 21
26.903418
  0
LINE
  8
型材断面
  6
CONTINUOUS
 10
-117.296962
 20
26.903418
 11
-117.296962
 21
29.894678
  0
LINE
  8
型材断面
  6
CONTINUOUS
 10
-95.409657
 20
10.768917
 11
-96.905288
 21
8.17841
  0
LINE
  8
型材断面
  6
CONTINUOUS
 10
-95.409657
 20
10.768917
 11
-93.914027
 21
8.17841
  0
LINE
  8
型材断面
  6
CONTINUOUS
 10
-93.914027
 20
8.17841
 11
-96.905288
 21
8.17841
  0
LINE
  8
型材断面
  6
CONTINUOUS
 10
54.590337
 20
46.029177
 11
56.085967
 21
48.619685
  0
LINE
  8
型材断面
  6
CONTINUOUS
 10
54.590337
 20
46.029177
 11
53.094708
 21
48.619685
  0
LINE
  8
型材断面
  6
CONTINUOUS
 10
53.094708
 20
48.619685
 11
56.085967
 21
48.619685
  0
LINE
  8
型材断面
  6
CONTINUOUS
 10
73.887135
 20
28.399048
 11
76.477643
 21
29.894678
  0
LINE
  8
型材断面
  6
CONTINUOUS
 10
73.887135
 20
28.399048
 11
76.477643
 21
26.903418
  0
LINE
  8
型材断面
  6
CONTINUOUS
 10
76.477643
 20
26.903418
 11
76.477643
 21
29.894678
  0
LINE
  8
型材断面
  6
CONTINUOUS
 10
54.590337
 20
10.768917
 11
56.085967
 21
8.17841
  0
LINE
  8
型材断面
  6
CONTINUOUS
 10
54.590337
 20
10.768917
 11
53.094708
 21
8.17841
  0
LINE
  8
型材断面
  6
CONTINUOUS
 10
53.094708
 20
8.17841
 11
56.085967
 21
8.17841
  0
LINE
  8
型材断面
  6
CONTINUOUS
 10
-20.40966
 20
46.029175
 11
-21.90529
 21
48.619683
  0
LINE
  8
型材断面
  6
CONTINUOUS
 10
-20.40966
 20
46.029175
 11
-18.91403
 21
48.619683
  0
LINE
  8
型材断面
  6
CONTINUOUS
 10
-18.91403
 20
48.619683
 11
-21.90529
 21
48.619683
  0
LINE
  8
型材断面
  6
CONTINUOUS
 10
-20.40966
 20
10.768915
 11
-21.90529
 21
8.178407
  0
LINE
  8
型材断面
  6
CONTINUOUS
 10
-20.40966
 20
10.768915
 11
-18.91403
 21
8.178407
  0
LINE
  8
型材断面
  6
CONTINUOUS
 10
-18.91403
 20
8.178407
 11
-21.90529
 21
8.178407
  0
LINE
  8
型材断面
  6
CONTINUOUS
 10
73.887138
 20
39.69905
 11
76.477648
 21
39.102997
  0
LINE
  8
型材断面
  6
CONTINUOUS
 10
73.887138
 20
39.69905
 11
76.477645
 21
40.29511
  0
LINE
  8
型材断面
  6
CONTINUOUS
 10
76.477645
 20
40.29511
 11
76.477648
 21
39.102997
  0
LINE
  8
型材断面
  6
CONTINUOUS
 10
73.887138
 20
17.099045
 11
76.477648
 21
17.695097
  0
LINE
  8
型材断面
  6
CONTINUOUS
 10
73.887138
 20
17.099045
 11
76.477645
 21
16.502985
  0
LINE
  8
型材断面
  6
CONTINUOUS
 10
76.477645
 20
16.502985
 11
76.477648
 21
17.695097
  0
LINE
  8
型材断面
  6
CONTINUOUS
 10
-114.706458
 20
39.69905
 11
-117.296968
 21
39.102997
  0
LINE
  8
型材断面
  6
CONTINUOUS
 10
-114.706458
 20
39.69905
 11
-117.296965
 21
40.29511
  0
LINE
  8
型材断面
  6
CONTINUOUS
 10
-117.296965
 20
40.29511
 11
-117.296968
 21
39.102997
  0
LINE
  8
型材断面
  6
CONTINUOUS
 10
-114.706458
 20
17.099045
 11
-117.296968
 21
17.695097
  0
LINE
  8
型材断面
  6
CONTINUOUS
 10
-114.706458
 20
17.099045
 11
-117.296965
 21
16.502985
  0
LINE
  8
型材断面
  6
CONTINUOUS
 10
-117.296965
 20
16.502985
 11
-117.296968
 21
17.695097
  0
LINE
  8
型材断面
  6
CONTINUOUS
 10
-114.05951
 20
11.415868
 11
-20.40966
 21
11.415868
  0
LINE
  8
型材断面
  6
CONTINUOUS
 10
73.24019
 20
11.415868
 11
-20.40966
 21
11.415868
  0
LINE
  8
型材断面
  6
CONTINUOUS
 10
73.24019
 20
45.382228
 11
-20.40966
 21
45.382228
  0
LINE
  8
型材断面
  6
CONTINUOUS
 10
-114.05951
 20
45.382228
 11
-20.40966
 21
45.382228
  0
LINE
  8
型材断面
  6
CONTINUOUS
 10
-158.95112
 20
63.931055
 11
-112.709343
 21
63.931055
  0
ARC
  8
型材断面
  6
CONTINUOUS
 62
    47
 10
163.558225
 20
11.415713
 40
0.016668
 50
179.999123
 51
270.0
  0
ARC
  8
型材断面
  6
CONTINUOUS
 62
    47
 10
163.598227
 20
11.409047
 40
0.010002
 50
270.0
 51
359.791626
  0
LINE
  8
型材断面
  6
CONTINUOUS
 62
    47
 10
163.774948
 20
11.44905
 11
163.774948
 21
12.299198
  0
LINE
  8
型材断面
  6
CONTINUOUS
 62
    47
 10
163.54156
 20
11.415712
 11
161.4349
 21
11.415712
  0
LINE
  8
型材断面
  6
CONTINUOUS
 62
    47
 10
163.774948
 20
11.415718
 11
167.091615
 21
11.415718
  0
LINE
  8
型材断面
  6
CONTINUOUS
 62
    47
 10
167.591615
 20
11.915718
 11
167.091615
 21
11.915718
  0
LINE
  8
型材断面
  6
CONTINUOUS
 62
    47
 10
161.4349
 20
12.299052
 11
161.10823
 21
12.299052
  0
LINE
  8
型材断面
  6
CONTINUOUS
 62
    47
 10
163.558225
 20
11.39905
 11
163.597885
 21
11.39905
  0
ARC
  8
型材断面
  6
CONTINUOUS
 62
    47
 10
163.558225
 20
45.382385
 40
0.016668
 50
90.0
 51
180.000877
  0
ARC
  8
型材断面
  6
CONTINUOUS
 62
    47
 10
163.598227
 20
45.389051
 40
0.010002
 50
0.208374
 51
90.0
  0
LINE
  8
型材断面
  6
CONTINUOUS
 62
    47
 10
163.774948
 20
45.349048
 11
163.774948
 21
44.4989
  0
LINE
  8
型材断面
  6
CONTINUOUS
 62
    47
 10
163.54156
 20
45.382385
 11
161.4349
 21
45.382385
  0
LINE
  8
型材断面
  6
CONTINUOUS
 62
    47
 10
163.774948
 20
45.38238
 11
167.091615
 21
45.38238
  0
LINE
  8
型材断面
  6
CONTINUOUS
 62
    47
 10
167.591615
 20
44.88238
 11
167.091615
 21
44.88238
  0
LINE
  8
型材断面
  6
CONTINUOUS
 62
    47
 10
161.4349
 20
44.499045
 11
161.10823
 21
44.499045
  0
LINE
  8
型材断面
  6
CONTINUOUS
 62
    47
 10
163.558225
 20
45.399048
 11
163.597885
 21
45.399048
  0
LINE
  8
型材断面
  6
CONTINUOUS
 10
159.441565
 20
44.799048
 11
159.441565
 21
28.399048
  0
LINE
  8
型材断面
  6
CONTINUOUS
 10
159.60823
 20
44.955567
 11
159.60823
 21
28.399048
  0
LINE
  8
型材断面
  6
CONTINUOUS
 10
161.10823
 20
44.799048
 11
161.10823
 21
28.399048
  0
LINE
  8
型材断面
  6
CONTINUOUS
 10
161.4349
 20
45.382385
 11
161.4349
 21
28.399048
  0
LINE
  8
型材断面
  6
CONTINUOUS
 10
163.60823
 20
45.38905
 11
163.60823
 21
28.399048
  0
LINE
  8
型材断面
  6
CONTINUOUS
 10
163.774948
 20
45.38238
 11
163.774948
 21
28.399048
  0
LINE
  8
型材断面
  6
CONTINUOUS
 10
167.091615
 20
45.38238
 11
167.091615
 21
28.399048
  0
LINE
  8
型材断面
  6
CONTINUOUS
 10
167.591615
 20
44.88238
 11
167.591615
 21
28.399048
  0
LINE
  8
型材断面
  6
CONTINUOUS
 10
167.591615
 20
11.915718
 11
167.591615
 21
28.399048
  0
LINE
  8
型材断面
  6
CONTINUOUS
 10
167.091615
 20
11.415718
 11
167.091615
 21
28.399048
  0
LINE
  8
型材断面
  6
CONTINUOUS
 10
163.60823
 20
11.409048
 11
163.60823
 21
28.399048
  0
LINE
  8
型材断面
  6
CONTINUOUS
 10
163.774948
 20
11.415718
 11
163.774948
 21
28.399048
  0
LINE
  8
型材断面
  6
CONTINUOUS
 10
161.4349
 20
11.415712
 11
161.4349
 21
28.399048
  0
LINE
  8
型材断面
  6
CONTINUOUS
 10
161.10823
 20
11.99905
 11
161.10823
 21
28.399048
  0
LINE
  8
型材断面
  6
CONTINUOUS
 10
159.60823
 20
11.842527
 11
159.60823
 21
28.399048
  0
LINE
  8
型材断面
  6
CONTINUOUS
 10
159.441565
 20
11.99905
 11
159.441565
 21
28.399048
  0
ARC
  8
型材断面
  6
CONTINUOUS
 62
    47
 10
-114.059662
 20
-82.104621
 40
0.016668
 50
89.999123
 51
180.0
  0
ARC
  8
型材断面
  6
CONTINUOUS
 62
    47
 10
-114.066328
 20
-82.144623
 40
0.010002
 50
180.0
 51
269.791626
  0
LINE
  8
型材断面
  6
CONTINUOUS
 62
    47
 10
-114.026322
 20
-82.321342
 11
-113.176177
 21
-82.321342
  0
LINE
  8
型材断面
  6
CONTINUOUS
 62
    47
 10
-114.059663
 20
-82.087955
 11
-114.059663
 21
-79.981295
  0
LINE
  8
型材断面
  6
CONTINUOUS
 62
    47
 10
-114.059657
 20
-82.321342
 11
-114.059657
 21
-85.63801
  0
LINE
  8
型材断面
  6
CONTINUOUS
 62
    47
 10
-113.559657
 20
-86.13801
 11
-113.559657
 21
-85.63801
  0
LINE
  8
型材断面
  6
CONTINUOUS
 62
    47
 10
-113.176322
 20
-79.981295
 11
-113.176322
 21
-79.654625
  0
LINE
  8
型材断面
  6
CONTINUOUS
 62
    47
 10
-114.076322
 20
-82.10462
 11
-114.076322
 21
-82.14428
  0
ARC
  8
型材断面
  6
CONTINUOUS
 62
    47
 10
73.240344
 20
-82.104621
 40
0.016668
 50
0.0
 51
90.000877
  0
ARC
  8
型材断面
  6
CONTINUOUS
 62
    47
 10
73.24701
 20
-82.144623
 40
0.010002
 50
270.208374
 51
360.0
  0
LINE
  8
型材断面
  6
CONTINUOUS
 62
    47
 10
73.207007
 20
-82.321342
 11
72.35686
 21
-82.321342
  0
LINE
  8
型材断面
  6
CONTINUOUS
 62
    47
 10
73.240345
 20
-82.087955
 11
73.240345
 21
-79.981295
  0
LINE
  8
型材断面
  6
CONTINUOUS
 62
    47
 10
73.24034
 20
-82.321342
 11
73.24034
 21
-85.63801
  0
LINE
  8
型材断面
  6
CONTINUOUS
 62
    47
 10
72.74034
 20
-86.13801
 11
72.74034
 21
-85.63801
  0
LINE
  8
型材断面
  6
CONTINUOUS
 62
    47
 10
72.357005
 20
-79.981295
 11
72.357005
 21
-79.654625
  0
LINE
  8
型材断面
  6
CONTINUOUS
 62
    47
 10
73.257007
 20
-82.10462
 11
73.257007
 21
-82.14428
  0
LINE
  8
型材断面
  6
CONTINUOUS
 10
-113.632845
 20
-78.154625
 11
-20.409657
 21
-78.154625
  0
LINE
  8
型材断面
  6
CONTINUOUS
 10
-113.476322
 20
-77.98796
 11
-20.409657
 21
-77.98796
  0
LINE
  8
型材断面
  6
CONTINUOUS
 10
-113.476322
 20
-79.654625
 11
-20.409657
 21
-79.654625
  0
LINE
  8
型材断面
  6
CONTINUOUS
 10
-114.059663
 20
-79.981295
 11
-20.409657
 21
-79.981295
  0
LINE
  8
型材断面
  6
CONTINUOUS
 10
-114.066327
 20
-82.154625
 11
-20.409657
 21
-82.154625
  0
LINE
  8
型材断面
  6
CONTINUOUS
 10
-114.059657
 20
-82.321342
 11
-20.409657
 21
-82.321342
  0
LINE
  8
型材断面
  6
CONTINUOUS
 10
-114.059657
 20
-85.63801
 11
-20.409657
 21
-85.63801
  0
LINE
  8
型材断面
  6
CONTINUOUS
 10
-113.559657
 20
-86.13801
 11
-20.409657
 21
-86.13801
  0
LINE
  8
型材断面
  6
CONTINUOUS
 10
72.74034
 20
-86.13801
 11
-20.409657
 21
-86.13801
  0
LINE
  8
型材断面
  6
CONTINUOUS
 10
73.24034
 20
-85.63801
 11
-20.409657
 21
-85.63801
  0
LINE
  8
型材断面
  6
CONTINUOUS
 10
73.24034
 20
-82.321342
 11
-20.409657
 21
-82.321342
  0
LINE
  8
型材断面
  6
CONTINUOUS
 10
73.24701
 20
-82.154625
 11
-20.409657
 21
-82.154625
  0
LINE
  8
型材断面
  6
CONTINUOUS
 10
72.657007
 20
-77.98796
 11
-20.409657
 21
-77.98796
  0
LINE
  8
型材断面
  6
CONTINUOUS
 10
72.813528
 20
-78.154625
 11
-20.409657
 21
-78.154625
  0
LINE
  8
型材断面
  6
CONTINUOUS
 10
72.657007
 20
-79.654625
 11
-20.409657
 21
-79.654625
  0
LINE
  8
型材断面
  6
CONTINUOUS
 10
73.240345
 20
-79.981295
 11
-20.409657
 21
-79.981295
  0
ARC
  8
型材断面
  6
DOT
 62
    47
 10
-114.059662
 20
-70.437955
 40
0.016668
 50
89.999123
 51
180.0
  0
ARC
  8
型材断面
  6
DOT
 62
    47
 10
-114.066328
 20
-70.477956
 40
0.010002
 50
180.0
 51
269.791626
  0
LINE
  8
型材断面
  6
DOT
 62
    47
 10
-114.059663
 20
-70.421288
 11
-114.059663
 21
-68.314628
  0
LINE
  8
型材断面
  6
DOT
 62
    47
 10
-113.176322
 20
-68.314628
 11
-113.176322
 21
-67.987957
  0
LINE
  8
型材断面
  6
DOT
 62
    47
 10
-114.076322
 20
-70.437953
 11
-114.076322
 21
-70.477613
  0
ARC
  8
型材断面
  6
DOT
 62
    47
 10
73.240344
 20
-70.437955
 40
0.016668
 50
0.0
 51
90.000877
  0
ARC
  8
型材断面
  6
DOT
 62
    47
 10
73.24701
 20
-70.477956
 40
0.010002
 50
270.208374
 51
360.0
  0
LINE
  8
型材断面
  6
DOT
 62
    47
 10
73.240345
 20
-70.421288
 11
73.240345
 21
-68.314628
  0
LINE
  8
型材断面
  6
DOT
 62
    47
 10
72.357005
 20
-68.314628
 11
72.357005
 21
-67.987957
  0
LINE
  8
型材断面
  6
DOT
 62
    47
 10
73.257007
 20
-70.437953
 11
73.257007
 21
-70.477613
  0
LINE
  8
型材断面
  6
DOT
 10
-113.476322
 20
-66.321292
 11
-20.409657
 21
-66.321292
  0
LINE
  8
型材断面
  6
DOT
 10
-113.632845
 20
-66.487957
 11
-20.409657
 21
-66.487957
  0
LINE
  8
型材断面
  6
DOT
 10
-114.059663
 20
-68.314628
 11
-20.409657
 21
-68.314628
  0
LINE
  8
型材断面
  6
DOT
 10
-113.476322
 20
-67.987957
 11
-20.409657
 21
-67.987957
  0
LINE
  8
型材断面
  6
DOT
 10
-114.066327
 20
-70.487957
 11
-20.409657
 21
-70.487957
  0
LINE
  8
型材断面
  6
DOT
 10
73.24701
 20
-70.487957
 11
-20.409657
 21
-70.487957
  0
LINE
  8
型材断面
  6
DOT
 10
72.657007
 20
-67.987957
 11
-20.409657
 21
-67.987957
  0
LINE
  8
型材断面
  6
DOT
 10
72.813528
 20
-66.487957
 11
-20.409657
 21
-66.487957
  0
LINE
  8
型材断面
  6
DOT
 10
72.657007
 20
-66.321292
 11
-20.409657
 21
-66.321292
  0
LINE
  8
型材断面
  6
DOT
 10
73.240345
 20
-68.314628
 11
-20.409657
 21
-68.314628
  0
INSERT
  2
*GRP_0022
  8
型材断面
  6
CONTINUOUS
 10
0.0
 20
0.0
  0
INSERT
  2
*GRP_0023
  8
型材断面
  6
CONTINUOUS
 10
0.0
 20
0.0
  0
INSERT
  2
*GRP_0024
  8
型材断面
  6
CONTINUOUS
 10
0.0
 20
0.0
  0
INSERT
  2
*GRP_0025
  8
型材断面
  6
CONTINUOUS
 10
0.0
 20
0.0
  0
INSERT
  2
*GRP_0026
  8
型材断面
  6
CONTINUOUS
 10
0.0
 20
0.0
  0
INSERT
  2
*GRP_0027
  8
型材断面
  6
CONTINUOUS
 10
0.0
 20
0.0
  0
LINE
  8
型材断面
  6
DASHDOT
 10
-75.559657
 20
13.399048
 11
-75.559657
 21
43.399048
  0
LINE
  8
型材断面
  6
DASHDOT
 10
-38.79299
 20
13.399048
 11
-38.79299
 21
43.399048
  0
LINE
  8
型材断面
  6
DASHDOT
 10
34.740337
 20
13.399048
 11
34.740337
 21
43.399048
  0
LINE
  8
型材断面
  6
DASHDOT
 10
-2.02633
 20
13.399048
 11
-2.02633
 21
43.399048
  0
LINE
  8
型材断面
  6
CONTINUOUS
 10
52.582005
 20
14.342527
 11
52.582005
 21
11.842527
  0
LINE
  8
型材断面
  6
CONTINUOUS
 10
53.41534
 20
14.342527
 11
53.41534
 21
11.842527
  0
LINE
  8
型材断面
  6
CONTINUOUS
 10
15.940337
 20
14.342527
 11
15.940337
 21
11.842527
  0
LINE
  8
型材断面
  6
CONTINUOUS
 10
16.773673
 20
14.342527
 11
16.773673
 21
11.842527
  0
LINE
  8
型材断面
  6
CONTINUOUS
 10
-20.826328
 20
14.342527
 11
-20.826328
 21
11.842527
  0
LINE
  8
型材断面
  6
CONTINUOUS
 10
-19.992993
 20
14.342527
 11
-19.992993
 21
11.842527
  0
LINE
  8
型材断面
  6
CONTINUOUS
 10
-93.401325
 20
14.342527
 11
-93.401325
 21
11.842527
  0
LINE
  8
型材断面
  6
CONTINUOUS
 10
-94.23466
 20
14.342527
 11
-94.23466
 21
11.842527
  0
LINE
  8
型材断面
  6
CONTINUOUS
 10
-56.759657
 20
14.342527
 11
-56.759657
 21
11.842527
  0
LINE
  8
型材断面
  6
CONTINUOUS
 10
-57.592993
 20
14.342527
 11
-57.592993
 21
11.842527
  0
LINE
  8
型材断面
  6
CONTINUOUS
 10
52.582005
 20
42.455567
 11
52.582005
 21
44.955567
  0
LINE
  8
型材断面
  6
CONTINUOUS
 10
53.41534
 20
42.455567
 11
53.41534
 21
44.955567
  0
LINE
  8
型材断面
  6
CONTINUOUS
 10
15.940337
 20
42.455567
 11
15.940337
 21
44.955567
  0
LINE
  8
型材断面
  6
CONTINUOUS
 10
16.773673
 20
42.455567
 11
16.773673
 21
44.955567
  0
LINE
  8
型材断面
  6
CONTINUOUS
 10
-20.826328
 20
42.455567
 11
-20.826328
 21
44.955567
  0
LINE
  8
型材断面
  6
CONTINUOUS
 10
-19.992993
 20
42.455567
 11
-19.992993
 21
44.955567
  0
LINE
  8
型材断面
  6
CONTINUOUS
 10
-93.401325
 20
42.455567
 11
-93.401325
 21
44.955567
  0
LINE
  8
型材断面
  6
CONTINUOUS
 10
-94.23466
 20
42.455567
 11
-94.23466
 21
44.955567
  0
LINE
  8
型材断面
  6
CONTINUOUS
 10
-56.759657
 20
42.455567
 11
-56.759657
 21
44.955567
  0
LINE
  8
型材断面
  6
CONTINUOUS
 10
-57.592993
 20
42.455567
 11
-57.592993
 21
44.955567
  0
LINE
  8
型材断面
  6
CONTINUOUS
 10
-93.401325
 20
42.455567
 11
-57.592993
 21
42.455567
  0
LINE
  8
型材断面
  6
CONTINUOUS
 10
-93.401325
 20
14.342527
 11
-57.592993
 21
14.342527
  0
LINE
  8
型材断面
  6
CONTINUOUS
 10
-56.759657
 20
42.455567
 11
-20.826328
 21
42.455567
  0
LINE
  8
型材断面
  6
CONTINUOUS
 10
-56.759657
 20
14.342527
 11
-20.826328
 21
14.342527
  0
LINE
  8
型材断面
  6
CONTINUOUS
 10
-19.992993
 20
42.455567
 11
15.940337
 21
42.455567
  0
LINE
  8
型材断面
  6
CONTINUOUS
 10
-19.992993
 20
14.342527
 11
15.940337
 21
14.342527
  0
LINE
  8
型材断面
  6
CONTINUOUS
 10
16.773673
 20
14.342527
 11
52.582005
 21
14.342527
  0
LINE
  8
型材断面
  6
CONTINUOUS
 10
16.773673
 20
42.455567
 11
52.582005
 21
42.455567
  0
LINE
  8
型材断面
  6
CONTINUOUS
 10
35.990337
 20
15.17586
 11
33.490337
 21
15.17586
  0
LINE
  8
型材断面
  6
CONTINUOUS
 10
35.990337
 20
41.622235
 11
33.490337
 21
41.622235
  0
LINE
  8
型材断面
  6
CONTINUOUS
 10
35.990337
 20
15.17586
 11
35.990337
 21
41.622235
  0
LINE
  8
型材断面
  6
CONTINUOUS
 10
33.490337
 20
15.17586
 11
33.490337
 21
41.622235
  0
LINE
  8
型材断面
  6
CONTINUOUS
 10
-0.77633
 20
15.17586
 11
-3.27633
 21
15.17586
  0
LINE
  8
型材断面
  6
CONTINUOUS
 10
-0.77633
 20
41.622235
 11
-3.27633
 21
41.622235
  0
LINE
  8
型材断面
  6
CONTINUOUS
 10
-0.77633
 20
15.17586
 11
-0.77633
 21
41.622235
  0
LINE
  8
型材断面
  6
CONTINUOUS
 10
-3.27633
 20
15.17586
 11
-3.27633
 21
41.622235
  0
LINE
  8
型材断面
  6
CONTINUOUS
 10
-76.809657
 20
15.17586
 11
-74.309657
 21
15.17586
  0
LINE
  8
型材断面
  6
CONTINUOUS
 10
-76.809657
 20
41.622235
 11
-74.309657
 21
41.622235
  0
LINE
  8
型材断面
  6
CONTINUOUS
 10
-76.809657
 20
15.17586
 11
-76.809657
 21
41.622235
  0
LINE
  8
型材断面
  6
CONTINUOUS
 10
-74.309657
 20
15.17586
 11
-74.309657
 21
41.622235
  0
LINE
  8
型材断面
  6
CONTINUOUS
 10
-40.04299
 20
15.17586
 11
-37.54299
 21
15.17586
  0
LINE
  8
型材断面
  6
CONTINUOUS
 10
-40.04299
 20
41.622235
 11
-37.54299
 21
41.622235
  0
LINE
  8
型材断面
  6
CONTINUOUS
 10
-40.04299
 20
15.17586
 11
-40.04299
 21
41.622235
  0
LINE
  8
型材断面
  6
CONTINUOUS
 10
-37.54299
 20
15.17586
 11
-37.54299
 21
41.622235
  0
LINE
  8
型材断面
  6
CONTINUOUS
 10
73.240193
 20
45.382228
 11
73.240193
 21
28.399048
  0
LINE
  8
型材断面
  6
CONTINUOUS
 10
73.240193
 20
11.415868
 11
73.240193
 21
28.399048
  0
LINE
  8
型材断面
  6
CONTINUOUS
 10
72.813528
 20
27.98238
 11
70.313528
 21
27.98238
  0
LINE
  8
型材断面
  6
CONTINUOUS
 10
72.813528
 20
28.815715
 11
70.313528
 21
28.815715
  0
LINE
  8
型材断面
  6
CONTINUOUS
 10
72.57783
 20
11.842525
 11
72.813528
 21
12.078233
  0
LINE
  8
型材断面
  6
CONTINUOUS
 10
73.240193
 20
11.415868
 11
72.69568
 21
11.96038
  0
LINE
  8
型材断面
  6
CONTINUOUS
 10
70.313528
 20
27.98238
 11
70.313528
 21
14.578227
  0
LINE
  8
型材断面
  6
CONTINUOUS
 10
70.313528
 20
14.578227
 11
70.077828
 21
14.342527
  0
LINE
  8
型材断面
  6
CONTINUOUS
 10
70.077825
 20
14.342525
 11
72.577828
 21
11.842527
  0
LINE
  8
型材断面
  6
CONTINUOUS
 10
70.313528
 20
14.578227
 11
72.813528
 21
12.078233
  0
LINE
  8
型材断面
  6
CONTINUOUS
 10
72.57783
 20
44.95557
 11
72.813528
 21
44.719863
  0
LINE
  8
型材断面
  6
CONTINUOUS
 10
73.240193
 20
45.382228
 11
72.69568
 21
44.837715
  0
LINE
  8
型材断面
  6
CONTINUOUS
 10
70.313528
 20
42.219867
 11
72.813528
 21
44.719863
  0
LINE
  8
型材断面
  6
CONTINUOUS
 10
72.813528
 20
12.078233
 11
72.813528
 21
44.719863
  0
LINE
  8
型材断面
  6
CONTINUOUS
 10
70.077825
 20
42.45557
 11
72.577828
 21
44.955567
  0
LINE
  8
型材断面
  6
CONTINUOUS
 10
70.313528
 20
28.815715
 11
70.313528
 21
42.219867
  0
LINE
  8
型材断面
  6
CONTINUOUS
 10
70.313528
 20
42.219867
 11
70.077828
 21
42.455567
  0
LINE
  8
型材断面
  6
CONTINUOUS
 10
-114.059512
 20
45.382228
 11
-114.059512
 21
28.399048
  0
LINE
  8
型材断面
  6
CONTINUOUS
 10
-114.059512
 20
11.415868
 11
-114.059512
 21
28.399048
  0
LINE
  8
型材断面
  6
CONTINUOUS
 10
-113.632848
 20
27.98238
 11
-111.132848
 21
27.98238
  0
LINE
  8
型材断面
  6
CONTINUOUS
 10
-113.632848
 20
28.815715
 11
-111.132848
 21
28.815715
  0
LINE
  8
型材断面
  6
CONTINUOUS
 10
-113.39715
 20
11.842525
 11
-113.632848
 21
12.078233
  0
LINE
  8
型材断面
  6
CONTINUOUS
 10
-114.059512
 20
11.415868
 11
-113.515
 21
11.96038
  0
LINE
  8
型材断面
  6
CONTINUOUS
 10
-111.132848
 20
27.98238
 11
-111.132848
 21
14.578227
  0
LINE
  8
型材断面
  6
CONTINUOUS
 10
-111.132848
 20
14.578227
 11
-110.897148
 21
14.342527
  0
LINE
  8
型材断面
  6
CONTINUOUS
 10
-110.897145
 20
14.342525
 11
-113.397148
 21
11.842527
  0
LINE
  8
型材断面
  6
CONTINUOUS
 10
-111.132848
 20
14.578227
 11
-113.632848
 21
12.078233
  0
LINE
  8
型材断面
  6
CONTINUOUS
 10
-113.39715
 20
44.95557
 11
-113.632848
 21
44.719863
  0
LINE
  8
型材断面
  6
CONTINUOUS
 10
-114.059512
 20
45.382228
 11
-113.515
 21
44.837715
  0
LINE
  8
型材断面
  6
CONTINUOUS
 10
-111.132848
 20
42.219867
 11
-113.632848
 21
44.719863
  0
LINE
  8
型材断面
  6
CONTINUOUS
 10
-113.632848
 20
12.078233
 11
-113.632848
 21
44.719863
  0
LINE
  8
型材断面
  6
CONTINUOUS
 10
-110.897145
 20
42.45557
 11
-113.397148
 21
44.955567
  0
LINE
  8
型材断面
  6
CONTINUOUS
 10
-111.132848
 20
28.815715
 11
-111.132848
 21
42.219867
  0
LINE
  8
型材断面
  6
CONTINUOUS
 10
-111.132848
 20
42.219867
 11
-110.897148
 21
42.455567
  0
LINE
  8
型材断面
  6
CONTINUOUS
 10
53.41534
 20
14.342527
 11
70.077822
 21
14.342527
  0
LINE
  8
型材断面
  6
CONTINUOUS
 10
53.41534
 20
42.455567
 11
70.077822
 21
42.455567
  0
LINE
  8
型材断面
  6
CONTINUOUS
 10
-94.23466
 20
42.455567
 11
-110.897142
 21
42.455567
  0
LINE
  8
型材断面
  6
CONTINUOUS
 10
72.577828
 20
44.955567
 11
-113.397148
 21
44.955567
  0
LINE
  8
型材断面
  6
CONTINUOUS
 10
-94.23466
 20
14.342527
 11
-110.897142
 21
14.342527
  0
LINE
  8
型材断面
  6
CONTINUOUS
 10
72.577828
 20
11.842527
 11
-113.397148
 21
11.842527
  0
TEXT
  7
TextStyle03
  8
文字
  6
CONTINUOUS
 10
147.775
 20
-86.1
  1
網入り6.8t
 40
3.0
 72
     5
 11
164.4625
 21
-86.1
  0
TEXT
  7
TextStyle03
  8
文字
  6
CONTINUOUS
 10
-28.65
 20
-0.075
  1
可動装置側
 40
3.0
 72
     5
 11
-12.15
 21
-0.075
  0
TEXT
  7
TextStyle03
  8
文字
  6
CONTINUOUS
 10
-28.65
 20
53.875
  1
可動装置側
 40
3.0
 72
     5
 11
-12.15
 21
53.875
  0
TEXT
  7
TextStyle03
  8
文字
  6
CONTINUOUS
 10
154.45
 20
-90.775
  1
×５枚
 40
3.0
 72
     5
 11
164.2
 21
-90.775
  0
TEXT
  7
TextStyle03
  8
文字
  6
CONTINUOUS
 10
-150.125
 20
80.0
  1
はケーシング位置を示す
 40
3.0
 72
     5
 11
-113.375
 21
80.0
  0
TEXT
  7
TextStyle03
  8
文字
  6
CONTINUOUS
 10
-150.125
 20
76.625
  1
４ヶ所中1ヶ所に設定
 40
3.0
 72
     5
 11
-118.4375
 21
76.625
  0
TEXT
  7
TextStyle03
  8
文字
  6
CONTINUOUS
 10
-150.125
 20
85.525
  1
は排水穴位置を示す
 40
3.0
 72
     5
 11
-120.125
 21
85.525
  0
TEXT
  7
TextStyle03
  8
文字
  6
CONTINUOUS
 10
-133.05
 20
6.875
  1
アンカーピッチ
 40
3.0
 50
90.0
 72
     5
 11
-133.05
 21
30.125
  0
TEXT
  7
TextStyle03
  8
文字
  6
CONTINUOUS
 10
-98.025
 20
79.8
  1
アンカーピッチ
 40
3.0
 72
     5
 11
-74.775
 21
79.8
  0
TEXT
  7
TextStyle03
  8
文字
  6
CONTINUOUS
 10
-153.85
 20
70.65
  1
アンカー数量　１８ヶ所
 40
3.0
 72
     5
 11
-117.1
 21
70.65
  0
TEXT
  7
TextStyle03
  8
文字
  6
CONTINUOUS
 10
-153.925
 20
64.875
  1
アームユニット数　４～６ヶ所
 40
3.0
 72
     5
 11
-107.05
 21
64.875
  0
TEXT
  7
TextStyle03
  8
文字
  6
CONTINUOUS
 10
-158.85
 20
59.925
  1
※重量に依るのでご相談ください
 40
3.0
 72
     5
 11
-108.6
 21
59.925
  0
LINE
  8
文字
  6
CONTINUOUS
 10
159.441565
 20
57.22862
 11
159.441565
 21
46.678658
  0
LINE
  8
文字
  6
CONTINUOUS
 10
167.091615
 20
57.22862
 11
167.091615
 21
46.743737
  0
LINE
  8
文字
  6
CONTINUOUS
 10
84.492252
 20
-77.98796
 11
73.94229
 21
-77.98796
  0
LINE
  8
文字
  6
CONTINUOUS
 10
84.492252
 20
-85.63801
 11
74.007373
 21
-85.63801
  0
LINE
  8
文字
  6
CONTINUOUS
 10
84.492252
 20
-66.321292
 11
73.94229
 21
-66.321292
  0
LINE
  8
文字
  6
CONTINUOUS
 10
166.343563
 20
-54.098222
 11
166.343563
 21
-61.6803
  0
LINE
  8
文字
  6
CONTINUOUS
 10
130.743563
 20
-54.098222
 11
130.743563
 21
-61.6803
  0
TEXT
  7
TextStyle03
  8
文字
  6
CONTINUOUS
 10
61.125
 20
125.25
  1
シリーズ：ＴＦ２ＦＬ
 40
5.0
 72
     5
 11
116.75
 21
125.25
  0
TEXT
  7
TextStyle03
  8
文字
  6
CONTINUOUS
 10
61.125
 20
119.625
  1
　　　　　（上下可動）900×5500タイプ
 40
5.0
 72
     5
 11
164.5625
 21
119.625
  0
TEXT
  7
TextStyle03
  8
文字
  6
CONTINUOUS
 10
61.125
 20
114.0
  1
図面名　：外観姿図
 40
5.0
 72
     5
 11
111.125
 21
114.0
  0
TEXT
  7
TextStyle03
  8
文字
  6
CONTINUOUS
 10
61.125
 20
108.375
  1
　　　　　　
 40
5.0
 72
     5
 11
94.25
 21
108.375
  0
TEXT
  7
TextStyle03
  8
文字
  6
CONTINUOUS
 10
61.275
 20
104.525
  1
ＮＳコード：ＮＳＦＺＬ
 40
5.0
 72
     5
 11
122.525
 21
104.525
  0
INSERT
  2
*DIM_0002
  8
寸法
  6
CONTINUOUS
 10
0.0
 20
0.0
  0
INSERT
  2
*DIM_0003
  8
寸法
  6
CONTINUOUS
 10
0.0
 20
0.0
  0
INSERT
  2
*DIM_0004
  8
寸法
  6
CONTINUOUS
 10
0.0
 20
0.0
  0
INSERT
  2
*DIM_0005
  8
寸法
  6
CONTINUOUS
 10
0.0
 20
0.0
  0
INSERT
  2
*DIM_0006
  8
寸法
  6
CONTINUOUS
 10
0.0
 20
0.0
  0
INSERT
  2
*DIM_0007
  8
寸法
  6
CONTINUOUS
 10
0.0
 20
0.0
  0
INSERT
  2
*DIM_0008
  8
寸法
  6
CONTINUOUS
 10
0.0
 20
0.0
  0
INSERT
  2
*DIM_0009
  8
寸法
  6
CONTINUOUS
 10
0.0
 20
0.0
  0
INSERT
  2
*DIM_0010
  8
寸法
  6
CONTINUOUS
 10
0.0
 20
0.0
  0
INSERT
  2
*DIM_0011
  8
寸法
  6
CONTINUOUS
 10
0.0
 20
0.0
  0
INSERT
  2
*DIM_0012
  8
寸法
  6
CONTINUOUS
 10
0.0
 20
0.0
  0
INSERT
  2
*DIM_0013
  8
寸法
  6
CONTINUOUS
 10
0.0
 20
0.0
  0
INSERT
  2
*DIM_0014
  8
寸法
  6
CONTINUOUS
 10
0.0
 20
0.0
  0
INSERT
  2
*DIM_0015
  8
寸法
  6
CONTINUOUS
 10
0.0
 20
0.0
  0
INSERT
  2
*DIM_0016
  8
寸法
  6
CONTINUOUS
 10
0.0
 20
0.0
  0
INSERT
  2
*DIM_0017
  8
寸法
  6
CONTINUOUS
 10
0.0
 20
0.0
  0
INSERT
  2
*DIM_0018
  8
寸法
  6
CONTINUOUS
 10
0.0
 20
0.0
  0
INSERT
  2
*DIM_0019
  8
寸法
  6
CONTINUOUS
 10
0.0
 20
0.0
  0
INSERT
  2
*DIM_0020
  8
寸法
  6
CONTINUOUS
 10
0.0
 20
0.0
  0
INSERT
  2
*DIM_0021
  8
寸法
  6
CONTINUOUS
 10
0.0
 20
0.0
  0
INSERT
  2
*DIM_0028
  8
寸法
  6
CONTINUOUS
 10
0.0
 20
0.0
  0
INSERT
  2
*DIM_0029
  8
寸法
  6
CONTINUOUS
 10
0.0
 20
0.0
  0
LINE
  8
別途部材
  6
CONTINUOUS
 62
    47
 10
159.541565
 20
11.842527
 11
159.60823
 21
11.842527
  0
ARC
  8
別途部材
  6
CONTINUOUS
 62
    47
 10
159.541563
 20
11.942528
 40
0.1
 50
180.0
 51
270.0
  0
LINE
  8
別途部材
  6
CONTINUOUS
 62
    47
 10
159.441565
 20
11.942527
 11
159.441565
 21
14.309195
  0
LINE
  8
別途部材
  6
CONTINUOUS
 62
    47
 10
161.10823
 20
11.99905
 11
159.60823
 21
11.99905
  0
LINE
  8
別途部材
  6
CONTINUOUS
 62
    47
 10
159.541565
 20
44.955567
 11
159.60823
 21
44.955567
  0
ARC
  8
別途部材
  6
CONTINUOUS
 62
    47
 10
159.541563
 20
44.85557
 40
0.1
 50
90.0
 51
180.0
  0
LINE
  8
別途部材
  6
CONTINUOUS
 62
    47
 10
159.441565
 20
44.855567
 11
159.441565
 21
42.488903
  0
LINE
  8
別途部材
  6
CONTINUOUS
 62
    47
 10
161.10823
 20
44.799048
 11
159.60823
 21
44.799048
  0
LINE
  8
別途部材
  6
CONTINUOUS
 62
    47
 10
-113.632845
 20
-78.08796
 11
-113.632845
 21
-78.154625
  0
ARC
  8
別途部材
  6
CONTINUOUS
 62
    47
 10
-113.532846
 20
-78.087959
 40
0.1
 50
90.0
 51
180.0
  0
LINE
  8
別途部材
  6
CONTINUOUS
 62
    47
 10
-113.532845
 20
-77.98796
 11
-111.166177
 21
-77.98796
  0
LINE
  8
別途部材
  6
CONTINUOUS
 62
    47
 10
-113.476322
 20
-79.654625
 11
-113.476322
 21
-78.154625
  0
LINE
  8
別途部材
  6
CONTINUOUS
 62
    47
 10
72.813528
 20
-78.08796
 11
72.813528
 21
-78.154625
  0
ARC
  8
別途部材
  6
CONTINUOUS
 62
    47
 10
72.713529
 20
-78.087959
 40
0.1
 50
0.0
 51
90.0
  0
LINE
  8
別途部材
  6
CONTINUOUS
 62
    47
 10
72.713528
 20
-77.98796
 11
70.346862
 21
-77.98796
  0
LINE
  8
別途部材
  6
CONTINUOUS
 62
    47
 10
72.657007
 20
-79.654625
 11
72.657007
 21
-78.154625
  0
LINE
  8
別途部材
  6
DOT
 62
    47
 10
-113.632845
 20
-66.421292
 11
-113.632845
 21
-66.487957
  0
ARC
  8
別途部材
  6
DOT
 62
    47
 10
-113.532846
 20
-66.421292
 40
0.1
 50
90.0
 51
180.0
  0
LINE
  8
別途部材
  6
DOT
 62
    47
 10
-113.532845
 20
-66.321292
 11
-111.166177
 21
-66.321292
  0
LINE
  8
別途部材
  6
DOT
 62
    47
 10
-113.476322
 20
-67.987957
 11
-113.476322
 21
-66.487957
  0
LINE
  8
別途部材
  6
DOT
 62
    47
 10
72.813528
 20
-66.421292
 11
72.813528
 21
-66.487957
  0
ARC
  8
別途部材
  6
DOT
 62
    47
 10
72.713529
 20
-66.421292
 40
0.1
 50
0.0
 51
90.0
  0
LINE
  8
別途部材
  6
DOT
 62
    47
 10
72.713528
 20
-66.321292
 11
70.346862
 21
-66.321292
  0
LINE
  8
別途部材
  6
DOT
 62
    47
 10
72.657007
 20
-67.987957
 11
72.657007
 21
-66.487957
  0
LINE
  8
曲げ物
  6
CONTINUOUS
 10
166.343563
 20
-92.533713
 11
166.343563
 21
-63.20038
  0
LINE
  8
曲げ物
  6
CONTINUOUS
 10
55.982738
 20
30.278377
 11
52.287425
 21
26.583065
  0
LINE
  8
曲げ物
  6
CONTINUOUS
 10
55.279268
 20
28.742267
 11
53.823538
 21
27.286537
  0
LINE
  8
曲げ物
  6
CONTINUOUS
 10
54.446628
 20
29.574907
 11
52.990898
 21
28.119177
  0
LINE
  8
曲げ物
  6
CONTINUOUS
 10
17.60514
 20
30.278377
 11
13.909828
 21
26.583065
  0
LINE
  8
曲げ物
  6
CONTINUOUS
 10
16.90167
 20
28.742267
 11
15.44594
 21
27.286537
  0
LINE
  8
曲げ物
  6
CONTINUOUS
 10
16.06903
 20
29.574907
 11
14.6133
 21
28.119177
  0
LINE
  8
曲げ物
  6
CONTINUOUS
 10
-18.822117
 20
30.278377
 11
-22.51743
 21
26.583065
  0
LINE
  8
曲げ物
  6
CONTINUOUS
 10
-19.525587
 20
28.742267
 11
-20.981318
 21
27.286537
  0
LINE
  8
曲げ物
  6
CONTINUOUS
 10
-20.358227
 20
29.574907
 11
-21.813958
 21
28.119177
  0
LINE
  8
曲げ物
  6
CONTINUOUS
 10
-55.09672
 20
30.278377
 11
-58.792033
 21
26.583065
  0
LINE
  8
曲げ物
  6
CONTINUOUS
 10
-55.80019
 20
28.742267
 11
-57.25592
 21
27.286537
  0
LINE
  8
曲げ物
  6
CONTINUOUS
 10
-56.63283
 20
29.574907
 11
-58.08856
 21
28.119177
  0
LINE
  8
曲げ物
  6
CONTINUOUS
 10
-91.20532
 20
30.278377
 11
-94.900633
 21
26.583065
  0
LINE
  8
曲げ物
  6
CONTINUOUS
 10
-91.90879
 20
28.742267
 11
-93.36452
 21
27.286537
  0
LINE
  8
曲げ物
  6
CONTINUOUS
 10
-92.74143
 20
29.574907
 11
-94.19716
 21
28.119177
  0
LINE
  8
曲げ物
  6
CONTINUOUS
 10
130.743563
 20
-92.533713
 11
130.743563
 21
-63.20038
  0
LINE
  8
曲げ物
  6
CONTINUOUS
 10
166.343563
 20
-63.20038
 11
130.743563
 21
-63.20038
  0
LINE
  8
曲げ物
  6
CONTINUOUS
 10
166.343563
 20
-92.533713
 11
130.743563
 21
-92.533713
  0
ENDSEC
  0
EOF
