  0
SECTION
  2
HEADER
  9
$EXTMIN
 10
-210.0
 20
-148.5
  9
$EXTMAX
 10
210.0
 20
148.5
  9
$PDMODE
 70
    32
  9
$PDSIZE
 40
1.5
  9
$LTSCALE
 40
10.0
  0
ENDSEC
  0
SECTION
  2
TABLES
  0
TABLE
  2
LTYPE
 70
    15
  0
LTYPE
  2
CONTINUOUS
 70
    64
  3
実線
 72
    65
 73
     0
 40
0.0
  0
LTYPE
  2
DASHED
 70
    64
  3
破線A
 72
    65
 73
     2
 40
0.6
 49
0.4
 49
-0.2
  0
LTYPE
  2
DASHEDX2
 70
    64
  3
破線B
 72
    65
 73
     2
 40
1.3
 49
0.9
 49
-0.4
  0
LTYPE
  2
DASHDOT
 70
    64
  3
１点鎖線A
 72
    65
 73
     4
 40
0.5375
 49
0.375
 49
-0.05
 49
0.0625
 49
-0.05
  0
LTYPE
  2
DASHDOTX2
 70
    64
  3
１点鎖線B
 72
    65
 73
     4
 40
1.075
 49
0.75
 49
-0.1
 49
0.125
 49
-0.1
  0
LTYPE
  2
DIVIDE2
 70
    64
  3
２点鎖線A
 72
    65
 73
     6
 40
0.5125
 49
0.3
 49
-0.0375
 49
0.05
 49
-0.0375
 49
0.05
 49
-0.0375
  0
LTYPE
  2
DIVIDE
 70
    64
  3
２点鎖線B
 72
    65
 73
     6
 40
1.05
 49
0.55
 49
-0.1
 49
0.1
 49
-0.1
 49
0.1
 49
-0.1
  0
LTYPE
  2
DOT
 70
    64
  3
点線A
 72
    65
 73
     2
 40
0.1125
 49
0.0625
 49
-0.05
  0
LTYPE
  2
DOTX2
 70
    64
  3
点線B
 72
    65
 73
     2
 40
0.275
 49
0.15
 49
-0.125
  0
LTYPE
  2
CONTINUOUS
 70
    64
  3
実線
 72
    65
 73
     0
 40
0.0
  0
LTYPE
  2
CONTINUOUS
 70
    64
  3
実線
 72
    65
 73
     0
 40
0.0
  0
LTYPE
  2
CONTINUOUS
 70
    64
  3
実線
 72
    65
 73
     0
 40
0.0
  0
LTYPE
  2
CONTINUOUS
 70
    64
  3
実線
 72
    65
 73
     0
 40
0.0
  0
LTYPE
  2
CONTINUOUS
 70
    64
  3
実線
 72
    65
 73
     0
 40
0.0
  0
LTYPE
  2
CONTINUOUS
 70
    64
  3
実線
 72
    65
 73
     0
 40
0.0
  0
ENDTAB
  0
TABLE
  2
LAYER
 70
    35
  0
LAYER
  2
通り芯
 70
     0
 62
    15
  6
CONTINUOUS
  0
LAYER
  2
補助線
 70
     0
 62
    16
  6
DOT
  0
LAYER
  2
躯体
 70
     0
 62
    31
  6
CONTINUOUS
  0
LAYER
  2
型材
 70
     0
 62
    32
  6
CONTINUOUS
  0
LAYER
  2
型材断面
 70
     0
 62
    47
  6
CONTINUOUS
  0
LAYER
  2
ガラス
 70
     0
 62
    48
  6
CONTINUOUS
  0
LAYER
  2
ゴム等
 70
     0
 62
    63
  6
CONTINUOUS
  0
LAYER
  2
ボルト／ビス
 70
     0
 62
    64
  6
CONTINUOUS
  0
LAYER
  2
文字
 70
     0
 62
    79
  6
CONTINUOUS
  0
LAYER
  2
寸法
 70
     0
 62
    80
  6
CONTINUOUS
  0
LAYER
  2
ﾊｯﾁﾝｸﾞ
 70
     0
 62
    95
  6
CONTINUOUS
  0
LAYER
  2
別途部材
 70
     0
 62
    96
  6
CONTINUOUS
  0
LAYER
  2
曲げ物
 70
     0
 62
   111
  6
CONTINUOUS
  0
LAYER
  2
鉄骨等
 70
     0
 62
   112
  6
CONTINUOUS
  0
LAYER
  2
St
 70
     0
 62
   127
  6
CONTINUOUS
  0
LAYER
  2
その他部品等
 70
     0
 62
   128
  6
CONTINUOUS
  0
LAYER
  2
ｶﾞｽｹｯﾄ
 70
     0
 62
   143
  6
CONTINUOUS
  0
LAYER
  2
ｽｹｯﾁ
 70
     0
 62
    14
  6
CONTINUOUS
  0
LAYER
  2
0
 70
     0
 62
    17
  6
CONTINUOUS
  0
LAYER
  2
1
 70
     0
 62
    30
  6
CONTINUOUS
  0
LAYER
  2
4
 70
     0
 62
    33
  6
CONTINUOUS
  0
LAYER
  2
ﾚｲﾔ3
 70
     0
 62
    46
  6
CONTINUOUS
  0
LAYER
  2
外形線
 70
     0
 62
    49
  6
CONTINUOUS
  0
LAYER
  2
部品
 70
     0
 62
    14
  6
CONTINUOUS
  0
LAYER
  2
サッシ芯
 70
     0
 62
    17
  6
DASHDOTX2
  0
LAYER
  2
寸法線
 70
     0
 62
    62
  6
CONTINUOUS
  0
LAYER
  2
姿図外形線
 70
     0
 62
    65
  6
CONTINUOUS
  0
LAYER
  2
姿補助線
 70
     0
 62
    30
  6
CONTINUOUS
  0
LAYER
  2
透視線
 70
     0
 62
    78
  6
DOT
  0
LAYER
  2
用紙
 70
     0
 62
    81
  6
CONTINUOUS
  0
LAYER
  2
実線図枠
 70
     0
 62
    94
  6
CONTINUOUS
  0
LAYER
  2
補助図枠
 70
     0
 62
    97
  6
CONTINUOUS
  0
LAYER
  2
建具記号
 70
     0
 62
   110
  6
CONTINUOUS
  0
LAYER
  2
補助文字
 70
     0
 62
   113
  6
CONTINUOUS
  0
LAYER
  2
01
 70
     0
 62
     1
  6
CONTINUOUS
  0
ENDTAB
  0
TABLE
  2
STYLE
 70
    10
  0
STYLE
  2
STANDARD
 70
     0
 40
1.0
 41
1.0
 42
1.0
 50
0.0
 71
     0
  3
TXT
  4
BIGFONT
  0
STYLE
  2
TATE
 70
     4
 40
1.0
 41
1.0
 42
1.0
 50
0.0
 71
     0
  3
TXT
  4
BIGFONT
  0
STYLE
  2
TextStyle03
 70
     0
 40
1.0
 41
1.0
 42
1.0
 50
0.0
 71
     0
  3
MONOTXT
  4
BIGFONT
  0
STYLE
  2
TextStyle04
 70
     0
 40
1.0
 41
1.0
 42
1.0
 50
0.0
 71
     0
  3
MONOTXT
  4
BIGFONT
  0
STYLE
  2
TextStyle05
 70
     0
 40
1.0
 41
1.0
 42
1.0
 50
0.0
 71
     0
  3
MONOTXT
  4
BIGFONT
  0
STYLE
  2
TextStyle06
 70
     0
 40
1.0
 41
1.0
 42
1.0
 50
0.0
 71
     0
  3
MONOTXT
  4
BIGFONT
  0
STYLE
  2
TextStyle07
 70
     0
 40
1.0
 41
1.0
 42
1.0
 50
0.0
 71
     0
  3
MONOTXT
  4
BIGFONT
  0
STYLE
  2
TextStyle08
 70
     0
 40
1.0
 41
1.0
 42
1.0
 50
0.0
 71
     0
  3
MONOTXT
  4
BIGFONT
  0
STYLE
  2
TextStyle09
 70
     0
 40
1.0
 41
1.0
 42
1.0
 50
0.0
 71
     0
  3
MONOTXT
  4
BIGFONT
  0
STYLE
  2
TextStyle10
 70
     0
 40
1.0
 41
1.0
 42
1.0
 50
0.0
 71
     0
  3
MONOTXT
  4
BIGFONT
  0
ENDTAB
  0
ENDSEC
  0
SECTION
  2
BLOCKS
  0
BLOCK
  2
*GRP_0001
 70
    65
 10
0.0
 20
0.0
  0
LINE
  8
型材断面
  6
CONTINUOUS
 10
195.0
 20
133.5
 11
195.0
 21
-133.5
  0
LINE
  8
型材断面
  6
CONTINUOUS
 10
195.0
 20
-133.5
 11
-185.0
 21
-133.5
  0
LINE
  8
型材断面
  6
CONTINUOUS
 10
-185.0
 20
-133.5
 11
-185.0
 21
133.5
  0
LINE
  8
型材断面
  6
CONTINUOUS
 10
195.0
 20
133.5
 11
-185.0
 21
133.5
  0
LINE
  8
型材断面
  6
CONTINUOUS
 10
145.0
 20
-133.5
 11
145.0
 21
-118.5
  0
LINE
  8
型材断面
  6
CONTINUOUS
 10
195.0
 20
-118.5
 11
145.0
 21
-118.5
  0
ENDBLK
  0
BLOCK
  2
*DIM_0002
 70
    65
 10
0.0
 20
0.0
  0
LINE
  8
寸法
  6
BYBLOCK
 62
     0
 10
-78.394858
 20
-47.863495
 11
-78.394858
 21
-31.52385
  0
LINE
  8
寸法
  6
BYBLOCK
 62
     0
 10
-68.144852
 20
-47.863495
 11
-68.144852
 21
-31.52385
  0
LINE
  8
寸法
  6
BYBLOCK
 62
     0
 10
-78.394858
 20
-31.52385
 11
-68.144852
 21
-31.52385
  0
POINT
  8
寸法
 62
     0
 10
-78.394858
 20
-31.52385
  0
POINT
  8
寸法
 62
     0
 10
-68.144852
 20
-31.52385
  0
TEXT
  7
TextStyle03
  8
寸法
  6
CONTINUOUS
 62
     0
 10
-75.7625
 20
-31.125
  1
205
 40
3.0
 72
     5
 11
-70.8875
 21
-31.125
  0
ENDBLK
  0
BLOCK
  2
*DIM_0003
 70
    65
 10
0.0
 20
0.0
  0
LINE
  8
寸法
  6
CONTINUOUS
 10
-46.436155
 20
-43.738497
 11
-45.491875
 21
-43.738497
  0
LINE
  8
寸法
  6
CONTINUOUS
 10
-67.144852
 20
-48.863495
 11
-45.491875
 21
-48.863495
  0
LINE
  8
寸法
  6
CONTINUOUS
 10
-45.491875
 20
-43.738497
 11
-45.491875
 21
-48.863495
  0
POINT
  8
寸法
 10
-45.491875
 20
-43.738497
  0
POINT
  8
寸法
 10
-45.491875
 20
-48.863495
  0
TEXT
  7
TextStyle03
  8
寸法
  6
CONTINUOUS
 10
-42.5
 20
-50.425
  1
102.5
 40
3.0
 50
90.0
 72
     5
 11
-42.5
 21
-42.175
  0
ENDBLK
  0
BLOCK
  2
*DIM_0004
 70
    65
 10
0.0
 20
0.0
  0
LINE
  8
寸法
  6
CONTINUOUS
 10
-35.269852
 20
-76.879918
 11
-35.269852
 21
-14.851027
  0
LINE
  8
寸法
  6
CONTINUOUS
 10
-40.769855
 20
-14.851027
 11
-35.269852
 21
-14.851027
  0
POINT
  8
寸法
 10
-40.769855
 20
-14.851027
  0
POINT
  8
寸法
 10
-35.269852
 20
-14.851027
  0
TEXT
  7
TextStyle03
  8
寸法
  6
CONTINUOUS
 10
-40.4625
 20
-14.475
  1
110
 40
3.0
 72
     5
 11
-35.5875
 21
-14.475
  0
ENDBLK
  0
BLOCK
  2
*DIM_0005
 70
    65
 10
0.0
 20
0.0
  0
LINE
  8
寸法
  6
CONTINUOUS
 10
-30.269852
 20
-81.879918
 11
-19.111262
 21
-81.879918
  0
LINE
  8
寸法
  6
CONTINUOUS
 10
-68.269855
 20
-43.738497
 11
-19.111262
 21
-43.738497
  0
LINE
  8
寸法
  6
CONTINUOUS
 10
-19.111262
 20
-81.879918
 11
-19.111262
 21
-43.738497
  0
POINT
  8
寸法
 10
-19.111262
 20
-43.738497
  0
TEXT
  7
TextStyle03
  8
寸法
  6
CONTINUOUS
 10
-19.5
 20
-66.95
  1
562.8
 40
3.0
 50
90.0
 72
     5
 11
-19.5
 21
-58.7
  0
ENDBLK
  0
BLOCK
  2
*DIM_0006
 70
    65
 10
0.0
 20
0.0
  0
LINE
  8
寸法
  6
CONTINUOUS
 10
-111.269858
 20
-76.879918
 11
-111.269858
 21
-14.851027
  0
LINE
  8
寸法
  6
CONTINUOUS
 10
-105.769855
 20
-14.851027
 11
-111.269858
 21
-14.851027
  0
POINT
  8
寸法
 10
-105.769855
 20
-14.851027
  0
POINT
  8
寸法
 10
-111.269858
 20
-14.851027
  0
TEXT
  7
TextStyle03
  8
寸法
  6
CONTINUOUS
 10
-110.9625
 20
-14.475
  1
110
 40
3.0
 72
     5
 11
-106.0875
 21
-14.475
  0
ENDBLK
  0
BLOCK
  2
*DIM_0007
 70
    65
 10
0.0
 20
0.0
  0
LINE
  8
寸法
  6
CONTINUOUS
 10
-105.769855
 20
-14.851027
 11
-40.769855
 21
-14.851027
  0
POINT
  8
寸法
 10
-105.769855
 20
-14.851027
  0
POINT
  8
寸法
 10
-40.769855
 20
-14.851027
  0
TEXT
  7
TextStyle03
  8
寸法
  6
CONTINUOUS
 10
-84.99375
 20
-14.475
  1
呼称寸法　1300
 40
3.0
 72
     5
 11
-61.55625
 21
-14.475
  0
ENDBLK
  0
BLOCK
  2
*DIM_0008
 70
    65
 10
0.0
 20
0.0
  0
LINE
  8
寸法
  6
BYBLOCK
 62
     0
 10
-39.769855
 20
90.86723
 11
-19.220428
 21
90.86723
  0
LINE
  8
寸法
  6
BYBLOCK
 62
     0
 10
-31.74598
 20
85.31723
 11
-19.220428
 21
85.31723
  0
LINE
  8
寸法
  6
BYBLOCK
 62
     0
 10
-19.220428
 20
90.86723
 11
-19.220428
 21
85.31723
  0
POINT
  8
寸法
 62
     0
 10
-19.220428
 20
90.86723
  0
POINT
  8
寸法
 62
     0
 10
-19.220428
 20
85.31723
  0
TEXT
  7
TextStyle03
  8
寸法
  6
CONTINUOUS
 62
     0
 10
-19.6
 20
85.6625
  1
111
 40
3.0
 50
90.0
 72
     5
 11
-19.6
 21
90.5375
  0
ENDBLK
  0
BLOCK
  2
*DIM_0009
 70
    65
 10
0.0
 20
0.0
  0
LINE
  8
寸法
  6
BYBLOCK
 62
     0
 10
-39.769855
 20
25.867225
 11
-19.220428
 21
25.867225
  0
LINE
  8
寸法
  6
BYBLOCK
 62
     0
 10
-31.74598
 20
31.417225
 11
-19.220428
 21
31.417225
  0
LINE
  8
寸法
  6
BYBLOCK
 62
     0
 10
-19.220428
 20
25.867225
 11
-19.220428
 21
31.417225
  0
POINT
  8
寸法
 62
     0
 10
-19.220428
 20
25.867225
  0
POINT
  8
寸法
 62
     0
 10
-19.220428
 20
31.417225
  0
TEXT
  7
TextStyle03
  8
寸法
  6
CONTINUOUS
 62
     0
 10
-19.6
 20
26.2125
  1
111
 40
3.0
 50
90.0
 72
     5
 11
-19.6
 21
31.0875
  0
ENDBLK
  0
BLOCK
  2
*GRP_0010
 70
    65
 10
0.0
 20
0.0
  0
POLYLINE
  8
寸法
  6
BYBLOCK
 62
     0
 66
     1
  0
VERTEX
  8
寸法
 10
-44.983453
 20
52.1512
  0
VERTEX
  8
寸法
 10
-38.56695
 20
45.734698
  0
VERTEX
  8
寸法
 10
-32.659822
 20
45.734698
  0
SEQEND
  0
ENDBLK
  0
BLOCK
  2
*GRP_0011
 70
    65
 10
0.0
 20
0.0
  0
LINE
  8
型材断面
  6
DOT
 10
104.433167
 20
-32.863495
 11
104.50388
 21
-32.934207
  0
LINE
  8
型材断面
  6
DOT
 10
104.433167
 20
-32.863495
 11
109.558167
 21
-32.863495
  0
LINE
  8
型材断面
  6
DOT
 10
104.50388
 20
-32.934207
 11
109.558167
 21
-32.934207
  0
LINE
  8
型材断面
  6
DOT
 10
104.433167
 20
-32.863495
 11
109.55817
 21
-27.738497
  0
LINE
  8
型材断面
  6
DOT
 10
114.683173
 20
-32.863495
 11
114.61246
 21
-32.934207
  0
LINE
  8
型材断面
  6
DOT
 10
114.683173
 20
-32.863495
 11
109.558173
 21
-32.863495
  0
LINE
  8
型材断面
  6
DOT
 10
114.61246
 20
-32.934207
 11
109.558173
 21
-32.934207
  0
LINE
  8
型材断面
  6
DOT
 10
114.683173
 20
-32.863495
 11
109.55817
 21
-27.738497
  0
LINE
  8
型材断面
  6
DOT
 10
109.55817
 20
-70.229918
 11
146.708172
 21
-70.229918
  0
LINE
  8
型材断面
  6
DOT
 10
109.55817
 20
-69.529918
 11
147.558173
 21
-69.529918
  0
LINE
  8
型材断面
  6
DOT
 10
109.55817
 20
-66.579918
 11
147.558173
 21
-66.579918
  0
LINE
  8
型材断面
  6
DOT
 10
109.55817
 20
-65.879918
 11
147.558173
 21
-65.879918
  0
LINE
  8
型材断面
  6
DOT
 62
    47
 10
147.558173
 20
-66.579918
 11
147.558173
 21
-69.529918
  0
LINE
  8
型材断面
  6
DOT
 62
    47
 10
146.708172
 20
-69.529918
 11
146.708172
 21
-70.229918
  0
LINE
  8
型材断面
  6
DOT
 62
    47
 10
146.462218
 20
-64.783968
 11
147.55817
 21
-65.879918
  0
LINE
  8
型材断面
  6
DOT
 62
    47
 10
147.55817
 20
-66.579918
 11
147.55817
 21
-65.879918
  0
LINE
  8
型材断面
  6
DOT
 10
109.55817
 20
-64.783968
 11
146.46222
 21
-64.783968
  0
LINE
  8
型材断面
  6
DOT
 10
142.293008
 20
-64.430412
 11
110.796803
 21
-32.934207
  0
LINE
  8
型材断面
  6
DOT
 10
142.43443
 20
-64.430412
 11
110.938225
 21
-32.934207
  0
LINE
  8
型材断面
  6
DOT
 10
109.55817
 20
-27.879918
 11
146.46222
 21
-64.783968
  0
LINE
  8
型材断面
  6
DOT
 10
109.55817
 20
-70.229918
 11
72.408167
 21
-70.229918
  0
LINE
  8
型材断面
  6
DOT
 10
109.55817
 20
-69.529918
 11
71.558167
 21
-69.529918
  0
LINE
  8
型材断面
  6
DOT
 10
109.55817
 20
-66.579918
 11
71.558167
 21
-66.579918
  0
LINE
  8
型材断面
  6
DOT
 10
109.55817
 20
-65.879918
 11
71.558167
 21
-65.879918
  0
LINE
  8
型材断面
  6
DOT
 62
    47
 10
71.558167
 20
-66.579918
 11
71.558167
 21
-69.529918
  0
LINE
  8
型材断面
  6
DOT
 62
    47
 10
72.408167
 20
-69.529918
 11
72.408167
 21
-70.229918
  0
LINE
  8
型材断面
  6
DOT
 62
    47
 10
72.654123
 20
-64.783968
 11
71.55817
 21
-65.879918
  0
LINE
  8
型材断面
  6
DOT
 62
    47
 10
71.55817
 20
-66.579918
 11
71.55817
 21
-65.879918
  0
LINE
  8
型材断面
  6
DOT
 10
109.55817
 20
-64.783968
 11
72.65412
 21
-64.783968
  0
LINE
  8
型材断面
  6
DOT
 10
76.823332
 20
-64.430412
 11
108.319537
 21
-32.934207
  0
LINE
  8
型材断面
  6
DOT
 10
76.68191
 20
-64.430412
 11
108.178115
 21
-32.934207
  0
LINE
  8
型材断面
  6
DOT
 10
109.55817
 20
-27.879918
 11
72.65412
 21
-64.783968
  0
LINE
  8
型材断面
  6
DOT
 10
142.293008
 20
-64.430412
 11
146.108665
 21
-64.430412
  0
LINE
  8
型材断面
  6
DOT
 10
73.007675
 20
-64.430412
 11
76.823332
 21
-64.430412
  0
LINE
  8
ガラス
  6
DOT
 10
111.445875
 20
-52.192623
 11
107.57324
 21
-56.065258
  0
LINE
  8
ガラス
  6
DOT
 10
110.565553
 20
-53.79098
 11
109.171597
 21
-55.184935
  0
LINE
  8
ガラス
  6
DOT
 10
109.847517
 20
-53.072945
 11
108.453563
 21
-54.4669
  0
ENDBLK
  0
BLOCK
  2
*DIM_0012
 70
    65
 10
0.0
 20
0.0
  0
LINE
  8
寸法
  6
CONTINUOUS
 10
151.708172
 20
-86.229918
 11
164.705552
 21
-86.229918
  0
LINE
  8
寸法
  6
CONTINUOUS
 10
151.708172
 20
-70.229918
 11
164.705552
 21
-70.229918
  0
LINE
  8
寸法
  6
CONTINUOUS
 10
164.705552
 20
-86.229918
 11
164.705552
 21
-70.229918
  0
POINT
  8
寸法
 10
164.705552
 20
-86.229918
  0
POINT
  8
寸法
 10
164.705552
 20
-70.229918
  0
TEXT
  7
TextStyle03
  8
寸法
  6
CONTINUOUS
 10
167.7
 20
-87.34375
  1
上昇258以上
 40
3.0
 50
90.0
 72
     5
 11
167.7
 21
-69.15625
  0
ENDBLK
  0
BLOCK
  2
*GRP_0013
 70
    65
 10
0.0
 20
0.0
  0
LINE
  8
型材断面
  6
CONTINUOUS
 10
138.036935
 20
-87.860995
 11
138.402578
 21
-88.856638
  0
LINE
  8
型材断面
  6
CONTINUOUS
 10
138.402578
 20
-88.856638
 11
137.982577
 21
-89.764163
  0
LINE
  8
型材断面
  6
CONTINUOUS
 10
137.982577
 20
-89.764163
 11
136.986935
 21
-90.129805
  0
LINE
  8
型材断面
  6
CONTINUOUS
 10
94.022018
 20
-67.490992
 11
138.036935
 21
-87.860995
  0
LINE
  8
型材断面
  6
CONTINUOUS
 10
93.026373
 20
-67.856635
 11
94.022018
 21
-67.490992
  0
LINE
  8
型材断面
  6
CONTINUOUS
 10
93.026373
 20
-67.856635
 11
92.606372
 21
-68.76416
  0
LINE
  8
型材断面
  6
CONTINUOUS
 10
92.972018
 20
-69.759803
 11
136.986935
 21
-90.129805
  0
LINE
  8
型材断面
  6
CONTINUOUS
 10
92.606372
 20
-68.76416
 11
92.972018
 21
-69.759803
  0
INSERT
  2
*GRP_0015
  8
ボルト／ビス
  6
CONTINUOUS
 62
    64
 10
0.0
 20
0.0
  0
INSERT
  2
*GRP_0016
  8
ボルト／ビス
  6
CONTINUOUS
 62
    64
 10
0.0
 20
0.0
  0
INSERT
  2
*GRP_0017
  8
ボルト／ビス
  6
CONTINUOUS
 62
    64
 10
0.0
 20
0.0
  0
ENDBLK
  0
BLOCK
  2
*GRP_0014
 70
    65
 10
0.0
 20
0.0
  0
LINE
  8
型材断面
  6
CONTINUOUS
 10
92.972015
 20
-87.860995
 11
92.606372
 21
-88.856638
  0
LINE
  8
型材断面
  6
CONTINUOUS
 10
92.606372
 20
-88.856638
 11
93.026373
 21
-89.764163
  0
LINE
  8
型材断面
  6
CONTINUOUS
 10
93.026373
 20
-89.764163
 11
94.022015
 21
-90.129805
  0
LINE
  8
型材断面
  6
CONTINUOUS
 10
136.986932
 20
-67.490992
 11
92.972015
 21
-87.860995
  0
LINE
  8
型材断面
  6
CONTINUOUS
 10
137.982577
 20
-67.856635
 11
136.986932
 21
-67.490992
  0
LINE
  8
型材断面
  6
CONTINUOUS
 10
137.982577
 20
-67.856635
 11
138.402578
 21
-68.76416
  0
LINE
  8
型材断面
  6
CONTINUOUS
 10
138.036932
 20
-69.759803
 11
94.022015
 21
-90.129805
  0
LINE
  8
型材断面
  6
CONTINUOUS
 10
138.402578
 20
-68.76416
 11
138.036932
 21
-69.759803
  0
INSERT
  2
*GRP_0018
  8
ボルト／ビス
  6
CONTINUOUS
 62
    64
 10
0.0
 20
0.0
  0
INSERT
  2
*GRP_0019
  8
ボルト／ビス
  6
CONTINUOUS
 62
    64
 10
0.0
 20
0.0
  0
INSERT
  2
*GRP_0020
  8
ボルト／ビス
  6
CONTINUOUS
 62
    64
 10
0.0
 20
0.0
  0
ENDBLK
  0
BLOCK
  2
*GRP_0015
 70
    65
 10
0.0
 20
0.0
  0
INSERT
  2
*GRP_0021
  8
補助線
  6
CONTINUOUS
 62
    64
 10
0.0
 20
0.0
  0
LINE
  8
ボルト／ビス
  6
CONTINUOUS
 62
    64
 10
94.144767
 20
-68.41623
 11
93.684763
 21
-68.457815
  0
LINE
  8
ボルト／ビス
  6
CONTINUOUS
 62
    64
 10
94.144767
 20
-68.41623
 11
94.410782
 21
-68.793815
  0
LINE
  8
ボルト／ビス
  6
CONTINUOUS
 62
    64
 10
93.75679
 20
-69.254565
 11
93.490775
 21
-68.876983
  0
LINE
  8
ボルト／ビス
  6
CONTINUOUS
 62
    64
 10
93.75679
 20
-69.254565
 11
94.216792
 21
-69.212982
  0
CIRCLE
  8
ボルト／ビス
  6
CONTINUOUS
 62
    64
 10
93.950778
 20
-68.835397
 40
0.4
  0
LINE
  8
ボルト／ビス
  6
CONTINUOUS
 62
    64
 10
94.410782
 20
-68.793815
 11
94.216792
 21
-69.212982
  0
LINE
  8
ボルト／ビス
  6
CONTINUOUS
 62
    64
 10
93.684763
 20
-68.457815
 11
93.490775
 21
-68.876983
  0
ENDBLK
  0
BLOCK
  2
*GRP_0016
 70
    65
 10
0.0
 20
0.0
  0
INSERT
  2
*GRP_0022
  8
補助線
  6
CONTINUOUS
 62
    64
 10
0.0
 20
0.0
  0
LINE
  8
ボルト／ビス
  6
CONTINUOUS
 62
    64
 10
137.252162
 20
-88.366233
 11
137.518177
 21
-88.743818
  0
LINE
  8
ボルト／ビス
  6
CONTINUOUS
 62
    64
 10
137.252162
 20
-88.366233
 11
136.792158
 21
-88.407817
  0
LINE
  8
ボルト／ビス
  6
CONTINUOUS
 62
    64
 10
136.864183
 20
-89.204568
 11
137.324187
 21
-89.162982
  0
LINE
  8
ボルト／ビス
  6
CONTINUOUS
 62
    64
 10
136.864183
 20
-89.204568
 11
136.598168
 21
-88.826983
  0
CIRCLE
  8
ボルト／ビス
  6
CONTINUOUS
 62
    64
 10
137.058173
 20
-88.7854
 40
0.4
  0
LINE
  8
ボルト／ビス
  6
CONTINUOUS
 62
    64
 10
136.792158
 20
-88.407817
 11
136.598168
 21
-88.826983
  0
LINE
  8
ボルト／ビス
  6
CONTINUOUS
 62
    64
 10
137.518177
 20
-88.743818
 11
137.324187
 21
-89.162982
  0
ENDBLK
  0
BLOCK
  2
*GRP_0017
 70
    65
 10
0.0
 20
0.0
  0
INSERT
  2
*GRP_0023
  8
補助線
  6
CONTINUOUS
 62
    64
 10
0.0
 20
0.0
  0
LINE
  8
ボルト／ビス
  6
CONTINUOUS
 62
    64
 10
115.698465
 20
-78.391233
 11
115.23846
 21
-78.432815
  0
LINE
  8
ボルト／ビス
  6
CONTINUOUS
 62
    64
 10
115.698465
 20
-78.391233
 11
115.96448
 21
-78.768815
  0
LINE
  8
ボルト／ビス
  6
CONTINUOUS
 62
    64
 10
115.310485
 20
-79.229565
 11
115.04447
 21
-78.851983
  0
LINE
  8
ボルト／ビス
  6
CONTINUOUS
 62
    64
 10
115.310485
 20
-79.229565
 11
115.77049
 21
-79.187983
  0
CIRCLE
  8
ボルト／ビス
  6
CONTINUOUS
 62
    64
 10
115.504475
 20
-78.8104
 40
0.4
  0
LINE
  8
ボルト／ビス
  6
CONTINUOUS
 62
    64
 10
115.96448
 20
-78.768815
 11
115.77049
 21
-79.187983
  0
LINE
  8
ボルト／ビス
  6
CONTINUOUS
 62
    64
 10
115.23846
 20
-78.432815
 11
115.04447
 21
-78.851983
  0
ENDBLK
  0
BLOCK
  2
*GRP_0018
 70
    65
 10
0.0
 20
0.0
  0
INSERT
  2
*GRP_0024
  8
補助線
  6
CONTINUOUS
 62
    64
 10
0.0
 20
0.0
  0
LINE
  8
ボルト／ビス
  6
CONTINUOUS
 62
    64
 10
136.864183
 20
-68.41623
 11
137.324187
 21
-68.457815
  0
LINE
  8
ボルト／ビス
  6
CONTINUOUS
 62
    64
 10
136.864183
 20
-68.41623
 11
136.598168
 21
-68.793815
  0
LINE
  8
ボルト／ビス
  6
CONTINUOUS
 62
    64
 10
137.25216
 20
-69.254565
 11
137.518175
 21
-68.876983
  0
LINE
  8
ボルト／ビス
  6
CONTINUOUS
 62
    64
 10
137.25216
 20
-69.254565
 11
136.792158
 21
-69.212982
  0
CIRCLE
  8
ボルト／ビス
  6
CONTINUOUS
 62
    64
 10
137.058173
 20
-68.835397
 40
0.4
  0
LINE
  8
ボルト／ビス
  6
CONTINUOUS
 62
    64
 10
136.598168
 20
-68.793815
 11
136.792158
 21
-69.212982
  0
LINE
  8
ボルト／ビス
  6
CONTINUOUS
 62
    64
 10
137.324187
 20
-68.457815
 11
137.518175
 21
-68.876983
  0
ENDBLK
  0
BLOCK
  2
*GRP_0019
 70
    65
 10
0.0
 20
0.0
  0
INSERT
  2
*GRP_0025
  8
補助線
  6
CONTINUOUS
 62
    64
 10
0.0
 20
0.0
  0
LINE
  8
ボルト／ビス
  6
CONTINUOUS
 62
    64
 10
93.756788
 20
-88.366233
 11
93.490772
 21
-88.743818
  0
LINE
  8
ボルト／ビス
  6
CONTINUOUS
 62
    64
 10
93.756788
 20
-88.366233
 11
94.216792
 21
-88.407817
  0
LINE
  8
ボルト／ビス
  6
CONTINUOUS
 62
    64
 10
94.144767
 20
-89.204568
 11
93.684763
 21
-89.162982
  0
LINE
  8
ボルト／ビス
  6
CONTINUOUS
 62
    64
 10
94.144767
 20
-89.204568
 11
94.410782
 21
-88.826983
  0
CIRCLE
  8
ボルト／ビス
  6
CONTINUOUS
 62
    64
 10
93.950778
 20
-88.7854
 40
0.4
  0
LINE
  8
ボルト／ビス
  6
CONTINUOUS
 62
    64
 10
94.216792
 20
-88.407817
 11
94.410782
 21
-88.826983
  0
LINE
  8
ボルト／ビス
  6
CONTINUOUS
 62
    64
 10
93.490772
 20
-88.743818
 11
93.684763
 21
-89.162982
  0
ENDBLK
  0
BLOCK
  2
*GRP_0020
 70
    65
 10
0.0
 20
0.0
  0
INSERT
  2
*GRP_0026
  8
補助線
  6
CONTINUOUS
 62
    64
 10
0.0
 20
0.0
  0
LINE
  8
ボルト／ビス
  6
CONTINUOUS
 62
    64
 10
115.310485
 20
-78.391233
 11
115.77049
 21
-78.432815
  0
LINE
  8
ボルト／ビス
  6
CONTINUOUS
 62
    64
 10
115.310485
 20
-78.391233
 11
115.04447
 21
-78.768815
  0
LINE
  8
ボルト／ビス
  6
CONTINUOUS
 62
    64
 10
115.698465
 20
-79.229565
 11
115.96448
 21
-78.851983
  0
LINE
  8
ボルト／ビス
  6
CONTINUOUS
 62
    64
 10
115.698465
 20
-79.229565
 11
115.23846
 21
-79.187983
  0
CIRCLE
  8
ボルト／ビス
  6
CONTINUOUS
 62
    64
 10
115.504475
 20
-78.8104
 40
0.4
  0
LINE
  8
ボルト／ビス
  6
CONTINUOUS
 62
    64
 10
115.04447
 20
-78.768815
 11
115.23846
 21
-79.187983
  0
LINE
  8
ボルト／ビス
  6
CONTINUOUS
 62
    64
 10
115.77049
 20
-78.432815
 11
115.96448
 21
-78.851983
  0
ENDBLK
  0
BLOCK
  2
*GRP_0021
 70
    65
 10
0.0
 20
0.0
  0
LINE
  8
補助線
  6
BYBLOCK
 62
    64
 10
94.06422
 20
-68.887897
 11
93.837337
 21
-68.782898
  0
LINE
  8
補助線
  6
BYBLOCK
 62
    64
 10
94.003277
 20
-68.721958
 11
93.898278
 21
-68.948837
  0
ENDBLK
  0
BLOCK
  2
*GRP_0022
 70
    65
 10
0.0
 20
0.0
  0
LINE
  8
補助線
  6
BYBLOCK
 62
    64
 10
136.944732
 20
-88.7329
 11
137.171613
 21
-88.8379
  0
LINE
  8
補助線
  6
BYBLOCK
 62
    64
 10
137.110672
 20
-88.67196
 11
137.005673
 21
-88.89884
  0
ENDBLK
  0
BLOCK
  2
*GRP_0023
 70
    65
 10
0.0
 20
0.0
  0
LINE
  8
補助線
  6
BYBLOCK
 62
    64
 10
115.617915
 20
-78.8629
 11
115.391035
 21
-78.7579
  0
LINE
  8
補助線
  6
BYBLOCK
 62
    64
 10
115.556975
 20
-78.696958
 11
115.451975
 21
-78.92384
  0
ENDBLK
  0
BLOCK
  2
*GRP_0024
 70
    65
 10
0.0
 20
0.0
  0
LINE
  8
補助線
  6
BYBLOCK
 62
    64
 10
136.94473
 20
-68.887897
 11
137.171613
 21
-68.782898
  0
LINE
  8
補助線
  6
BYBLOCK
 62
    64
 10
137.005673
 20
-68.721958
 11
137.110672
 21
-68.948837
  0
ENDBLK
  0
BLOCK
  2
*GRP_0025
 70
    65
 10
0.0
 20
0.0
  0
LINE
  8
補助線
  6
BYBLOCK
 62
    64
 10
94.064218
 20
-88.7329
 11
93.837337
 21
-88.8379
  0
LINE
  8
補助線
  6
BYBLOCK
 62
    64
 10
93.898278
 20
-88.67196
 11
94.003277
 21
-88.89884
  0
ENDBLK
  0
BLOCK
  2
*GRP_0026
 70
    65
 10
0.0
 20
0.0
  0
LINE
  8
補助線
  6
BYBLOCK
 62
    64
 10
115.391035
 20
-78.8629
 11
115.617915
 21
-78.7579
  0
LINE
  8
補助線
  6
BYBLOCK
 62
    64
 10
115.451975
 20
-78.696958
 11
115.556975
 21
-78.92384
  0
ENDBLK
  0
BLOCK
  2
*DIM_0027
 70
    65
 10
0.0
 20
0.0
  0
LINE
  8
寸法
  6
BYBLOCK
 62
     0
 10
-90.769855
 20
106.658447
 11
-90.769855
 21
117.013985
  0
LINE
  8
寸法
  6
BYBLOCK
 62
     0
 10
-55.769855
 20
106.658447
 11
-55.769855
 21
117.013985
  0
LINE
  8
寸法
  6
BYBLOCK
 62
     0
 10
-90.769855
 20
117.013985
 11
-55.769855
 21
117.013985
  0
POINT
  8
寸法
 62
     0
 10
-90.769855
 20
117.013985
  0
POINT
  8
寸法
 62
     0
 10
-55.769855
 20
117.013985
  0
TEXT
  7
TextStyle03
  8
寸法
  6
CONTINUOUS
 62
     0
 10
-75.7125
 20
117.375
  1
700
 40
3.0
 72
     5
 11
-70.8375
 21
117.375
  0
ENDBLK
  0
BLOCK
  2
*DIM_0028
 70
    65
 10
0.0
 20
0.0
  0
LINE
  8
寸法
  6
BYBLOCK
 62
     0
 10
-124.088828
 20
75.86723
 11
-134.444365
 21
75.86723
  0
LINE
  8
寸法
  6
BYBLOCK
 62
     0
 10
-124.08883
 20
40.86723
 11
-134.444368
 21
40.86723
  0
LINE
  8
寸法
  6
BYBLOCK
 62
     0
 10
-134.444365
 20
75.86723
 11
-134.444368
 21
40.86723
  0
POINT
  8
寸法
 62
     0
 10
-134.444365
 20
75.86723
  0
POINT
  8
寸法
 62
     0
 10
-134.444368
 20
40.86723
  0
TEXT
  7
TextStyle03
  8
寸法
  6
CONTINUOUS
 62
     0
 10
-134.825
 20
55.9125
  1
700
 40
3.0
 50
90.0
 72
     5
 11
-134.825
 21
60.7875
  0
ENDBLK
  0
BLOCK
  2
*DIM_0031
 70
    65
 10
0.0
 20
0.0
  0
LINE
  8
寸法
  6
CONTINUOUS
 10
-30.269852
 20
-81.879918
 11
-19.111262
 21
-81.879918
  0
LINE
  8
寸法
  6
CONTINUOUS
 10
-31.625075
 20
-92.349917
 11
-19.111262
 21
-92.349917
  0
LINE
  8
寸法
  6
CONTINUOUS
 10
-19.111262
 20
-81.879918
 11
-19.111262
 21
-92.349917
  0
POINT
  8
寸法
 10
-19.111262
 20
-81.879918
  0
POINT
  8
寸法
 10
-19.111262
 20
-92.349917
  0
TEXT
  7
TextStyle03
  8
寸法
  6
CONTINUOUS
 10
-19.5
 20
-91.25
  1
209.4
 40
3.0
 50
90.0
 72
     5
 11
-19.5
 21
-83.0
  0
ENDBLK
  0
BLOCK
  2
*DIM_0033
 70
    65
 10
0.0
 20
0.0
  0
LINE
  8
寸法
  6
BYBLOCK
 62
     0
 10
79.152425
 20
23.420365
 11
79.152425
 21
10.030263
  0
LINE
  8
寸法
  6
BYBLOCK
 62
     0
 10
148.795185
 20
23.420365
 11
148.795185
 21
10.030263
  0
LINE
  8
寸法
  6
BYBLOCK
 62
     0
 10
79.152425
 20
10.030263
 11
148.795185
 21
10.030263
  0
POINT
  8
寸法
 62
     0
 10
79.152425
 20
10.030263
  0
POINT
  8
寸法
 62
     0
 10
148.795185
 20
10.030263
  0
TEXT
  7
TextStyle03
  8
寸法
  6
CONTINUOUS
 62
     0
 10
107.325
 20
10.4
  1
1392.9
 40
4.0
 72
     5
 11
120.575
 21
10.4
  0
ENDBLK
  0
BLOCK
  2
*DIM_0034
 70
    65
 10
0.0
 20
0.0
  0
LINE
  8
寸法
  6
BYBLOCK
 62
     0
 10
151.795185
 20
26.420365
 11
163.47531
 21
26.420365
  0
LINE
  8
寸法
  6
BYBLOCK
 62
     0
 10
116.973805
 20
75.665232
 11
163.47531
 21
75.665232
  0
LINE
  8
寸法
  6
BYBLOCK
 62
     0
 10
163.47531
 20
26.420365
 11
163.47531
 21
75.665232
  0
POINT
  8
寸法
 62
     0
 10
163.47531
 20
26.420365
  0
POINT
  8
寸法
 62
     0
 10
163.47531
 20
75.665232
  0
TEXT
  7
TextStyle03
  8
寸法
  6
CONTINUOUS
 62
     0
 10
163.1
 20
45.525
  1
984.9
 40
4.0
 50
90.0
 72
     5
 11
163.1
 21
56.525
  0
ENDBLK
  0
ENDSEC
  0
SECTION
  2
ENTITIES
  0
POLYLINE
  8
通り芯
  6
CONTINUOUS
 66
     1
 70
     1
  0
VERTEX
  8
通り芯
 10
-210.0
 20
-148.5
  0
VERTEX
  8
通り芯
 10
210.0
 20
-148.5
  0
VERTEX
  8
通り芯
 10
210.0
 20
148.5
  0
VERTEX
  8
通り芯
 10
-210.0
 20
148.5
  0
SEQEND
  0
INSERT
  2
*GRP_0001
  8
型材断面
  6
CONTINUOUS
 10
0.0
 20
0.0
  0
LINE
  8
型材断面
  6
CONTINUOUS
 10
-78.394855
 20
53.242225
 11
-78.394855
 21
58.367225
  0
LINE
  8
型材断面
  6
CONTINUOUS
 10
-78.394855
 20
53.242225
 11
-73.269855
 21
53.242225
  0
LINE
  8
型材断面
  6
CONTINUOUS
 10
-68.144855
 20
63.49223
 11
-68.144855
 21
58.36723
  0
LINE
  8
型材断面
  6
CONTINUOUS
 10
-68.144855
 20
63.49223
 11
-73.269855
 21
63.49223
  0
LINE
  8
型材断面
  6
CONTINUOUS
 10
-78.394855
 20
63.49223
 11
-78.394855
 21
58.36723
  0
LINE
  8
型材断面
  6
CONTINUOUS
 10
-78.394855
 20
63.49223
 11
-73.269855
 21
63.49223
  0
LINE
  8
型材断面
  6
CONTINUOUS
 10
-78.394855
 20
63.49223
 11
-78.394855
 21
58.36723
  0
LINE
  8
型材断面
  6
CONTINUOUS
 10
-78.394855
 20
63.49223
 11
-73.269855
 21
63.49223
  0
LINE
  8
型材断面
  6
CONTINUOUS
 10
-68.144855
 20
63.49223
 11
-68.144855
 21
58.36723
  0
LINE
  8
型材断面
  6
CONTINUOUS
 10
-68.144855
 20
63.49223
 11
-73.269855
 21
63.49223
  0
LINE
  8
型材断面
  6
CONTINUOUS
 10
-68.144852
 20
53.242228
 11
-73.269852
 21
53.242228
  0
LINE
  8
型材断面
  6
CONTINUOUS
 10
-68.144852
 20
53.242228
 11
-68.144852
 21
58.367228
  0
LINE
  8
型材断面
  6
DASHDOT
 10
-105.769855
 20
58.367228
 11
-40.769855
 21
58.367228
  0
LINE
  8
型材断面
  6
CONTINUOUS
 10
-73.269855
 20
58.367228
 11
-35.269852
 21
20.367228
  0
LINE
  8
型材断面
  6
CONTINUOUS
 10
-73.269855
 20
58.367228
 11
-111.269858
 21
20.367228
  0
LINE
  8
型材断面
  6
DASHDOT
 10
-105.769855
 20
25.867228
 11
-40.769855
 21
25.867228
  0
LINE
  8
型材断面
  6
CONTINUOUS
 10
-111.269858
 20
20.367228
 11
-35.269848
 21
20.367223
  0
LINE
  8
型材断面
  6
CONTINUOUS
 10
-110.173902
 20
21.463183
 11
-36.365802
 21
21.463177
  0
LINE
  8
型材断面
  6
CONTINUOUS
 10
-73.269855
 20
58.367228
 11
-35.269852
 21
96.367228
  0
LINE
  8
型材断面
  6
CONTINUOUS
 10
-73.269855
 20
58.367228
 11
-111.269858
 21
96.367228
  0
LINE
  8
型材断面
  6
DASHDOT
 10
-105.769855
 20
90.867228
 11
-40.769855
 21
90.867228
  0
LINE
  8
型材断面
  6
CONTINUOUS
 10
-36.365812
 20
95.271268
 11
-110.173902
 21
95.271283
  0
LINE
  8
型材断面
  6
CONTINUOUS
 10
-35.269858
 20
96.367223
 11
-111.269858
 21
96.367238
  0
LINE
  8
型材断面
  6
CONTINUOUS
 10
-35.269858
 20
96.367223
 11
-35.269848
 21
20.367223
  0
LINE
  8
型材断面
  6
CONTINUOUS
 10
-36.365812
 20
95.271268
 11
-36.365802
 21
21.463177
  0
LINE
  8
型材断面
  6
CONTINUOUS
 10
-110.173902
 20
95.271283
 11
-110.173902
 21
21.463183
  0
LINE
  8
型材断面
  6
CONTINUOUS
 10
-111.269858
 20
96.367238
 11
-111.269858
 21
20.367228
  0
LINE
  8
型材断面
  6
CONTINUOUS
 10
-78.394858
 20
-48.863495
 11
-78.324145
 21
-48.934207
  0
LINE
  8
型材断面
  6
CONTINUOUS
 10
-78.394858
 20
-48.863495
 11
-73.269858
 21
-48.863495
  0
LINE
  8
型材断面
  6
CONTINUOUS
 10
-78.324145
 20
-48.934207
 11
-73.269858
 21
-48.934207
  0
LINE
  8
型材断面
  6
CONTINUOUS
 10
-78.394858
 20
-48.863495
 11
-73.269855
 21
-43.738497
  0
LINE
  8
型材断面
  6
CONTINUOUS
 10
-68.144852
 20
-48.863495
 11
-68.215565
 21
-48.934207
  0
LINE
  8
型材断面
  6
CONTINUOUS
 10
-68.144852
 20
-48.863495
 11
-73.269852
 21
-48.863495
  0
LINE
  8
型材断面
  6
CONTINUOUS
 10
-68.215565
 20
-48.934207
 11
-73.269852
 21
-48.934207
  0
LINE
  8
型材断面
  6
CONTINUOUS
 10
-68.144852
 20
-48.863495
 11
-73.269855
 21
-43.738497
  0
LINE
  8
型材断面
  6
CONTINUOUS
 10
-73.269855
 20
-86.492785
 11
-36.625075
 21
-86.492785
  0
LINE
  8
型材断面
  6
CONTINUOUS
 10
-73.269855
 20
-86.229918
 11
-36.119852
 21
-86.229918
  0
LINE
  8
型材断面
  6
CONTINUOUS
 10
-73.269855
 20
-85.529918
 11
-35.269852
 21
-85.529918
  0
LINE
  8
型材断面
  6
CONTINUOUS
 10
-73.269855
 20
-82.579918
 11
-35.269852
 21
-82.579918
  0
LINE
  8
型材断面
  6
CONTINUOUS
 10
-73.269855
 20
-81.879918
 11
-35.269852
 21
-81.879918
  0
LINE
  8
型材断面
  6
CONTINUOUS
 62
    47
 10
-35.269852
 20
-82.579918
 11
-35.269852
 21
-85.529918
  0
LINE
  8
型材断面
  6
CONTINUOUS
 62
    47
 10
-36.119852
 20
-85.529918
 11
-36.119852
 21
-86.229918
  0
LINE
  8
型材断面
  6
CONTINUOUS
 62
    47
 10
-36.365808
 20
-80.783968
 11
-35.269855
 21
-81.879918
  0
LINE
  8
型材断面
  6
CONTINUOUS
 62
    47
 10
-35.269855
 20
-82.579918
 11
-35.269855
 21
-81.879918
  0
LINE
  8
型材断面
  6
CONTINUOUS
 62
    47
 10
-36.625075
 20
-86.492785
 11
-36.887943
 21
-86.229918
  0
LINE
  8
型材断面
  6
CONTINUOUS
 10
-73.269855
 20
-80.783968
 11
-36.365805
 21
-80.783968
  0
LINE
  8
型材断面
  6
CONTINUOUS
 10
-40.535017
 20
-80.430412
 11
-72.031222
 21
-48.934207
  0
LINE
  8
型材断面
  6
CONTINUOUS
 10
-40.393595
 20
-80.430412
 11
-71.8898
 21
-48.934207
  0
LINE
  8
型材断面
  6
CONTINUOUS
 10
-73.269855
 20
-43.879918
 11
-36.365805
 21
-80.783968
  0
LINE
  8
型材断面
  6
DASHDOT
 10
-105.769855
 20
-89.95778
 11
-105.769855
 21
-43.018178
  0
LINE
  8
型材断面
  6
CONTINUOUS
 10
-73.269855
 20
-86.492785
 11
-109.914635
 21
-86.492785
  0
LINE
  8
型材断面
  6
CONTINUOUS
 10
-73.269855
 20
-86.229918
 11
-110.419858
 21
-86.229918
  0
LINE
  8
型材断面
  6
CONTINUOUS
 10
-73.269855
 20
-85.529918
 11
-111.269858
 21
-85.529918
  0
LINE
  8
型材断面
  6
CONTINUOUS
 10
-73.269855
 20
-82.579918
 11
-111.269858
 21
-82.579918
  0
LINE
  8
型材断面
  6
CONTINUOUS
 10
-73.269855
 20
-81.879918
 11
-111.269858
 21
-81.879918
  0
LINE
  8
型材断面
  6
CONTINUOUS
 62
    47
 10
-111.269858
 20
-82.579918
 11
-111.269858
 21
-85.529918
  0
LINE
  8
型材断面
  6
CONTINUOUS
 62
    47
 10
-110.419858
 20
-85.529918
 11
-110.419858
 21
-86.229918
  0
LINE
  8
型材断面
  6
CONTINUOUS
 62
    47
 10
-110.173902
 20
-80.783968
 11
-111.269855
 21
-81.879918
  0
LINE
  8
型材断面
  6
CONTINUOUS
 62
    47
 10
-111.269855
 20
-82.579918
 11
-111.269855
 21
-81.879918
  0
LINE
  8
型材断面
  6
CONTINUOUS
 62
    47
 10
-109.914635
 20
-86.492785
 11
-109.651768
 21
-86.229918
  0
LINE
  8
型材断面
  6
CONTINUOUS
 10
-73.269855
 20
-80.783968
 11
-110.173905
 21
-80.783968
  0
LINE
  8
型材断面
  6
CONTINUOUS
 10
-106.004692
 20
-80.430412
 11
-74.508487
 21
-48.934207
  0
LINE
  8
型材断面
  6
CONTINUOUS
 10
-106.146115
 20
-80.430412
 11
-74.64991
 21
-48.934207
  0
LINE
  8
型材断面
  6
CONTINUOUS
 10
-73.269855
 20
-43.879918
 11
-110.173905
 21
-80.783968
  0
LINE
  8
型材断面
  6
CONTINUOUS
 10
-40.535017
 20
-80.430412
 11
-36.71936
 21
-80.430412
  0
LINE
  8
型材断面
  6
CONTINUOUS
 10
-109.82035
 20
-80.430412
 11
-106.004692
 21
-80.430412
  0
LINE
  8
型材断面
  6
CONTINUOUS
 10
-32.74598
 20
85.31723
 11
-28.86022
 21
84.423145
  0
LINE
  8
型材断面
  6
CONTINUOUS
 10
-32.74598
 20
85.31723
 11
-28.86022
 21
86.211315
  0
LINE
  8
型材断面
  6
CONTINUOUS
 10
-28.86022
 20
86.211315
 11
-28.86022
 21
84.423145
  0
LINE
  8
型材断面
  6
CONTINUOUS
 10
-32.74598
 20
31.417225
 11
-28.86022
 21
32.31131
  0
LINE
  8
型材断面
  6
CONTINUOUS
 10
-32.74598
 20
31.417225
 11
-28.86022
 21
30.52314
  0
LINE
  8
型材断面
  6
CONTINUOUS
 10
-28.86022
 20
30.52314
 11
-28.86022
 21
32.31131
  0
LINE
  8
型材断面
  6
CONTINUOUS
 10
-113.79373
 20
31.417225
 11
-117.67949
 21
32.31131
  0
LINE
  8
型材断面
  6
CONTINUOUS
 10
-113.79373
 20
31.417225
 11
-117.67949
 21
30.52314
  0
LINE
  8
型材断面
  6
CONTINUOUS
 10
-117.67949
 20
30.52314
 11
-117.67949
 21
32.31131
  0
LINE
  8
型材断面
  6
CONTINUOUS
 10
-113.79373
 20
85.31723
 11
-117.67949
 21
84.423145
  0
LINE
  8
型材断面
  6
CONTINUOUS
 10
-113.79373
 20
85.31723
 11
-117.67949
 21
86.211315
  0
LINE
  8
型材断面
  6
CONTINUOUS
 10
-117.67949
 20
86.211315
 11
-117.67949
 21
84.423145
  0
LINE
  8
型材断面
  6
CONTINUOUS
 10
-32.74598
 20
58.367228
 11
-28.86022
 21
56.123783
  0
LINE
  8
型材断面
  6
CONTINUOUS
 10
-32.74598
 20
58.367228
 11
-28.86022
 21
60.610672
  0
LINE
  8
型材断面
  6
CONTINUOUS
 10
-28.86022
 20
60.610672
 11
-28.86022
 21
56.123783
  0
LINE
  8
型材断面
  6
CONTINUOUS
 10
-73.269855
 20
98.891102
 11
-75.5133
 21
102.776863
  0
LINE
  8
型材断面
  6
CONTINUOUS
 10
-73.269855
 20
98.891102
 11
-71.02641
 21
102.776863
  0
LINE
  8
型材断面
  6
CONTINUOUS
 10
-71.02641
 20
102.776863
 11
-75.5133
 21
102.776863
  0
LINE
  8
型材断面
  6
CONTINUOUS
 10
-73.269855
 20
17.843353
 11
-75.5133
 21
13.957592
  0
LINE
  8
型材断面
  6
CONTINUOUS
 10
-73.269855
 20
17.843353
 11
-71.02641
 21
13.957592
  0
LINE
  8
型材断面
  6
CONTINUOUS
 10
-71.02641
 20
13.957592
 11
-75.5133
 21
13.957592
  0
LINE
  8
型材断面
  6
CONTINUOUS
 10
-113.79373
 20
58.367228
 11
-117.67949
 21
56.123783
  0
LINE
  8
型材断面
  6
CONTINUOUS
 10
-113.79373
 20
58.367228
 11
-117.67949
 21
60.610672
  0
LINE
  8
型材断面
  6
CONTINUOUS
 10
-117.67949
 20
60.610672
 11
-117.67949
 21
56.123783
  0
POLYLINE
  8
型材断面
  6
CONTINUOUS
 66
     1
 70
     1
  0
VERTEX
  8
型材断面
 10
-64.059772
 20
13.273015
  0
VERTEX
  8
型材断面
 10
-82.614985
 20
13.273015
  0
VERTEX
  8
型材断面
 10
-82.614985
 20
8.48098
  0
VERTEX
  8
型材断面
 10
-64.059772
 20
8.48098
  0
SEQEND
  0
POLYLINE
  8
型材断面
  6
CONTINUOUS
 66
     1
 70
     1
  0
VERTEX
  8
型材断面
 10
-64.059772
 20
108.928225
  0
VERTEX
  8
型材断面
 10
-82.614985
 20
108.928225
  0
VERTEX
  8
型材断面
 10
-82.614985
 20
104.13619
  0
VERTEX
  8
型材断面
 10
-64.059772
 20
104.13619
  0
SEQEND
  0
LINE
  8
型材断面
  6
CONTINUOUS
 10
12.468733
 20
44.313183
 11
10.225288
 21
40.427422
  0
LINE
  8
型材断面
  6
CONTINUOUS
 10
12.468733
 20
44.313183
 11
14.712177
 21
40.427422
  0
LINE
  8
型材断面
  6
CONTINUOUS
 10
14.712177
 20
40.427422
 11
10.225288
 21
40.427422
  0
LINE
  8
型材断面
  6
CONTINUOUS
 10
12.468733
 20
36.623635
 11
13.362817
 21
32.737875
  0
LINE
  8
型材断面
  6
CONTINUOUS
 10
12.468733
 20
36.623635
 11
11.574647
 21
32.737875
  0
LINE
  8
型材断面
  6
CONTINUOUS
 10
11.574647
 20
32.737875
 11
13.362817
 21
32.737875
  0
LINE
  8
型材断面
  6
CONTINUOUS
 10
3.434852
 20
39.01953
 11
56.091532
 21
39.01953
  0
LINE
  8
型材断面
  6
CONTINUOUS
 10
3.434852
 20
27.819537
 11
56.091532
 21
27.819537
  0
LINE
  8
型材断面
  6
CONTINUOUS
 10
3.434852
 20
20.979593
 11
56.091532
 21
20.979593
  0
LINE
  8
型材断面
  6
CONTINUOUS
 10
3.434852
 20
14.139647
 11
56.091532
 21
14.139647
  0
LINE
  8
型材断面
  6
CONTINUOUS
 10
104.433167
 20
-48.863495
 11
104.50388
 21
-48.934207
  0
LINE
  8
型材断面
  6
CONTINUOUS
 10
104.433167
 20
-48.863495
 11
109.558167
 21
-48.863495
  0
LINE
  8
型材断面
  6
CONTINUOUS
 10
104.50388
 20
-48.934207
 11
109.558167
 21
-48.934207
  0
LINE
  8
型材断面
  6
CONTINUOUS
 10
104.433167
 20
-48.863495
 11
109.55817
 21
-43.738497
  0
LINE
  8
型材断面
  6
CONTINUOUS
 10
114.683173
 20
-48.863495
 11
114.61246
 21
-48.934207
  0
LINE
  8
型材断面
  6
CONTINUOUS
 10
114.683173
 20
-48.863495
 11
109.558173
 21
-48.863495
  0
LINE
  8
型材断面
  6
CONTINUOUS
 10
114.61246
 20
-48.934207
 11
109.558173
 21
-48.934207
  0
LINE
  8
型材断面
  6
CONTINUOUS
 10
114.683173
 20
-48.863495
 11
109.55817
 21
-43.738497
  0
LINE
  8
型材断面
  6
CONTINUOUS
 10
109.55817
 20
-86.492785
 11
146.20295
 21
-86.492785
  0
LINE
  8
型材断面
  6
CONTINUOUS
 10
109.55817
 20
-86.229918
 11
146.708172
 21
-86.229918
  0
LINE
  8
型材断面
  6
CONTINUOUS
 10
109.55817
 20
-85.529918
 11
147.558173
 21
-85.529918
  0
LINE
  8
型材断面
  6
CONTINUOUS
 10
109.55817
 20
-82.579918
 11
147.558173
 21
-82.579918
  0
LINE
  8
型材断面
  6
CONTINUOUS
 10
109.55817
 20
-81.879918
 11
147.558173
 21
-81.879918
  0
LINE
  8
型材断面
  6
CONTINUOUS
 62
    47
 10
147.558173
 20
-82.579918
 11
147.558173
 21
-85.529918
  0
LINE
  8
型材断面
  6
CONTINUOUS
 62
    47
 10
146.708172
 20
-85.529918
 11
146.708172
 21
-86.229918
  0
LINE
  8
型材断面
  6
CONTINUOUS
 62
    47
 10
146.462218
 20
-80.783968
 11
147.55817
 21
-81.879918
  0
LINE
  8
型材断面
  6
CONTINUOUS
 62
    47
 10
147.55817
 20
-82.579918
 11
147.55817
 21
-81.879918
  0
LINE
  8
型材断面
  6
CONTINUOUS
 62
    47
 10
146.20295
 20
-86.492785
 11
145.940083
 21
-86.229918
  0
LINE
  8
型材断面
  6
CONTINUOUS
 10
109.55817
 20
-80.783968
 11
146.46222
 21
-80.783968
  0
LINE
  8
型材断面
  6
CONTINUOUS
 10
142.293008
 20
-80.430412
 11
110.796803
 21
-48.934207
  0
LINE
  8
型材断面
  6
CONTINUOUS
 10
142.43443
 20
-80.430412
 11
110.938225
 21
-48.934207
  0
LINE
  8
型材断面
  6
CONTINUOUS
 10
109.55817
 20
-43.879918
 11
146.46222
 21
-80.783968
  0
LINE
  8
型材断面
  6
CONTINUOUS
 10
109.55817
 20
-86.492785
 11
72.91339
 21
-86.492785
  0
LINE
  8
型材断面
  6
CONTINUOUS
 10
109.55817
 20
-86.229918
 11
72.408167
 21
-86.229918
  0
LINE
  8
型材断面
  6
CONTINUOUS
 10
109.55817
 20
-85.529918
 11
71.558167
 21
-85.529918
  0
LINE
  8
型材断面
  6
CONTINUOUS
 10
109.55817
 20
-82.579918
 11
71.558167
 21
-82.579918
  0
LINE
  8
型材断面
  6
CONTINUOUS
 10
109.55817
 20
-81.879918
 11
71.558167
 21
-81.879918
  0
LINE
  8
型材断面
  6
CONTINUOUS
 62
    47
 10
71.558167
 20
-82.579918
 11
71.558167
 21
-85.529918
  0
LINE
  8
型材断面
  6
CONTINUOUS
 62
    47
 10
72.408167
 20
-85.529918
 11
72.408167
 21
-86.229918
  0
LINE
  8
型材断面
  6
CONTINUOUS
 62
    47
 10
72.654123
 20
-80.783968
 11
71.55817
 21
-81.879918
  0
LINE
  8
型材断面
  6
CONTINUOUS
 62
    47
 10
71.55817
 20
-82.579918
 11
71.55817
 21
-81.879918
  0
LINE
  8
型材断面
  6
CONTINUOUS
 62
    47
 10
72.91339
 20
-86.492785
 11
73.176258
 21
-86.229918
  0
LINE
  8
型材断面
  6
CONTINUOUS
 10
109.55817
 20
-80.783968
 11
72.65412
 21
-80.783968
  0
LINE
  8
型材断面
  6
CONTINUOUS
 10
76.823332
 20
-80.430412
 11
108.319537
 21
-48.934207
  0
LINE
  8
型材断面
  6
CONTINUOUS
 10
76.68191
 20
-80.430412
 11
108.178115
 21
-48.934207
  0
LINE
  8
型材断面
  6
CONTINUOUS
 10
109.55817
 20
-43.879918
 11
72.65412
 21
-80.783968
  0
LINE
  8
型材断面
  6
CONTINUOUS
 10
142.293008
 20
-80.430412
 11
146.108665
 21
-80.430412
  0
LINE
  8
型材断面
  6
CONTINUOUS
 10
73.007675
 20
-80.430412
 11
76.823332
 21
-80.430412
  0
INSERT
  2
*GRP_0013
  8
型材断面
  6
CONTINUOUS
 10
0.0
 20
0.0
  0
INSERT
  2
*GRP_0014
  8
型材断面
  6
CONTINUOUS
 10
0.0
 20
0.0
  0
LINE
  8
型材断面
  6
DOT
 10
-46.983453
 20
90.86723
 11
-46.983453
 21
25.867228
  0
LINE
  8
型材断面
  6
DOT
 10
-44.983453
 20
90.86723
 11
-44.983453
 21
25.867228
  0
LINE
  8
型材断面
  6
CONTINUOUS
 10
-109.82035
 20
21.816735
 11
-106.172385
 21
21.816735
  0
LINE
  8
型材断面
  6
CONTINUOUS
 10
-74.746893
 20
53.242225
 11
-106.172385
 21
21.816735
  0
LINE
  8
型材断面
  6
CONTINUOUS
 10
-109.82035
 20
21.816735
 11
-109.82035
 21
25.4647
  0
LINE
  8
型材断面
  6
CONTINUOUS
 10
-78.394855
 20
56.890193
 11
-109.82035
 21
25.4647
  0
LINE
  8
型材断面
  6
CONTINUOUS
 10
-36.71936
 20
21.816735
 11
-40.367325
 21
21.816735
  0
LINE
  8
型材断面
  6
CONTINUOUS
 10
-71.792817
 20
53.242225
 11
-40.367325
 21
21.816735
  0
LINE
  8
型材断面
  6
CONTINUOUS
 10
-36.71936
 20
21.816735
 11
-36.71936
 21
25.4647
  0
LINE
  8
型材断面
  6
CONTINUOUS
 10
-68.144855
 20
56.890193
 11
-36.71936
 21
25.4647
  0
LINE
  8
型材断面
  6
CONTINUOUS
 10
-36.71936
 20
94.91772
 11
-40.367325
 21
94.91772
  0
LINE
  8
型材断面
  6
CONTINUOUS
 10
-71.792817
 20
63.49223
 11
-40.367325
 21
94.91772
  0
LINE
  8
型材断面
  6
CONTINUOUS
 10
-36.71936
 20
94.91772
 11
-36.71936
 21
91.269755
  0
LINE
  8
型材断面
  6
CONTINUOUS
 10
-68.144855
 20
59.844262
 11
-36.71936
 21
91.269755
  0
LINE
  8
型材断面
  6
CONTINUOUS
 10
-109.82035
 20
94.91772
 11
-106.172385
 21
94.91772
  0
LINE
  8
型材断面
  6
CONTINUOUS
 10
-74.746893
 20
63.49223
 11
-106.172385
 21
94.91772
  0
LINE
  8
型材断面
  6
CONTINUOUS
 10
-109.82035
 20
94.91772
 11
-109.82035
 21
91.269755
  0
LINE
  8
型材断面
  6
CONTINUOUS
 10
-78.394855
 20
59.844262
 11
-109.82035
 21
91.269755
  0
LINE
  8
型材断面
  6
CONTINUOUS
 10
84.0679
 20
73.965497
 11
107.999523
 21
73.965497
  0
LINE
  8
型材断面
  6
CONTINUOUS
 10
-73.269855
 20
-92.854918
 11
-37.375075
 21
-92.854918
  0
LINE
  8
型材断面
  6
CONTINUOUS
 10
-73.269855
 20
-92.349917
 11
-36.625075
 21
-92.349917
  0
LINE
  8
型材断面
  6
CONTINUOUS
 62
    47
 10
-37.375075
 20
-92.349917
 11
-37.375075
 21
-92.854918
  0
LINE
  8
型材断面
  6
CONTINUOUS
 62
    47
 10
-36.625075
 20
-86.492785
 11
-36.625075
 21
-92.349917
  0
LINE
  8
型材断面
  6
CONTINUOUS
 10
-73.269855
 20
-92.854918
 11
-109.164635
 21
-92.854918
  0
LINE
  8
型材断面
  6
CONTINUOUS
 10
-73.269855
 20
-92.349917
 11
-109.914635
 21
-92.349917
  0
LINE
  8
型材断面
  6
CONTINUOUS
 62
    47
 10
-109.164635
 20
-92.349917
 11
-109.164635
 21
-92.854918
  0
LINE
  8
型材断面
  6
CONTINUOUS
 62
    47
 10
-109.914635
 20
-86.492785
 11
-109.914635
 21
-92.349917
  0
LINE
  8
型材断面
  6
DASHDOT
 10
-40.769855
 20
90.867228
 11
-40.769855
 21
-92.854918
  0
LINE
  8
型材断面
  6
DASHDOT
 10
-73.269855
 20
90.867228
 11
-73.269855
 21
-92.854918
  0
LINE
  8
型材断面
  6
DASHDOT
 10
-105.769855
 20
90.867228
 11
-105.769855
 21
-92.854918
  0
LINE
  8
型材断面
  6
CONTINUOUS
 10
109.55817
 20
-92.854918
 11
145.45295
 21
-92.854918
  0
LINE
  8
型材断面
  6
CONTINUOUS
 10
109.55817
 20
-92.349917
 11
146.20295
 21
-92.349917
  0
LINE
  8
型材断面
  6
CONTINUOUS
 62
    47
 10
145.45295
 20
-92.349917
 11
145.45295
 21
-92.854918
  0
LINE
  8
型材断面
  6
CONTINUOUS
 62
    47
 10
146.20295
 20
-86.492785
 11
146.20295
 21
-92.349917
  0
LINE
  8
型材断面
  6
CONTINUOUS
 10
109.55817
 20
-92.854918
 11
73.66339
 21
-92.854918
  0
LINE
  8
型材断面
  6
CONTINUOUS
 10
109.55817
 20
-92.349917
 11
72.91339
 21
-92.349917
  0
LINE
  8
型材断面
  6
CONTINUOUS
 62
    47
 10
73.66339
 20
-92.349917
 11
73.66339
 21
-92.854918
  0
LINE
  8
型材断面
  6
CONTINUOUS
 62
    47
 10
72.91339
 20
-86.492785
 11
72.91339
 21
-92.349917
  0
LINE
  8
ガラス
  6
CONTINUOUS
 10
-71.38215
 20
37.932232
 11
-75.254785
 21
34.059598
  0
LINE
  8
ガラス
  6
CONTINUOUS
 10
-72.262472
 20
36.333875
 11
-73.656427
 21
34.93992
  0
LINE
  8
ガラス
  6
CONTINUOUS
 10
-72.980508
 20
37.05191
 11
-74.374463
 21
35.657955
  0
LINE
  8
ガラス
  6
CONTINUOUS
 10
-94.330515
 20
60.322723
 11
-98.20315
 21
56.450087
  0
LINE
  8
ガラス
  6
CONTINUOUS
 10
-95.210837
 20
58.724365
 11
-96.604792
 21
57.33041
  0
LINE
  8
ガラス
  6
CONTINUOUS
 10
-95.928873
 20
59.4424
 11
-97.322828
 21
58.048445
  0
LINE
  8
ガラス
  6
CONTINUOUS
 10
-48.263075
 20
60.322723
 11
-52.13571
 21
56.450087
  0
LINE
  8
ガラス
  6
CONTINUOUS
 10
-49.143397
 20
58.724365
 11
-50.537352
 21
57.33041
  0
LINE
  8
ガラス
  6
CONTINUOUS
 10
-49.861432
 20
59.4424
 11
-51.255387
 21
58.048445
  0
LINE
  8
ガラス
  6
CONTINUOUS
 10
-71.38215
 20
83.100887
 11
-75.254785
 21
79.228253
  0
LINE
  8
ガラス
  6
CONTINUOUS
 10
-72.262472
 20
81.50253
 11
-73.656427
 21
80.108575
  0
LINE
  8
ガラス
  6
CONTINUOUS
 10
-72.980508
 20
82.220565
 11
-74.374463
 21
80.82661
  0
LINE
  8
ガラス
  6
CONTINUOUS
 10
-71.38215
 20
-68.192623
 11
-75.254785
 21
-72.065258
  0
LINE
  8
ガラス
  6
CONTINUOUS
 10
-72.262472
 20
-69.79098
 11
-73.656427
 21
-71.184935
  0
LINE
  8
ガラス
  6
CONTINUOUS
 10
-72.980508
 20
-69.072945
 11
-74.374463
 21
-70.4669
  0
LINE
  8
ガラス
  6
CONTINUOUS
 10
111.445875
 20
-68.192623
 11
107.57324
 21
-72.065258
  0
LINE
  8
ガラス
  6
CONTINUOUS
 10
110.565553
 20
-69.79098
 11
109.171597
 21
-71.184935
  0
LINE
  8
ガラス
  6
CONTINUOUS
 10
109.847517
 20
-69.072945
 11
108.453563
 21
-70.4669
  0
LINE
  8
ガラス
  6
CONTINUOUS
 10
79.152425
 20
26.420365
 11
113.973805
 21
75.665232
  0
LINE
  8
ガラス
  6
CONTINUOUS
 10
113.973805
 20
75.665232
 11
148.795185
 21
26.420365
  0
LINE
  8
ガラス
  6
CONTINUOUS
 10
79.152425
 20
26.420365
 11
148.795185
 21
26.420365
  0
CIRCLE
  8
ボルト／ビス
  6
CONTINUOUS
 10
-37.625075
 20
-87.577607
 40
0.25
  0
CIRCLE
  8
ボルト／ビス
  6
CONTINUOUS
 10
-37.625075
 20
-87.577607
 40
0.2
  0
CIRCLE
  8
ボルト／ビス
  6
CONTINUOUS
 10
-37.625075
 20
-90.792608
 40
0.25
  0
CIRCLE
  8
ボルト／ビス
  6
CONTINUOUS
 10
-37.625075
 20
-90.792608
 40
0.2
  0
CIRCLE
  8
ボルト／ビス
  6
CONTINUOUS
 10
-108.914635
 20
-87.577607
 40
0.25
  0
CIRCLE
  8
ボルト／ビス
  6
CONTINUOUS
 10
-108.914635
 20
-87.577607
 40
0.2
  0
CIRCLE
  8
ボルト／ビス
  6
CONTINUOUS
 10
-108.914635
 20
-90.792608
 40
0.25
  0
CIRCLE
  8
ボルト／ビス
  6
CONTINUOUS
 10
-108.914635
 20
-90.792608
 40
0.2
  0
CIRCLE
  8
ボルト／ビス
  6
CONTINUOUS
 10
145.20295
 20
-87.577607
 40
0.25
  0
CIRCLE
  8
ボルト／ビス
  6
CONTINUOUS
 10
145.20295
 20
-87.577607
 40
0.2
  0
CIRCLE
  8
ボルト／ビス
  6
CONTINUOUS
 10
145.20295
 20
-90.792608
 40
0.25
  0
CIRCLE
  8
ボルト／ビス
  6
CONTINUOUS
 10
145.20295
 20
-90.792608
 40
0.2
  0
CIRCLE
  8
ボルト／ビス
  6
CONTINUOUS
 10
73.91339
 20
-87.577607
 40
0.25
  0
CIRCLE
  8
ボルト／ビス
  6
CONTINUOUS
 10
73.91339
 20
-87.577607
 40
0.2
  0
CIRCLE
  8
ボルト／ビス
  6
CONTINUOUS
 10
73.91339
 20
-90.792608
 40
0.25
  0
CIRCLE
  8
ボルト／ビス
  6
CONTINUOUS
 10
73.91339
 20
-90.792608
 40
0.2
  0
TEXT
  7
TextStyle03
  8
文字
  6
CONTINUOUS
 10
62.075
 20
102.575
  1
ＮＳコード：ＮＳ４Ｃ
 40
5.0
 72
     5
 11
117.7
 21
102.575
  0
TEXT
  7
TextStyle03
  8
文字
  6
CONTINUOUS
 10
61.85
 20
124.225
  1
シリーズ：ＴＦ４
 40
5.0
 72
     5
 11
106.225
 21
124.225
  0
TEXT
  7
TextStyle03
  8
文字
  6
CONTINUOUS
 10
61.85
 20
118.6
  1
　　　　　四角錘（上下可動）1300×1300タイプ
 40
5.0
 72
     5
 11
184.975
 21
118.6
  0
TEXT
  7
TextStyle03
  8
文字
  6
CONTINUOUS
 10
61.85
 20
112.975
  1
図面名　：外観姿図
 40
5.0
 72
     5
 11
111.85
 21
112.975
  0
TEXT
  7
TextStyle03
  8
文字
  6
CONTINUOUS
 10
61.85
 20
107.35
  1
　　　　　　
 40
5.0
 72
     5
 11
94.975
 21
107.35
  0
TEXT
  7
TextStyle03
  8
文字
  6
CONTINUOUS
 10
-32.075
 20
44.6
  1
ﾊﾞﾗﾝｽｽﾃｰ
 40
3.0
 72
     5
 11
-18.7625
 21
44.6
  0
TEXT
  7
TextStyle03
  8
文字
  6
CONTINUOUS
 10
-81.625
 20
9.45
  1
可動装置側
 40
3.0
 72
     5
 11
-65.125
 21
9.45
  0
TEXT
  7
TextStyle03
  8
文字
  6
CONTINUOUS
 10
-81.625
 20
105.1
  1
可動装置側
 40
3.0
 72
     5
 11
-65.125
 21
105.1
  0
TEXT
  7
TextStyle03
  8
文字
  6
CONTINUOUS
 10
16.725
 20
40.75
  1
は排水穴位置を示す
 40
3.0
 72
     5
 11
46.725
 21
40.75
  0
TEXT
  7
TextStyle03
  8
文字
  6
CONTINUOUS
 10
16.725
 20
32.9
  1
はケーシング位置を示す
 40
3.0
 72
     5
 11
53.475
 21
32.9
  0
TEXT
  7
TextStyle03
  8
文字
  6
CONTINUOUS
 10
16.725
 20
29.525
  1
４ヶ所中1ヶ所に設定
 40
3.0
 72
     5
 11
48.4125
 21
29.525
  0
TEXT
  7
TextStyle03
  8
文字
  6
CONTINUOUS
 10
11.125
 20
22.375
  1
アンカー数量　８ヶ所
 40
3.0
 72
     5
 11
44.5
 21
22.375
  0
TEXT
  7
TextStyle03
  8
文字
  6
CONTINUOUS
 10
11.1
 20
15.55
  1
アームユニット数　２ヶ所
 40
3.0
 72
     5
 11
51.225
 21
15.55
  0
TEXT
  7
TextStyle03
  8
文字
  6
CONTINUOUS
 10
-127.425
 20
14.975
  1
アンカーピッチ
 40
3.0
 50
90.0
 72
     5
 11
-127.425
 21
38.225
  0
TEXT
  7
TextStyle03
  8
文字
  6
CONTINUOUS
 10
-120.25
 20
110.7
  1
アンカーピッチ
 40
3.0
 72
     5
 11
-97.0
 21
110.7
  0
TEXT
  7
TextStyle03
  8
文字
  6
CONTINUOUS
 10
87.725
 20
75.175
  1
ガラス寸法
 40
3.0
 72
     5
 11
104.225
 21
75.175
  0
TEXT
  7
TextStyle03
  8
文字
  6
CONTINUOUS
 10
130.325
 20
29.35
  1
×４枚
 40
3.0
 72
     5
 11
140.075
 21
29.35
  0
INSERT
  2
*DIM_0002
  8
寸法
  6
CONTINUOUS
 10
0.0
 20
0.0
  0
INSERT
  2
*DIM_0003
  8
寸法
  6
CONTINUOUS
 10
0.0
 20
0.0
  0
INSERT
  2
*DIM_0004
  8
寸法
  6
CONTINUOUS
 10
0.0
 20
0.0
  0
INSERT
  2
*DIM_0005
  8
寸法
  6
CONTINUOUS
 10
0.0
 20
0.0
  0
INSERT
  2
*DIM_0006
  8
寸法
  6
CONTINUOUS
 10
0.0
 20
0.0
  0
INSERT
  2
*DIM_0007
  8
寸法
  6
CONTINUOUS
 10
0.0
 20
0.0
  0
INSERT
  2
*DIM_0008
  8
寸法
  6
CONTINUOUS
 10
0.0
 20
0.0
  0
INSERT
  2
*DIM_0009
  8
寸法
  6
CONTINUOUS
 10
0.0
 20
0.0
  0
INSERT
  2
*GRP_0010
  8
寸法
  6
CONTINUOUS
 10
0.0
 20
0.0
  0
INSERT
  2
*DIM_0012
  8
寸法
  6
CONTINUOUS
 10
0.0
 20
0.0
  0
INSERT
  2
*DIM_0027
  8
寸法
  6
CONTINUOUS
 10
0.0
 20
0.0
  0
INSERT
  2
*DIM_0028
  8
寸法
  6
CONTINUOUS
 10
0.0
 20
0.0
  0
INSERT
  2
*DIM_0031
  8
寸法
  6
CONTINUOUS
 10
0.0
 20
0.0
  0
INSERT
  2
*DIM_0033
  8
寸法
  6
CONTINUOUS
 10
0.0
 20
0.0
  0
INSERT
  2
*DIM_0034
  8
寸法
  6
CONTINUOUS
 10
0.0
 20
0.0
  0
INSERT
  2
*GRP_0011
  8
曲げ物
  6
DOT
 10
0.0
 20
0.0
  0
ENDSEC
  0
EOF
