  0
SECTION
  2
HEADER
  9
$EXTMIN
 10
-210.0
 20
-148.5
  9
$EXTMAX
 10
210.0
 20
148.5
  9
$PDMODE
 70
    32
  9
$PDSIZE
 40
1.5
  9
$LTSCALE
 40
10.0
  0
ENDSEC
  0
SECTION
  2
TABLES
  0
TABLE
  2
LTYPE
 70
    15
  0
LTYPE
  2
CONTINUOUS
 70
    64
  3
実線
 72
    65
 73
     0
 40
0.0
  0
LTYPE
  2
DASHED
 70
    64
  3
破線A
 72
    65
 73
     2
 40
0.6
 49
0.4
 49
-0.2
  0
LTYPE
  2
DASHEDX2
 70
    64
  3
破線B
 72
    65
 73
     2
 40
1.3
 49
0.9
 49
-0.4
  0
LTYPE
  2
DASHDOT
 70
    64
  3
１点鎖線A
 72
    65
 73
     4
 40
0.5375
 49
0.375
 49
-0.05
 49
0.0625
 49
-0.05
  0
LTYPE
  2
DASHDOTX2
 70
    64
  3
１点鎖線B
 72
    65
 73
     4
 40
1.075
 49
0.75
 49
-0.1
 49
0.125
 49
-0.1
  0
LTYPE
  2
DIVIDE2
 70
    64
  3
２点鎖線A
 72
    65
 73
     6
 40
0.5125
 49
0.3
 49
-0.0375
 49
0.05
 49
-0.0375
 49
0.05
 49
-0.0375
  0
LTYPE
  2
DIVIDE
 70
    64
  3
２点鎖線B
 72
    65
 73
     6
 40
1.05
 49
0.55
 49
-0.1
 49
0.1
 49
-0.1
 49
0.1
 49
-0.1
  0
LTYPE
  2
DOT
 70
    64
  3
点線A
 72
    65
 73
     2
 40
0.1125
 49
0.0625
 49
-0.05
  0
LTYPE
  2
DOTX2
 70
    64
  3
点線B
 72
    65
 73
     2
 40
0.275
 49
0.15
 49
-0.125
  0
LTYPE
  2
CONTINUOUS
 70
    64
  3
実線
 72
    65
 73
     0
 40
0.0
  0
LTYPE
  2
CONTINUOUS
 70
    64
  3
実線
 72
    65
 73
     0
 40
0.0
  0
LTYPE
  2
CONTINUOUS
 70
    64
  3
実線
 72
    65
 73
     0
 40
0.0
  0
LTYPE
  2
CONTINUOUS
 70
    64
  3
実線
 72
    65
 73
     0
 40
0.0
  0
LTYPE
  2
CONTINUOUS
 70
    64
  3
実線
 72
    65
 73
     0
 40
0.0
  0
LTYPE
  2
CONTINUOUS
 70
    64
  3
実線
 72
    65
 73
     0
 40
0.0
  0
ENDTAB
  0
TABLE
  2
LAYER
 70
    35
  0
LAYER
  2
通り芯
 70
     0
 62
    15
  6
CONTINUOUS
  0
LAYER
  2
補助線
 70
     0
 62
    16
  6
DOT
  0
LAYER
  2
躯体
 70
     0
 62
    31
  6
CONTINUOUS
  0
LAYER
  2
型材
 70
     0
 62
    32
  6
CONTINUOUS
  0
LAYER
  2
型材断面
 70
     0
 62
    47
  6
CONTINUOUS
  0
LAYER
  2
ガラス
 70
     0
 62
    48
  6
CONTINUOUS
  0
LAYER
  2
ゴム等
 70
     0
 62
    63
  6
CONTINUOUS
  0
LAYER
  2
ボルト／ビス
 70
     0
 62
    64
  6
CONTINUOUS
  0
LAYER
  2
文字
 70
     0
 62
    79
  6
CONTINUOUS
  0
LAYER
  2
寸法
 70
     0
 62
    80
  6
CONTINUOUS
  0
LAYER
  2
ﾊｯﾁﾝｸﾞ
 70
     0
 62
    95
  6
CONTINUOUS
  0
LAYER
  2
別途部材
 70
     0
 62
    96
  6
CONTINUOUS
  0
LAYER
  2
曲げ物
 70
     0
 62
   111
  6
CONTINUOUS
  0
LAYER
  2
鉄骨等
 70
     0
 62
   112
  6
CONTINUOUS
  0
LAYER
  2
St
 70
     0
 62
   127
  6
CONTINUOUS
  0
LAYER
  2
その他部品等
 70
     0
 62
   128
  6
CONTINUOUS
  0
LAYER
  2
ｶﾞｽｹｯﾄ
 70
     0
 62
   143
  6
CONTINUOUS
  0
LAYER
  2
ｽｹｯﾁ
 70
     0
 62
    14
  6
CONTINUOUS
  0
LAYER
  2
0
 70
     0
 62
    17
  6
CONTINUOUS
  0
LAYER
  2
1
 70
     0
 62
    30
  6
CONTINUOUS
  0
LAYER
  2
4
 70
     0
 62
    33
  6
CONTINUOUS
  0
LAYER
  2
ﾚｲﾔ3
 70
     0
 62
    46
  6
CONTINUOUS
  0
LAYER
  2
外形線
 70
     0
 62
    49
  6
CONTINUOUS
  0
LAYER
  2
部品
 70
     0
 62
    14
  6
CONTINUOUS
  0
LAYER
  2
サッシ芯
 70
     0
 62
    17
  6
DASHDOTX2
  0
LAYER
  2
寸法線
 70
     0
 62
    62
  6
CONTINUOUS
  0
LAYER
  2
姿図外形線
 70
     0
 62
    65
  6
CONTINUOUS
  0
LAYER
  2
姿補助線
 70
     0
 62
    30
  6
CONTINUOUS
  0
LAYER
  2
透視線
 70
     0
 62
    78
  6
DOT
  0
LAYER
  2
用紙
 70
     0
 62
    81
  6
CONTINUOUS
  0
LAYER
  2
実線図枠
 70
     0
 62
    94
  6
CONTINUOUS
  0
LAYER
  2
補助図枠
 70
     0
 62
    97
  6
CONTINUOUS
  0
LAYER
  2
建具記号
 70
     0
 62
   110
  6
CONTINUOUS
  0
LAYER
  2
補助文字
 70
     0
 62
   113
  6
CONTINUOUS
  0
LAYER
  2
01
 70
     0
 62
     1
  6
CONTINUOUS
  0
ENDTAB
  0
TABLE
  2
STYLE
 70
    10
  0
STYLE
  2
STANDARD
 70
     0
 40
1.0
 41
1.0
 42
1.0
 50
0.0
 71
     0
  3
TXT
  4
BIGFONT
  0
STYLE
  2
TATE
 70
     4
 40
1.0
 41
1.0
 42
1.0
 50
0.0
 71
     0
  3
TXT
  4
BIGFONT
  0
STYLE
  2
TextStyle03
 70
     0
 40
1.0
 41
1.0
 42
1.0
 50
0.0
 71
     0
  3
MONOTXT
  4
BIGFONT
  0
STYLE
  2
TextStyle04
 70
     0
 40
1.0
 41
1.0
 42
1.0
 50
0.0
 71
     0
  3
MONOTXT
  4
BIGFONT
  0
STYLE
  2
TextStyle05
 70
     0
 40
1.0
 41
1.0
 42
1.0
 50
0.0
 71
     0
  3
MONOTXT
  4
BIGFONT
  0
STYLE
  2
TextStyle06
 70
     0
 40
1.0
 41
1.0
 42
1.0
 50
0.0
 71
     0
  3
MONOTXT
  4
BIGFONT
  0
STYLE
  2
TextStyle07
 70
     0
 40
1.0
 41
1.0
 42
1.0
 50
0.0
 71
     0
  3
MONOTXT
  4
BIGFONT
  0
STYLE
  2
TextStyle08
 70
     0
 40
1.0
 41
1.0
 42
1.0
 50
0.0
 71
     0
  3
MONOTXT
  4
BIGFONT
  0
STYLE
  2
TextStyle09
 70
     0
 40
1.0
 41
1.0
 42
1.0
 50
0.0
 71
     0
  3
MONOTXT
  4
BIGFONT
  0
STYLE
  2
TextStyle10
 70
     0
 40
1.0
 41
1.0
 42
1.0
 50
0.0
 71
     0
  3
MONOTXT
  4
BIGFONT
  0
ENDTAB
  0
ENDSEC
  0
SECTION
  2
BLOCKS
  0
BLOCK
  2
*GRP_0001
 70
    65
 10
0.0
 20
0.0
  0
LINE
  8
型材断面
  6
CONTINUOUS
 10
195.0
 20
133.5
 11
195.0
 21
-133.5
  0
LINE
  8
型材断面
  6
CONTINUOUS
 10
195.0
 20
-133.5
 11
-185.0
 21
-133.5
  0
LINE
  8
型材断面
  6
CONTINUOUS
 10
-185.0
 20
-133.5
 11
-185.0
 21
133.5
  0
LINE
  8
型材断面
  6
CONTINUOUS
 10
195.0
 20
133.5
 11
-185.0
 21
133.5
  0
LINE
  8
型材断面
  6
CONTINUOUS
 10
145.0
 20
-133.5
 11
145.0
 21
-118.5
  0
LINE
  8
型材断面
  6
CONTINUOUS
 10
195.0
 20
-118.5
 11
145.0
 21
-118.5
  0
ENDBLK
  0
BLOCK
  2
*DIM_0002
 70
    65
 10
0.0
 20
0.0
  0
LINE
  8
寸法
  6
BYBLOCK
 62
     0
 10
-78.394858
 20
-59.633922
 11
-78.394858
 21
-43.294278
  0
LINE
  8
寸法
  6
BYBLOCK
 62
     0
 10
-68.144852
 20
-59.633922
 11
-68.144852
 21
-43.294278
  0
LINE
  8
寸法
  6
BYBLOCK
 62
     0
 10
-78.394858
 20
-43.294278
 11
-68.144852
 21
-43.294278
  0
POINT
  8
寸法
 62
     0
 10
-78.394858
 20
-43.294278
  0
POINT
  8
寸法
 62
     0
 10
-68.144852
 20
-43.294278
  0
TEXT
  7
TextStyle03
  8
寸法
  6
CONTINUOUS
 62
     0
 10
-75.7625
 20
-42.925
  1
205
 40
3.0
 72
     5
 11
-70.8875
 21
-42.925
  0
ENDBLK
  0
BLOCK
  2
*DIM_0003
 70
    65
 10
0.0
 20
0.0
  0
LINE
  8
寸法
  6
CONTINUOUS
 10
-38.936155
 20
-55.508925
 11
-37.991875
 21
-55.508925
  0
LINE
  8
寸法
  6
CONTINUOUS
 10
-67.144852
 20
-60.633922
 11
-37.991875
 21
-60.633922
  0
LINE
  8
寸法
  6
CONTINUOUS
 10
-37.991875
 20
-55.508925
 11
-37.991875
 21
-60.633922
  0
POINT
  8
寸法
 10
-37.991875
 20
-55.508925
  0
POINT
  8
寸法
 10
-37.991875
 20
-60.633922
  0
TEXT
  7
TextStyle03
  8
寸法
  6
CONTINUOUS
 10
-35.0
 20
-62.225
  1
102.5
 40
3.0
 50
90.0
 72
     5
 11
-35.0
 21
-53.975
  0
ENDBLK
  0
BLOCK
  2
*DIM_0004
 70
    65
 10
0.0
 20
0.0
  0
LINE
  8
寸法
  6
CONTINUOUS
 10
-27.769852
 20
-96.150345
 11
-27.769852
 21
-26.621455
  0
LINE
  8
寸法
  6
CONTINUOUS
 10
-33.269855
 20
-26.621455
 11
-27.769852
 21
-26.621455
  0
POINT
  8
寸法
 10
-33.269855
 20
-26.621455
  0
POINT
  8
寸法
 10
-27.769852
 20
-26.621455
  0
TEXT
  7
TextStyle03
  8
寸法
  6
CONTINUOUS
 10
-32.9625
 20
-26.275
  1
110
 40
3.0
 72
     5
 11
-28.0875
 21
-26.275
  0
ENDBLK
  0
BLOCK
  2
*DIM_0005
 70
    65
 10
0.0
 20
0.0
  0
LINE
  8
寸法
  6
CONTINUOUS
 10
-22.769852
 20
-101.150345
 11
-11.611262
 21
-101.150345
  0
LINE
  8
寸法
  6
CONTINUOUS
 10
-68.269855
 20
-55.508925
 11
-11.611262
 21
-55.508925
  0
LINE
  8
寸法
  6
CONTINUOUS
 10
-11.611262
 20
-101.150345
 11
-11.611262
 21
-55.508925
  0
POINT
  8
寸法
 10
-11.611262
 20
-55.508925
  0
TEXT
  7
TextStyle03
  8
寸法
  6
CONTINUOUS
 10
-12.0
 20
-82.475
  1
562.8
 40
3.0
 50
90.0
 72
     5
 11
-12.0
 21
-74.225
  0
ENDBLK
  0
BLOCK
  2
*DIM_0006
 70
    65
 10
0.0
 20
0.0
  0
LINE
  8
寸法
  6
CONTINUOUS
 10
-118.769858
 20
-96.150345
 11
-118.769858
 21
-26.621455
  0
LINE
  8
寸法
  6
CONTINUOUS
 10
-113.269855
 20
-26.621455
 11
-118.769858
 21
-26.621455
  0
POINT
  8
寸法
 10
-113.269855
 20
-26.621455
  0
POINT
  8
寸法
 10
-118.769858
 20
-26.621455
  0
TEXT
  7
TextStyle03
  8
寸法
  6
CONTINUOUS
 10
-118.4625
 20
-26.275
  1
110
 40
3.0
 72
     5
 11
-113.5875
 21
-26.275
  0
ENDBLK
  0
BLOCK
  2
*DIM_0007
 70
    65
 10
0.0
 20
0.0
  0
LINE
  8
寸法
  6
CONTINUOUS
 10
-113.269855
 20
-26.621455
 11
-33.269855
 21
-26.621455
  0
POINT
  8
寸法
 10
-113.269855
 20
-26.621455
  0
POINT
  8
寸法
 10
-33.269855
 20
-26.621455
  0
TEXT
  7
TextStyle03
  8
寸法
  6
CONTINUOUS
 10
-84.99375
 20
-26.275
  1
呼称寸法　1600
 40
3.0
 72
     5
 11
-61.55625
 21
-26.275
  0
ENDBLK
  0
BLOCK
  2
*DIM_0008
 70
    65
 10
0.0
 20
0.0
  0
LINE
  8
寸法
  6
BYBLOCK
 62
     0
 10
-32.842658
 20
89.74223
 11
-12.29323
 21
89.74223
  0
LINE
  8
寸法
  6
BYBLOCK
 62
     0
 10
-24.818782
 20
84.19223
 11
-12.29323
 21
84.19223
  0
LINE
  8
寸法
  6
BYBLOCK
 62
     0
 10
-12.29323
 20
89.74223
 11
-12.29323
 21
84.19223
  0
POINT
  8
寸法
 62
     0
 10
-12.29323
 20
89.74223
  0
POINT
  8
寸法
 62
     0
 10
-12.29323
 20
84.19223
  0
TEXT
  7
TextStyle03
  8
寸法
  6
CONTINUOUS
 62
     0
 10
-12.675
 20
84.5375
  1
111
 40
3.0
 50
90.0
 72
     5
 11
-12.675
 21
89.4125
  0
ENDBLK
  0
BLOCK
  2
*GRP_0009
 70
    65
 10
0.0
 20
0.0
  0
POLYLINE
  8
寸法
  6
BYBLOCK
 62
     0
 66
     1
  0
VERTEX
  8
寸法
 10
-36.509195
 20
36.026197
  0
VERTEX
  8
寸法
 10
-30.092692
 20
29.609695
  0
VERTEX
  8
寸法
 10
-24.185565
 20
29.609695
  0
SEQEND
  0
ENDBLK
  0
BLOCK
  2
*DIM_0010
 70
    65
 10
0.0
 20
0.0
  0
LINE
  8
寸法
  6
BYBLOCK
 62
     0
 10
-32.842658
 20
9.742225
 11
-12.29323
 21
9.742225
  0
LINE
  8
寸法
  6
BYBLOCK
 62
     0
 10
-24.818782
 20
15.292225
 11
-12.29323
 21
15.292225
  0
LINE
  8
寸法
  6
BYBLOCK
 62
     0
 10
-12.29323
 20
9.742225
 11
-12.29323
 21
15.292225
  0
POINT
  8
寸法
 62
     0
 10
-12.29323
 20
9.742225
  0
POINT
  8
寸法
 62
     0
 10
-12.29323
 20
15.292225
  0
TEXT
  7
TextStyle03
  8
寸法
  6
CONTINUOUS
 62
     0
 10
-12.675
 20
10.0875
  1
111
 40
3.0
 50
90.0
 72
     5
 11
-12.675
 21
14.9625
  0
ENDBLK
  0
BLOCK
  2
*GRP_0011
 70
    65
 10
0.0
 20
0.0
  0
POLYLINE
  8
寸法
  6
BYBLOCK
 62
     0
 66
     1
  0
VERTEX
  8
寸法
 10
-110.030515
 20
72.368258
  0
VERTEX
  8
寸法
 10
-116.447018
 20
78.78476
  0
VERTEX
  8
寸法
 10
-122.354145
 20
78.78476
  0
SEQEND
  0
ENDBLK
  0
BLOCK
  2
*DIM_0012
 70
    65
 10
0.0
 20
0.0
  0
LINE
  8
寸法
  6
BYBLOCK
 62
     0
 10
-103.269855
 20
112.160017
 11
-103.269855
 21
119.935527
  0
LINE
  8
寸法
  6
BYBLOCK
 62
     0
 10
-73.269855
 20
112.160017
 11
-73.269855
 21
119.935527
  0
LINE
  8
寸法
  6
BYBLOCK
 62
     0
 10
-103.269855
 20
119.935527
 11
-73.269855
 21
119.935527
  0
POINT
  8
寸法
 62
     0
 10
-103.269855
 20
119.935527
  0
POINT
  8
寸法
 62
     0
 10
-73.269855
 20
119.935527
  0
TEXT
  7
TextStyle03
  8
寸法
  6
CONTINUOUS
 62
     0
 10
-90.7125
 20
120.325
  1
600
 40
3.0
 72
     5
 11
-85.8375
 21
120.325
  0
ENDBLK
  0
BLOCK
  2
*DIM_0013
 70
    65
 10
0.0
 20
0.0
  0
LINE
  8
寸法
  6
BYBLOCK
 62
     0
 10
-43.269855
 20
112.160017
 11
-43.269855
 21
119.935527
  0
LINE
  8
寸法
  6
BYBLOCK
 62
     0
 10
-73.269855
 20
119.935527
 11
-43.269855
 21
119.935527
  0
POINT
  8
寸法
 62
     0
 10
-43.269855
 20
119.935527
  0
TEXT
  7
TextStyle03
  8
寸法
  6
CONTINUOUS
 62
     0
 10
-60.7125
 20
120.325
  1
600
 40
3.0
 72
     5
 11
-55.8375
 21
120.325
  0
ENDBLK
  0
BLOCK
  2
*DIM_0014
 70
    65
 10
0.0
 20
0.0
  0
LINE
  8
寸法
  6
BYBLOCK
 62
     0
 10
-132.556945
 20
67.242228
 11
-143.380245
 21
67.242228
  0
LINE
  8
寸法
  6
BYBLOCK
 62
     0
 10
-132.556945
 20
32.242228
 11
-143.380245
 21
32.242228
  0
LINE
  8
寸法
  6
BYBLOCK
 62
     0
 10
-143.380245
 20
67.242228
 11
-143.380245
 21
32.242228
  0
POINT
  8
寸法
 62
     0
 10
-143.380245
 20
67.242228
  0
POINT
  8
寸法
 62
     0
 10
-143.380245
 20
32.242228
  0
TEXT
  7
TextStyle03
  8
寸法
  6
CONTINUOUS
 62
     0
 10
-143.725
 20
47.3125
  1
700
 40
3.0
 50
90.0
 72
     5
 11
-143.725
 21
52.1875
  0
ENDBLK
  0
BLOCK
  2
*GRP_0015
 70
    65
 10
0.0
 20
0.0
  0
LINE
  8
型材断面
  6
DOT
 10
96.766185
 20
-40.633922
 11
96.836897
 21
-40.704635
  0
LINE
  8
型材断面
  6
DOT
 10
96.766185
 20
-40.633922
 11
101.891185
 21
-40.633922
  0
LINE
  8
型材断面
  6
DOT
 10
96.836897
 20
-40.704635
 11
101.891185
 21
-40.704635
  0
LINE
  8
型材断面
  6
DOT
 10
96.766185
 20
-40.633922
 11
101.891187
 21
-35.508925
  0
LINE
  8
型材断面
  6
DOT
 10
107.01619
 20
-40.633922
 11
106.945478
 21
-40.704635
  0
LINE
  8
型材断面
  6
DOT
 10
107.01619
 20
-40.633922
 11
101.89119
 21
-40.633922
  0
LINE
  8
型材断面
  6
DOT
 10
106.945478
 20
-40.704635
 11
101.89119
 21
-40.704635
  0
LINE
  8
型材断面
  6
DOT
 10
107.01619
 20
-40.633922
 11
101.891187
 21
-35.508925
  0
LINE
  8
型材断面
  6
DOT
 10
101.891187
 20
-85.500345
 11
146.54119
 21
-85.500345
  0
LINE
  8
型材断面
  6
DOT
 10
101.891187
 20
-84.800345
 11
147.39119
 21
-84.800345
  0
LINE
  8
型材断面
  6
DOT
 10
101.891187
 20
-81.850345
 11
147.39119
 21
-81.850345
  0
LINE
  8
型材断面
  6
DOT
 10
101.891187
 20
-81.150345
 11
147.39119
 21
-81.150345
  0
LINE
  8
型材断面
  6
DOT
 62
    47
 10
147.39119
 20
-81.850345
 11
147.39119
 21
-84.800345
  0
LINE
  8
型材断面
  6
DOT
 62
    47
 10
146.54119
 20
-84.800345
 11
146.54119
 21
-85.500345
  0
LINE
  8
型材断面
  6
DOT
 62
    47
 10
146.295235
 20
-80.054395
 11
147.391187
 21
-81.150345
  0
LINE
  8
型材断面
  6
DOT
 62
    47
 10
147.391187
 20
-81.850345
 11
147.391187
 21
-81.150345
  0
LINE
  8
型材断面
  6
DOT
 10
101.891187
 20
-80.054395
 11
146.295238
 21
-80.054395
  0
LINE
  8
型材断面
  6
DOT
 10
142.126025
 20
-79.70084
 11
103.12982
 21
-40.704635
  0
LINE
  8
型材断面
  6
DOT
 10
142.267447
 20
-79.70084
 11
103.271242
 21
-40.704635
  0
LINE
  8
型材断面
  6
DOT
 10
101.891187
 20
-35.650345
 11
146.295238
 21
-80.054395
  0
LINE
  8
型材断面
  6
DOT
 10
101.891187
 20
-85.500345
 11
57.241185
 21
-85.500345
  0
LINE
  8
型材断面
  6
DOT
 10
101.891187
 20
-84.800345
 11
56.391185
 21
-84.800345
  0
LINE
  8
型材断面
  6
DOT
 10
101.891187
 20
-81.850345
 11
56.391185
 21
-81.850345
  0
LINE
  8
型材断面
  6
DOT
 10
101.891187
 20
-81.150345
 11
56.391185
 21
-81.150345
  0
LINE
  8
型材断面
  6
DOT
 62
    47
 10
56.391185
 20
-81.850345
 11
56.391185
 21
-84.800345
  0
LINE
  8
型材断面
  6
DOT
 62
    47
 10
57.241185
 20
-84.800345
 11
57.241185
 21
-85.500345
  0
LINE
  8
型材断面
  6
DOT
 62
    47
 10
57.48714
 20
-80.054395
 11
56.391187
 21
-81.150345
  0
LINE
  8
型材断面
  6
DOT
 62
    47
 10
56.391187
 20
-81.850345
 11
56.391187
 21
-81.150345
  0
LINE
  8
型材断面
  6
DOT
 10
101.891187
 20
-80.054395
 11
57.487138
 21
-80.054395
  0
LINE
  8
型材断面
  6
DOT
 10
61.65635
 20
-79.70084
 11
100.652555
 21
-40.704635
  0
LINE
  8
型材断面
  6
DOT
 10
61.514927
 20
-79.70084
 11
100.511132
 21
-40.704635
  0
LINE
  8
型材断面
  6
DOT
 10
101.891187
 20
-35.650345
 11
57.487138
 21
-80.054395
  0
LINE
  8
型材断面
  6
DOT
 10
142.126025
 20
-79.70084
 11
145.941683
 21
-79.70084
  0
LINE
  8
型材断面
  6
DOT
 10
57.840692
 20
-79.70084
 11
61.65635
 21
-79.70084
  0
LINE
  8
ガラス
  6
DOT
 10
103.778893
 20
-62.875968
 11
99.906257
 21
-66.748603
  0
LINE
  8
ガラス
  6
DOT
 10
102.89857
 20
-64.474325
 11
101.504615
 21
-65.86828
  0
LINE
  8
ガラス
  6
DOT
 10
102.180535
 20
-63.75629
 11
100.78658
 21
-65.150245
  0
ENDBLK
  0
BLOCK
  2
*GRP_0016
 70
    65
 10
0.0
 20
0.0
  0
LINE
  8
補助線
  6
BYBLOCK
 62
    64
 10
139.804283
 20
-107.965925
 11
139.977973
 21
-108.14573
  0
LINE
  8
補助線
  6
BYBLOCK
 62
    64
 10
139.98103
 20
-107.968983
 11
139.801225
 21
-108.142673
  0
LINE
  8
補助線
  6
BYBLOCK
 62
    64
 10
128.409787
 20
-96.17078
 11
128.23609
 21
-95.990973
  0
LINE
  8
補助線
  6
BYBLOCK
 62
    64
 10
128.412838
 20
-95.994027
 11
128.233035
 21
-96.167725
  0
LINE
  8
補助線
  6
BYBLOCK
 62
    64
 10
116.841535
 20
-84.195882
 11
116.667837
 21
-84.016082
  0
LINE
  8
補助線
  6
BYBLOCK
 62
    64
 10
116.844587
 20
-84.019135
 11
116.664785
 21
-84.192832
  0
LINE
  8
型材断面
  6
CONTINUOUS
 10
141.137543
 20
-107.546953
 11
141.119218
 21
-108.607452
  0
LINE
  8
型材断面
  6
CONTINUOUS
 10
141.119218
 20
-108.607452
 11
140.400002
 21
-109.302243
  0
LINE
  8
型材断面
  6
CONTINUOUS
 10
140.400002
 20
-109.302243
 11
139.339502
 21
-109.283918
  0
LINE
  8
型材断面
  6
CONTINUOUS
 10
117.306308
 20
-82.877888
 11
116.245808
 21
-82.859573
  0
LINE
  8
型材断面
  6
CONTINUOUS
 10
116.245808
 20
-82.859573
 11
115.52659
 21
-83.554363
  0
LINE
  8
型材断面
  6
CONTINUOUS
 10
115.52659
 20
-83.554363
 11
115.508275
 21
-84.614862
  0
LINE
  8
型材断面
  6
CONTINUOUS
 10
141.137543
 20
-107.546953
 11
117.306428
 21
-82.87789
  0
LINE
  8
型材断面
  6
CONTINUOUS
 10
139.339502
 20
-109.283918
 11
115.508278
 21
-84.614753
  0
LINE
  8
ボルト／ビス
  6
CONTINUOUS
 62
    64
 10
140.223317
 20
-107.734918
 11
140.335138
 21
-108.18306
  0
LINE
  8
ボルト／ビス
  6
CONTINUOUS
 62
    64
 10
140.223317
 20
-107.734918
 11
139.77931
 21
-107.60769
  0
LINE
  8
ボルト／ビス
  6
CONTINUOUS
 62
    64
 10
139.558937
 20
-108.376738
 11
140.002945
 21
-108.503965
  0
LINE
  8
ボルト／ビス
  6
CONTINUOUS
 62
    64
 10
139.558937
 20
-108.376738
 11
139.447118
 21
-107.928595
  0
CIRCLE
  8
ボルト／ビス
  6
CONTINUOUS
 62
    64
 10
139.891128
 20
-108.055828
 40
0.4
  0
LINE
  8
ボルト／ビス
  6
CONTINUOUS
 62
    64
 10
139.77931
 20
-107.60769
 11
139.447118
 21
-107.928595
  0
LINE
  8
ボルト／ビス
  6
CONTINUOUS
 62
    64
 10
140.335138
 20
-108.18306
 11
140.002945
 21
-108.503965
  0
LINE
  8
ボルト／ビス
  6
CONTINUOUS
 62
    64
 10
128.65513
 20
-95.75997
 11
128.211118
 21
-95.632735
  0
LINE
  8
ボルト／ビス
  6
CONTINUOUS
 62
    64
 10
128.65513
 20
-95.75997
 11
128.76695
 21
-96.208108
  0
LINE
  8
ボルト／ビス
  6
CONTINUOUS
 62
    64
 10
127.990745
 20
-96.401782
 11
127.878927
 21
-95.953643
  0
LINE
  8
ボルト／ビス
  6
CONTINUOUS
 62
    64
 10
127.990745
 20
-96.401782
 11
128.434755
 21
-96.529015
  0
CIRCLE
  8
ボルト／ビス
  6
CONTINUOUS
 62
    64
 10
128.322935
 20
-96.080875
 40
0.4
  0
LINE
  8
ボルト／ビス
  6
CONTINUOUS
 62
    64
 10
128.76695
 20
-96.208108
 11
128.434755
 21
-96.529015
  0
LINE
  8
ボルト／ビス
  6
CONTINUOUS
 62
    64
 10
128.211118
 20
-95.632735
 11
127.878927
 21
-95.953643
  0
LINE
  8
ボルト／ビス
  6
CONTINUOUS
 62
    64
 10
117.086878
 20
-83.785073
 11
116.642865
 21
-83.657842
  0
LINE
  8
ボルト／ビス
  6
CONTINUOUS
 62
    64
 10
117.086878
 20
-83.785073
 11
117.198695
 21
-84.233212
  0
LINE
  8
ボルト／ビス
  6
CONTINUOUS
 62
    64
 10
116.422495
 20
-84.426893
 11
116.310678
 21
-83.97875
  0
LINE
  8
ボルト／ビス
  6
CONTINUOUS
 62
    64
 10
116.422495
 20
-84.426893
 11
116.86651
 21
-84.554122
  0
CIRCLE
  8
ボルト／ビス
  6
CONTINUOUS
 62
    64
 10
116.754688
 20
-84.105983
 40
0.4
  0
LINE
  8
ボルト／ビス
  6
CONTINUOUS
 62
    64
 10
117.198695
 20
-84.233212
 11
116.86651
 21
-84.554122
  0
LINE
  8
ボルト／ビス
  6
CONTINUOUS
 62
    64
 10
116.642865
 20
-83.657842
 11
116.310678
 21
-83.97875
  0
ENDBLK
  0
BLOCK
  2
*GRP_0017
 70
    65
 10
0.0
 20
0.0
  0
LINE
  8
補助線
  6
BYBLOCK
 62
    64
 10
116.841592
 20
-107.965925
 11
116.667902
 21
-108.14573
  0
LINE
  8
補助線
  6
BYBLOCK
 62
    64
 10
116.664845
 20
-107.968983
 11
116.84465
 21
-108.142673
  0
LINE
  8
補助線
  6
BYBLOCK
 62
    64
 10
128.236088
 20
-96.17078
 11
128.409785
 21
-95.990973
  0
LINE
  8
補助線
  6
BYBLOCK
 62
    64
 10
128.233037
 20
-95.994027
 11
128.41284
 21
-96.167725
  0
LINE
  8
補助線
  6
BYBLOCK
 62
    64
 10
139.80434
 20
-84.195882
 11
139.978038
 21
-84.016082
  0
LINE
  8
補助線
  6
BYBLOCK
 62
    64
 10
139.801288
 20
-84.019135
 11
139.98109
 21
-84.192832
  0
LINE
  8
型材断面
  6
CONTINUOUS
 10
115.508332
 20
-107.546953
 11
115.526657
 21
-108.607452
  0
LINE
  8
型材断面
  6
CONTINUOUS
 10
115.526657
 20
-108.607452
 11
116.245873
 21
-109.302243
  0
LINE
  8
型材断面
  6
CONTINUOUS
 10
116.245873
 20
-109.302243
 11
117.306372
 21
-109.283918
  0
LINE
  8
型材断面
  6
CONTINUOUS
 10
139.339567
 20
-82.877888
 11
140.400067
 21
-82.859573
  0
LINE
  8
型材断面
  6
CONTINUOUS
 10
140.400067
 20
-82.859573
 11
141.119285
 21
-83.554363
  0
LINE
  8
型材断面
  6
CONTINUOUS
 10
141.119285
 20
-83.554363
 11
141.1376
 21
-84.614862
  0
LINE
  8
型材断面
  6
CONTINUOUS
 10
115.508332
 20
-107.546953
 11
139.339447
 21
-82.87789
  0
LINE
  8
型材断面
  6
CONTINUOUS
 10
117.306372
 20
-109.283918
 11
141.137598
 21
-84.614753
  0
LINE
  8
ボルト／ビス
  6
CONTINUOUS
 62
    64
 10
116.422558
 20
-107.734918
 11
116.310737
 21
-108.18306
  0
LINE
  8
ボルト／ビス
  6
CONTINUOUS
 62
    64
 10
116.422558
 20
-107.734918
 11
116.866565
 21
-107.60769
  0
LINE
  8
ボルト／ビス
  6
CONTINUOUS
 62
    64
 10
117.086938
 20
-108.376738
 11
116.64293
 21
-108.503965
  0
LINE
  8
ボルト／ビス
  6
CONTINUOUS
 62
    64
 10
117.086938
 20
-108.376738
 11
117.198757
 21
-107.928595
  0
CIRCLE
  8
ボルト／ビス
  6
CONTINUOUS
 62
    64
 10
116.754747
 20
-108.055828
 40
0.4
  0
LINE
  8
ボルト／ビス
  6
CONTINUOUS
 62
    64
 10
116.866565
 20
-107.60769
 11
117.198757
 21
-107.928595
  0
LINE
  8
ボルト／ビス
  6
CONTINUOUS
 62
    64
 10
116.310737
 20
-108.18306
 11
116.64293
 21
-108.503965
  0
LINE
  8
ボルト／ビス
  6
CONTINUOUS
 62
    64
 10
127.990745
 20
-95.75997
 11
128.434757
 21
-95.632735
  0
LINE
  8
ボルト／ビス
  6
CONTINUOUS
 62
    64
 10
127.990745
 20
-95.75997
 11
127.878925
 21
-96.208108
  0
LINE
  8
ボルト／ビス
  6
CONTINUOUS
 62
    64
 10
128.65513
 20
-96.401782
 11
128.766948
 21
-95.953643
  0
LINE
  8
ボルト／ビス
  6
CONTINUOUS
 62
    64
 10
128.65513
 20
-96.401782
 11
128.21112
 21
-96.529015
  0
CIRCLE
  8
ボルト／ビス
  6
CONTINUOUS
 62
    64
 10
128.32294
 20
-96.080875
 40
0.4
  0
LINE
  8
ボルト／ビス
  6
CONTINUOUS
 62
    64
 10
127.878925
 20
-96.208108
 11
128.21112
 21
-96.529015
  0
LINE
  8
ボルト／ビス
  6
CONTINUOUS
 62
    64
 10
128.434757
 20
-95.632735
 11
128.766948
 21
-95.953643
  0
LINE
  8
ボルト／ビス
  6
CONTINUOUS
 62
    64
 10
139.558998
 20
-83.785073
 11
140.00301
 21
-83.657842
  0
LINE
  8
ボルト／ビス
  6
CONTINUOUS
 62
    64
 10
139.558998
 20
-83.785073
 11
139.44718
 21
-84.233212
  0
LINE
  8
ボルト／ビス
  6
CONTINUOUS
 62
    64
 10
140.22338
 20
-84.426893
 11
140.335197
 21
-83.97875
  0
LINE
  8
ボルト／ビス
  6
CONTINUOUS
 62
    64
 10
140.22338
 20
-84.426893
 11
139.779365
 21
-84.554122
  0
CIRCLE
  8
ボルト／ビス
  6
CONTINUOUS
 62
    64
 10
139.891187
 20
-84.105983
 40
0.4
  0
LINE
  8
ボルト／ビス
  6
CONTINUOUS
 62
    64
 10
139.44718
 20
-84.233212
 11
139.779365
 21
-84.554122
  0
LINE
  8
ボルト／ビス
  6
CONTINUOUS
 62
    64
 10
140.00301
 20
-83.657842
 11
140.335197
 21
-83.97875
  0
ENDBLK
  0
BLOCK
  2
*GRP_0018
 70
    65
 10
0.0
 20
0.0
  0
LINE
  8
補助線
  6
BYBLOCK
 62
    64
 10
63.948092
 20
-107.965925
 11
63.774402
 21
-108.14573
  0
LINE
  8
補助線
  6
BYBLOCK
 62
    64
 10
63.771345
 20
-107.968983
 11
63.95115
 21
-108.142673
  0
LINE
  8
補助線
  6
BYBLOCK
 62
    64
 10
75.342588
 20
-96.17078
 11
75.516285
 21
-95.990973
  0
LINE
  8
補助線
  6
BYBLOCK
 62
    64
 10
75.339538
 20
-95.994027
 11
75.51934
 21
-96.167725
  0
LINE
  8
補助線
  6
BYBLOCK
 62
    64
 10
86.91084
 20
-84.195882
 11
87.084538
 21
-84.016082
  0
LINE
  8
補助線
  6
BYBLOCK
 62
    64
 10
86.907788
 20
-84.019135
 11
87.08759
 21
-84.192832
  0
LINE
  8
型材断面
  6
CONTINUOUS
 10
62.614833
 20
-107.546953
 11
62.633158
 21
-108.607452
  0
LINE
  8
型材断面
  6
CONTINUOUS
 10
62.633158
 20
-108.607452
 11
63.352372
 21
-109.302243
  0
LINE
  8
型材断面
  6
CONTINUOUS
 10
63.352372
 20
-109.302243
 11
64.412873
 21
-109.283918
  0
LINE
  8
型材断面
  6
CONTINUOUS
 10
86.446068
 20
-82.877888
 11
87.506567
 21
-82.859573
  0
LINE
  8
型材断面
  6
CONTINUOUS
 10
87.506567
 20
-82.859573
 11
88.225785
 21
-83.554363
  0
LINE
  8
型材断面
  6
CONTINUOUS
 10
88.225785
 20
-83.554363
 11
88.2441
 21
-84.614862
  0
LINE
  8
型材断面
  6
CONTINUOUS
 10
62.614833
 20
-107.546953
 11
86.445947
 21
-82.87789
  0
LINE
  8
型材断面
  6
CONTINUOUS
 10
64.412873
 20
-109.283918
 11
88.244097
 21
-84.614753
  0
LINE
  8
ボルト／ビス
  6
CONTINUOUS
 62
    64
 10
63.529058
 20
-107.734918
 11
63.417238
 21
-108.18306
  0
LINE
  8
ボルト／ビス
  6
CONTINUOUS
 62
    64
 10
63.529058
 20
-107.734918
 11
63.973065
 21
-107.60769
  0
LINE
  8
ボルト／ビス
  6
CONTINUOUS
 62
    64
 10
64.193438
 20
-108.376738
 11
63.74943
 21
-108.503965
  0
LINE
  8
ボルト／ビス
  6
CONTINUOUS
 62
    64
 10
64.193438
 20
-108.376738
 11
64.305257
 21
-107.928595
  0
CIRCLE
  8
ボルト／ビス
  6
CONTINUOUS
 62
    64
 10
63.861247
 20
-108.055828
 40
0.4
  0
LINE
  8
ボルト／ビス
  6
CONTINUOUS
 62
    64
 10
63.973065
 20
-107.60769
 11
64.305257
 21
-107.928595
  0
LINE
  8
ボルト／ビス
  6
CONTINUOUS
 62
    64
 10
63.417238
 20
-108.18306
 11
63.74943
 21
-108.503965
  0
LINE
  8
ボルト／ビス
  6
CONTINUOUS
 62
    64
 10
75.097245
 20
-95.75997
 11
75.541258
 21
-95.632735
  0
LINE
  8
ボルト／ビス
  6
CONTINUOUS
 62
    64
 10
75.097245
 20
-95.75997
 11
74.985425
 21
-96.208108
  0
LINE
  8
ボルト／ビス
  6
CONTINUOUS
 62
    64
 10
75.76163
 20
-96.401782
 11
75.873447
 21
-95.953643
  0
LINE
  8
ボルト／ビス
  6
CONTINUOUS
 62
    64
 10
75.76163
 20
-96.401782
 11
75.31762
 21
-96.529015
  0
CIRCLE
  8
ボルト／ビス
  6
CONTINUOUS
 62
    64
 10
75.42944
 20
-96.080875
 40
0.4
  0
LINE
  8
ボルト／ビス
  6
CONTINUOUS
 62
    64
 10
74.985425
 20
-96.208108
 11
75.31762
 21
-96.529015
  0
LINE
  8
ボルト／ビス
  6
CONTINUOUS
 62
    64
 10
75.541258
 20
-95.632735
 11
75.873447
 21
-95.953643
  0
LINE
  8
ボルト／ビス
  6
CONTINUOUS
 62
    64
 10
86.665497
 20
-83.785073
 11
87.10951
 21
-83.657842
  0
LINE
  8
ボルト／ビス
  6
CONTINUOUS
 62
    64
 10
86.665497
 20
-83.785073
 11
86.55368
 21
-84.233212
  0
LINE
  8
ボルト／ビス
  6
CONTINUOUS
 62
    64
 10
87.32988
 20
-84.426893
 11
87.441698
 21
-83.97875
  0
LINE
  8
ボルト／ビス
  6
CONTINUOUS
 62
    64
 10
87.32988
 20
-84.426893
 11
86.885865
 21
-84.554122
  0
CIRCLE
  8
ボルト／ビス
  6
CONTINUOUS
 62
    64
 10
86.997688
 20
-84.105983
 40
0.4
  0
LINE
  8
ボルト／ビス
  6
CONTINUOUS
 62
    64
 10
86.55368
 20
-84.233212
 11
86.885865
 21
-84.554122
  0
LINE
  8
ボルト／ビス
  6
CONTINUOUS
 62
    64
 10
87.10951
 20
-83.657842
 11
87.441698
 21
-83.97875
  0
ENDBLK
  0
BLOCK
  2
*GRP_0019
 70
    65
 10
0.0
 20
0.0
  0
LINE
  8
補助線
  6
BYBLOCK
 62
    64
 10
86.910782
 20
-107.965925
 11
87.084473
 21
-108.14573
  0
LINE
  8
補助線
  6
BYBLOCK
 62
    64
 10
87.08753
 20
-107.968983
 11
86.907725
 21
-108.142673
  0
LINE
  8
補助線
  6
BYBLOCK
 62
    64
 10
75.516288
 20
-96.17078
 11
75.34259
 21
-95.990973
  0
LINE
  8
補助線
  6
BYBLOCK
 62
    64
 10
75.519338
 20
-95.994027
 11
75.339535
 21
-96.167725
  0
LINE
  8
補助線
  6
BYBLOCK
 62
    64
 10
63.948035
 20
-84.195882
 11
63.774338
 21
-84.016082
  0
LINE
  8
補助線
  6
BYBLOCK
 62
    64
 10
63.951087
 20
-84.019135
 11
63.771285
 21
-84.192832
  0
LINE
  8
型材断面
  6
CONTINUOUS
 10
88.244043
 20
-107.546953
 11
88.225718
 21
-108.607452
  0
LINE
  8
型材断面
  6
CONTINUOUS
 10
88.225718
 20
-108.607452
 11
87.506502
 21
-109.302243
  0
LINE
  8
型材断面
  6
CONTINUOUS
 10
87.506502
 20
-109.302243
 11
86.446003
 21
-109.283918
  0
LINE
  8
型材断面
  6
CONTINUOUS
 10
64.412808
 20
-82.877888
 11
63.352307
 21
-82.859573
  0
LINE
  8
型材断面
  6
CONTINUOUS
 10
63.352307
 20
-82.859573
 11
62.63309
 21
-83.554363
  0
LINE
  8
型材断面
  6
CONTINUOUS
 10
62.63309
 20
-83.554363
 11
62.614775
 21
-84.614862
  0
LINE
  8
型材断面
  6
CONTINUOUS
 10
88.244043
 20
-107.546953
 11
64.412927
 21
-82.87789
  0
LINE
  8
型材断面
  6
CONTINUOUS
 10
86.446003
 20
-109.283918
 11
62.614777
 21
-84.614753
  0
LINE
  8
ボルト／ビス
  6
CONTINUOUS
 62
    64
 10
87.329817
 20
-107.734918
 11
87.441638
 21
-108.18306
  0
LINE
  8
ボルト／ビス
  6
CONTINUOUS
 62
    64
 10
87.329817
 20
-107.734918
 11
86.88581
 21
-107.60769
  0
LINE
  8
ボルト／ビス
  6
CONTINUOUS
 62
    64
 10
86.665438
 20
-108.376738
 11
87.109445
 21
-108.503965
  0
LINE
  8
ボルト／ビス
  6
CONTINUOUS
 62
    64
 10
86.665438
 20
-108.376738
 11
86.553617
 21
-107.928595
  0
CIRCLE
  8
ボルト／ビス
  6
CONTINUOUS
 62
    64
 10
86.997628
 20
-108.055828
 40
0.4
  0
LINE
  8
ボルト／ビス
  6
CONTINUOUS
 62
    64
 10
86.88581
 20
-107.60769
 11
86.553617
 21
-107.928595
  0
LINE
  8
ボルト／ビス
  6
CONTINUOUS
 62
    64
 10
87.441638
 20
-108.18306
 11
87.109445
 21
-108.503965
  0
LINE
  8
ボルト／ビス
  6
CONTINUOUS
 62
    64
 10
75.76163
 20
-95.75997
 11
75.317618
 21
-95.632735
  0
LINE
  8
ボルト／ビス
  6
CONTINUOUS
 62
    64
 10
75.76163
 20
-95.75997
 11
75.87345
 21
-96.208108
  0
LINE
  8
ボルト／ビス
  6
CONTINUOUS
 62
    64
 10
75.097245
 20
-96.401782
 11
74.985427
 21
-95.953643
  0
LINE
  8
ボルト／ビス
  6
CONTINUOUS
 62
    64
 10
75.097245
 20
-96.401782
 11
75.541255
 21
-96.529015
  0
CIRCLE
  8
ボルト／ビス
  6
CONTINUOUS
 62
    64
 10
75.429435
 20
-96.080875
 40
0.4
  0
LINE
  8
ボルト／ビス
  6
CONTINUOUS
 62
    64
 10
75.87345
 20
-96.208108
 11
75.541255
 21
-96.529015
  0
LINE
  8
ボルト／ビス
  6
CONTINUOUS
 62
    64
 10
75.317618
 20
-95.632735
 11
74.985427
 21
-95.953643
  0
LINE
  8
ボルト／ビス
  6
CONTINUOUS
 62
    64
 10
64.193377
 20
-83.785073
 11
63.749365
 21
-83.657842
  0
LINE
  8
ボルト／ビス
  6
CONTINUOUS
 62
    64
 10
64.193377
 20
-83.785073
 11
64.305195
 21
-84.233212
  0
LINE
  8
ボルト／ビス
  6
CONTINUOUS
 62
    64
 10
63.528995
 20
-84.426893
 11
63.417178
 21
-83.97875
  0
LINE
  8
ボルト／ビス
  6
CONTINUOUS
 62
    64
 10
63.528995
 20
-84.426893
 11
63.97301
 21
-84.554122
  0
CIRCLE
  8
ボルト／ビス
  6
CONTINUOUS
 62
    64
 10
63.861188
 20
-84.105983
 40
0.4
  0
LINE
  8
ボルト／ビス
  6
CONTINUOUS
 62
    64
 10
64.305195
 20
-84.233212
 11
63.97301
 21
-84.554122
  0
LINE
  8
ボルト／ビス
  6
CONTINUOUS
 62
    64
 10
63.749365
 20
-83.657842
 11
63.417178
 21
-83.97875
  0
ENDBLK
  0
BLOCK
  2
*DIM_0020
 70
    65
 10
0.0
 20
0.0
  0
LINE
  8
寸法
  6
CONTINUOUS
 10
151.54119
 20
-105.500345
 11
168.535088
 21
-105.500345
  0
LINE
  8
寸法
  6
CONTINUOUS
 10
151.54119
 20
-85.500345
 11
168.535088
 21
-85.500345
  0
LINE
  8
寸法
  6
CONTINUOUS
 10
168.535088
 20
-105.500345
 11
168.535088
 21
-85.500345
  0
POINT
  8
寸法
 10
168.535088
 20
-105.500345
  0
POINT
  8
寸法
 10
168.535088
 20
-85.500345
  0
TEXT
  7
TextStyle03
  8
寸法
  6
CONTINUOUS
 10
168.15
 20
-104.61875
  1
上昇335以上
 40
3.0
 50
90.0
 72
     5
 11
168.15
 21
-86.43125
  0
ENDBLK
  0
BLOCK
  2
*DIM_0023
 70
    65
 10
0.0
 20
0.0
  0
LINE
  8
寸法
  6
CONTINUOUS
 10
-22.769852
 20
-101.150345
 11
-11.611262
 21
-101.150345
  0
LINE
  8
寸法
  6
CONTINUOUS
 10
-24.125075
 20
-111.620345
 11
-11.611262
 21
-111.620345
  0
LINE
  8
寸法
  6
CONTINUOUS
 10
-11.611262
 20
-101.150345
 11
-11.611262
 21
-111.620345
  0
POINT
  8
寸法
 10
-11.611262
 20
-101.150345
  0
POINT
  8
寸法
 10
-11.611262
 20
-111.620345
  0
TEXT
  7
TextStyle03
  8
寸法
  6
CONTINUOUS
 10
-12.0
 20
-110.525
  1
209.4
 40
3.0
 50
90.0
 72
     5
 11
-12.0
 21
-102.275
  0
ENDBLK
  0
BLOCK
  2
*DIM_0025
 70
    65
 10
0.0
 20
0.0
  0
LINE
  8
寸法
  6
BYBLOCK
 62
     0
 10
80.890582
 20
12.687775
 11
80.890582
 21
-0.30303
  0
LINE
  8
寸法
  6
BYBLOCK
 62
     0
 10
165.533343
 20
12.687775
 11
165.533343
 21
-0.30303
  0
LINE
  8
寸法
  6
BYBLOCK
 62
     0
 10
80.890582
 20
-0.30303
 11
165.533343
 21
-0.30303
  0
POINT
  8
寸法
 62
     0
 10
80.890582
 20
-0.30303
  0
POINT
  8
寸法
 62
     0
 10
165.533343
 20
-0.30303
  0
TEXT
  7
TextStyle03
  8
寸法
  6
CONTINUOUS
 62
     0
 10
116.575
 20
0.05
  1
1692.9
 40
4.0
 72
     5
 11
129.825
 21
0.05
  0
ENDBLK
  0
BLOCK
  2
*DIM_0027
 70
    65
 10
0.0
 20
0.0
  0
LINE
  8
寸法
  6
BYBLOCK
 62
     0
 10
168.533343
 20
15.687775
 11
179.684828
 21
15.687775
  0
LINE
  8
寸法
  6
BYBLOCK
 62
     0
 10
126.211962
 20
75.539245
 11
179.684828
 21
75.539245
  0
LINE
  8
寸法
  6
BYBLOCK
 62
     0
 10
179.684828
 20
15.687775
 11
179.684828
 21
75.539245
  0
POINT
  8
寸法
 62
     0
 10
179.684828
 20
15.687775
  0
POINT
  8
寸法
 62
     0
 10
179.684828
 20
75.539245
  0
TEXT
  7
TextStyle03
  8
寸法
  6
CONTINUOUS
 62
     0
 10
179.3
 20
41.225
  1
1197
 40
4.0
 50
90.0
 72
     5
 11
179.3
 21
49.975
  0
ENDBLK
  0
ENDSEC
  0
SECTION
  2
ENTITIES
  0
POLYLINE
  8
通り芯
  6
CONTINUOUS
 66
     1
 70
     1
  0
VERTEX
  8
通り芯
 10
-210.0
 20
-148.5
  0
VERTEX
  8
通り芯
 10
210.0
 20
-148.5
  0
VERTEX
  8
通り芯
 10
210.0
 20
148.5
  0
VERTEX
  8
通り芯
 10
-210.0
 20
148.5
  0
SEQEND
  0
INSERT
  2
*GRP_0001
  8
型材断面
  6
CONTINUOUS
 10
0.0
 20
0.0
  0
LINE
  8
型材断面
  6
CONTINUOUS
 10
-78.394855
 20
44.617225
 11
-78.394855
 21
49.742225
  0
LINE
  8
型材断面
  6
CONTINUOUS
 10
-78.394855
 20
44.617225
 11
-73.269855
 21
44.617225
  0
LINE
  8
型材断面
  6
CONTINUOUS
 10
-68.144855
 20
54.86723
 11
-68.144855
 21
49.74223
  0
LINE
  8
型材断面
  6
CONTINUOUS
 10
-68.144855
 20
54.86723
 11
-73.269855
 21
54.86723
  0
LINE
  8
型材断面
  6
CONTINUOUS
 10
-78.394855
 20
54.86723
 11
-78.394855
 21
49.74223
  0
LINE
  8
型材断面
  6
CONTINUOUS
 10
-78.394855
 20
54.86723
 11
-73.269855
 21
54.86723
  0
LINE
  8
型材断面
  6
CONTINUOUS
 10
-78.394855
 20
54.86723
 11
-78.394855
 21
49.74223
  0
LINE
  8
型材断面
  6
CONTINUOUS
 10
-78.394855
 20
54.86723
 11
-73.269855
 21
54.86723
  0
LINE
  8
型材断面
  6
CONTINUOUS
 10
-68.144855
 20
54.86723
 11
-68.144855
 21
49.74223
  0
LINE
  8
型材断面
  6
CONTINUOUS
 10
-68.144855
 20
54.86723
 11
-73.269855
 21
54.86723
  0
LINE
  8
型材断面
  6
CONTINUOUS
 10
-68.144852
 20
44.617228
 11
-73.269852
 21
44.617228
  0
LINE
  8
型材断面
  6
CONTINUOUS
 10
-68.144852
 20
44.617228
 11
-68.144852
 21
49.742228
  0
LINE
  8
型材断面
  6
DASHDOT
 10
-113.269855
 20
49.742228
 11
-33.269855
 21
49.742228
  0
LINE
  8
型材断面
  6
CONTINUOUS
 10
-73.269855
 20
49.742228
 11
-27.769852
 21
4.242228
  0
LINE
  8
型材断面
  6
CONTINUOUS
 10
-73.269855
 20
49.742228
 11
-118.769858
 21
4.242228
  0
LINE
  8
型材断面
  6
DASHDOT
 10
-113.269855
 20
9.742228
 11
-33.269855
 21
9.742228
  0
LINE
  8
型材断面
  6
CONTINUOUS
 10
-118.769858
 20
4.242228
 11
-27.769848
 21
4.242223
  0
LINE
  8
型材断面
  6
CONTINUOUS
 10
-117.673902
 20
5.338183
 11
-28.865802
 21
5.338177
  0
LINE
  8
型材断面
  6
CONTINUOUS
 10
-73.269855
 20
49.742228
 11
-27.769852
 21
95.242228
  0
LINE
  8
型材断面
  6
CONTINUOUS
 10
-73.269855
 20
49.742228
 11
-118.769858
 21
95.242228
  0
LINE
  8
型材断面
  6
DASHDOT
 10
-113.269855
 20
89.742228
 11
-33.269855
 21
89.742228
  0
LINE
  8
型材断面
  6
CONTINUOUS
 10
-28.865812
 20
94.146268
 11
-117.673902
 21
94.146283
  0
LINE
  8
型材断面
  6
CONTINUOUS
 10
-27.769858
 20
95.242223
 11
-118.769858
 21
95.242238
  0
LINE
  8
型材断面
  6
CONTINUOUS
 10
-27.769858
 20
95.242223
 11
-27.769848
 21
4.242223
  0
LINE
  8
型材断面
  6
CONTINUOUS
 10
-28.865812
 20
94.146268
 11
-28.865802
 21
5.338177
  0
LINE
  8
型材断面
  6
CONTINUOUS
 10
-117.673902
 20
94.146283
 11
-117.673902
 21
5.338183
  0
LINE
  8
型材断面
  6
CONTINUOUS
 10
-118.769858
 20
95.242238
 11
-118.769858
 21
4.242228
  0
LINE
  8
型材断面
  6
CONTINUOUS
 10
-78.394858
 20
-60.633922
 11
-78.324145
 21
-60.704635
  0
LINE
  8
型材断面
  6
CONTINUOUS
 10
-78.394858
 20
-60.633922
 11
-73.269858
 21
-60.633922
  0
LINE
  8
型材断面
  6
CONTINUOUS
 10
-78.324145
 20
-60.704635
 11
-73.269858
 21
-60.704635
  0
LINE
  8
型材断面
  6
CONTINUOUS
 10
-78.394858
 20
-60.633922
 11
-73.269855
 21
-55.508925
  0
LINE
  8
型材断面
  6
CONTINUOUS
 10
-68.144852
 20
-60.633922
 11
-68.215565
 21
-60.704635
  0
LINE
  8
型材断面
  6
CONTINUOUS
 10
-68.144852
 20
-60.633922
 11
-73.269852
 21
-60.633922
  0
LINE
  8
型材断面
  6
CONTINUOUS
 10
-68.215565
 20
-60.704635
 11
-73.269852
 21
-60.704635
  0
LINE
  8
型材断面
  6
CONTINUOUS
 10
-68.144852
 20
-60.633922
 11
-73.269855
 21
-55.508925
  0
LINE
  8
型材断面
  6
CONTINUOUS
 10
-73.269855
 20
-105.763213
 11
-29.125075
 21
-105.763213
  0
LINE
  8
型材断面
  6
CONTINUOUS
 10
-73.269855
 20
-105.500345
 11
-28.619852
 21
-105.500345
  0
LINE
  8
型材断面
  6
CONTINUOUS
 10
-73.269855
 20
-104.800345
 11
-27.769852
 21
-104.800345
  0
LINE
  8
型材断面
  6
CONTINUOUS
 10
-73.269855
 20
-101.850345
 11
-27.769852
 21
-101.850345
  0
LINE
  8
型材断面
  6
CONTINUOUS
 10
-73.269855
 20
-101.150345
 11
-27.769852
 21
-101.150345
  0
LINE
  8
型材断面
  6
CONTINUOUS
 62
    47
 10
-27.769852
 20
-101.850345
 11
-27.769852
 21
-104.800345
  0
LINE
  8
型材断面
  6
CONTINUOUS
 62
    47
 10
-28.619852
 20
-104.800345
 11
-28.619852
 21
-105.500345
  0
LINE
  8
型材断面
  6
CONTINUOUS
 62
    47
 10
-28.865808
 20
-100.054395
 11
-27.769855
 21
-101.150345
  0
LINE
  8
型材断面
  6
CONTINUOUS
 62
    47
 10
-27.769855
 20
-101.850345
 11
-27.769855
 21
-101.150345
  0
LINE
  8
型材断面
  6
CONTINUOUS
 62
    47
 10
-29.125075
 20
-105.763213
 11
-29.387943
 21
-105.500345
  0
LINE
  8
型材断面
  6
CONTINUOUS
 10
-73.269855
 20
-100.054395
 11
-28.865805
 21
-100.054395
  0
LINE
  8
型材断面
  6
CONTINUOUS
 10
-33.035017
 20
-99.70084
 11
-72.031222
 21
-60.704635
  0
LINE
  8
型材断面
  6
CONTINUOUS
 10
-32.893595
 20
-99.70084
 11
-71.8898
 21
-60.704635
  0
LINE
  8
型材断面
  6
CONTINUOUS
 10
-73.269855
 20
-55.650345
 11
-28.865805
 21
-100.054395
  0
LINE
  8
型材断面
  6
CONTINUOUS
 10
-73.269855
 20
-105.763213
 11
-117.414635
 21
-105.763213
  0
LINE
  8
型材断面
  6
CONTINUOUS
 10
-73.269855
 20
-105.500345
 11
-117.919858
 21
-105.500345
  0
LINE
  8
型材断面
  6
CONTINUOUS
 10
-73.269855
 20
-104.800345
 11
-118.769858
 21
-104.800345
  0
LINE
  8
型材断面
  6
CONTINUOUS
 10
-73.269855
 20
-101.850345
 11
-118.769858
 21
-101.850345
  0
LINE
  8
型材断面
  6
CONTINUOUS
 10
-73.269855
 20
-101.150345
 11
-118.769858
 21
-101.150345
  0
LINE
  8
型材断面
  6
CONTINUOUS
 62
    47
 10
-118.769858
 20
-101.850345
 11
-118.769858
 21
-104.800345
  0
LINE
  8
型材断面
  6
CONTINUOUS
 62
    47
 10
-117.919858
 20
-104.800345
 11
-117.919858
 21
-105.500345
  0
LINE
  8
型材断面
  6
CONTINUOUS
 62
    47
 10
-117.673902
 20
-100.054395
 11
-118.769855
 21
-101.150345
  0
LINE
  8
型材断面
  6
CONTINUOUS
 62
    47
 10
-118.769855
 20
-101.850345
 11
-118.769855
 21
-101.150345
  0
LINE
  8
型材断面
  6
CONTINUOUS
 62
    47
 10
-117.414635
 20
-105.763213
 11
-117.151768
 21
-105.500345
  0
LINE
  8
型材断面
  6
CONTINUOUS
 10
-73.269855
 20
-100.054395
 11
-117.673905
 21
-100.054395
  0
LINE
  8
型材断面
  6
CONTINUOUS
 10
-113.504692
 20
-99.70084
 11
-74.508487
 21
-60.704635
  0
LINE
  8
型材断面
  6
CONTINUOUS
 10
-113.646115
 20
-99.70084
 11
-74.64991
 21
-60.704635
  0
LINE
  8
型材断面
  6
CONTINUOUS
 10
-73.269855
 20
-55.650345
 11
-117.673905
 21
-100.054395
  0
LINE
  8
型材断面
  6
CONTINUOUS
 10
-33.035017
 20
-99.70084
 11
-29.21936
 21
-99.70084
  0
LINE
  8
型材断面
  6
CONTINUOUS
 10
-121.29373
 20
15.292225
 11
-125.17949
 21
16.18631
  0
LINE
  8
型材断面
  6
CONTINUOUS
 10
-121.29373
 20
15.292225
 11
-125.17949
 21
14.39814
  0
LINE
  8
型材断面
  6
CONTINUOUS
 10
-125.17949
 20
14.39814
 11
-125.17949
 21
16.18631
  0
LINE
  8
型材断面
  6
CONTINUOUS
 10
24.996678
 20
15.511185
 11
22.753233
 21
11.625425
  0
LINE
  8
型材断面
  6
CONTINUOUS
 10
24.996678
 20
15.511185
 11
27.240122
 21
11.625425
  0
LINE
  8
型材断面
  6
CONTINUOUS
 10
27.240122
 20
11.625425
 11
22.753233
 21
11.625425
  0
LINE
  8
型材断面
  6
CONTINUOUS
 10
24.996678
 20
7.821637
 11
25.890762
 21
3.935878
  0
LINE
  8
型材断面
  6
CONTINUOUS
 10
24.996678
 20
7.821637
 11
24.102592
 21
3.935878
  0
LINE
  8
型材断面
  6
CONTINUOUS
 10
24.102592
 20
3.935878
 11
25.890762
 21
3.935878
  0
LINE
  8
型材断面
  6
CONTINUOUS
 10
15.962797
 20
10.217533
 11
68.619477
 21
10.217533
  0
LINE
  8
型材断面
  6
CONTINUOUS
 10
15.962797
 20
-0.98246
 11
68.619477
 21
-0.98246
  0
LINE
  8
型材断面
  6
CONTINUOUS
 10
15.962797
 20
-7.822405
 11
68.619477
 21
-7.822405
  0
LINE
  8
型材断面
  6
DOT
 10
-36.509195
 20
9.742228
 11
-36.509195
 21
89.742228
  0
LINE
  8
型材断面
  6
DOT
 10
-38.509195
 20
9.742228
 11
-38.509195
 21
89.742228
  0
LINE
  8
型材断面
  6
CONTINUOUS
 10
-73.269855
 20
1.36159
 11
-75.5133
 21
-2.52417
  0
LINE
  8
型材断面
  6
CONTINUOUS
 10
-73.269855
 20
1.36159
 11
-71.02641
 21
-2.52417
  0
LINE
  8
型材断面
  6
CONTINUOUS
 10
-71.02641
 20
-2.52417
 11
-75.5133
 21
-2.52417
  0
LINE
  8
型材断面
  6
CONTINUOUS
 10
-121.650493
 20
49.74223
 11
-125.536252
 21
47.498785
  0
LINE
  8
型材断面
  6
CONTINUOUS
 10
-121.650493
 20
49.74223
 11
-125.536252
 21
51.985675
  0
LINE
  8
型材断面
  6
CONTINUOUS
 10
-125.536252
 20
51.985675
 11
-125.536252
 21
47.498785
  0
LINE
  8
型材断面
  6
CONTINUOUS
 10
-73.26986
 20
98.122865
 11
-71.026415
 21
102.008625
  0
LINE
  8
型材断面
  6
CONTINUOUS
 10
-73.26986
 20
98.122865
 11
-75.513305
 21
102.008625
  0
LINE
  8
型材断面
  6
CONTINUOUS
 10
-75.513305
 20
102.008625
 11
-71.026415
 21
102.008625
  0
LINE
  8
型材断面
  6
CONTINUOUS
 10
-24.889217
 20
49.74222
 11
-21.003457
 21
51.985665
  0
LINE
  8
型材断面
  6
CONTINUOUS
 10
-24.889217
 20
49.74222
 11
-21.003457
 21
47.498775
  0
LINE
  8
型材断面
  6
CONTINUOUS
 10
-21.003457
 20
47.498775
 11
-21.003457
 21
51.985665
  0
LINE
  8
型材断面
  6
CONTINUOUS
 10
-121.29373
 20
84.19223
 11
-125.17949
 21
83.298145
  0
LINE
  8
型材断面
  6
CONTINUOUS
 10
-121.29373
 20
84.19223
 11
-125.17949
 21
85.086315
  0
LINE
  8
型材断面
  6
CONTINUOUS
 10
-125.17949
 20
85.086315
 11
-125.17949
 21
83.298145
  0
LINE
  8
型材断面
  6
CONTINUOUS
 10
-25.24598
 20
84.19223
 11
-21.36022
 21
83.298145
  0
LINE
  8
型材断面
  6
CONTINUOUS
 10
-25.24598
 20
84.19223
 11
-21.36022
 21
85.086315
  0
LINE
  8
型材断面
  6
CONTINUOUS
 10
-21.36022
 20
85.086315
 11
-21.36022
 21
83.298145
  0
LINE
  8
型材断面
  6
CONTINUOUS
 10
-25.24598
 20
15.292225
 11
-21.36022
 21
16.18631
  0
LINE
  8
型材断面
  6
CONTINUOUS
 10
-25.24598
 20
15.292225
 11
-21.36022
 21
14.39814
  0
LINE
  8
型材断面
  6
CONTINUOUS
 10
-21.36022
 20
14.39814
 11
-21.36022
 21
16.18631
  0
POLYLINE
  8
型材断面
  6
CONTINUOUS
 66
     1
 70
     1
  0
VERTEX
  8
型材断面
 10
-64.016022
 20
-3.052008
  0
VERTEX
  8
型材断面
 10
-82.571235
 20
-3.052008
  0
VERTEX
  8
型材断面
 10
-82.571235
 20
-7.844042
  0
VERTEX
  8
型材断面
 10
-64.016022
 20
-7.844042
  0
SEQEND
  0
POLYLINE
  8
型材断面
  6
CONTINUOUS
 66
     1
 70
     1
  0
VERTEX
  8
型材断面
 10
-64.016022
 20
107.70841
  0
VERTEX
  8
型材断面
 10
-82.571235
 20
107.70841
  0
VERTEX
  8
型材断面
 10
-82.571235
 20
102.916375
  0
VERTEX
  8
型材断面
 10
-64.016022
 20
102.916375
  0
SEQEND
  0
LINE
  8
型材断面
  6
CONTINUOUS
 10
15.962797
 20
-14.66235
 11
68.619477
 21
-14.66235
  0
LINE
  8
型材断面
  6
CONTINUOUS
 10
96.766185
 20
-60.633922
 11
96.836897
 21
-60.704635
  0
LINE
  8
型材断面
  6
CONTINUOUS
 10
96.766185
 20
-60.633922
 11
101.891185
 21
-60.633922
  0
LINE
  8
型材断面
  6
CONTINUOUS
 10
96.836897
 20
-60.704635
 11
101.891185
 21
-60.704635
  0
LINE
  8
型材断面
  6
CONTINUOUS
 10
96.766185
 20
-60.633922
 11
101.891187
 21
-55.508925
  0
LINE
  8
型材断面
  6
CONTINUOUS
 10
107.01619
 20
-60.633922
 11
106.945478
 21
-60.704635
  0
LINE
  8
型材断面
  6
CONTINUOUS
 10
107.01619
 20
-60.633922
 11
101.89119
 21
-60.633922
  0
LINE
  8
型材断面
  6
CONTINUOUS
 10
106.945478
 20
-60.704635
 11
101.89119
 21
-60.704635
  0
LINE
  8
型材断面
  6
CONTINUOUS
 10
107.01619
 20
-60.633922
 11
101.891187
 21
-55.508925
  0
LINE
  8
型材断面
  6
CONTINUOUS
 10
101.891187
 20
-105.763213
 11
146.035967
 21
-105.763213
  0
LINE
  8
型材断面
  6
CONTINUOUS
 10
101.891187
 20
-105.500345
 11
146.54119
 21
-105.500345
  0
LINE
  8
型材断面
  6
CONTINUOUS
 10
101.891187
 20
-104.800345
 11
147.39119
 21
-104.800345
  0
LINE
  8
型材断面
  6
CONTINUOUS
 10
101.891187
 20
-101.850345
 11
147.39119
 21
-101.850345
  0
LINE
  8
型材断面
  6
CONTINUOUS
 10
101.891187
 20
-101.150345
 11
147.39119
 21
-101.150345
  0
LINE
  8
型材断面
  6
CONTINUOUS
 62
    47
 10
147.39119
 20
-101.850345
 11
147.39119
 21
-104.800345
  0
LINE
  8
型材断面
  6
CONTINUOUS
 62
    47
 10
146.54119
 20
-104.800345
 11
146.54119
 21
-105.500345
  0
LINE
  8
型材断面
  6
CONTINUOUS
 62
    47
 10
146.295235
 20
-100.054395
 11
147.391187
 21
-101.150345
  0
LINE
  8
型材断面
  6
CONTINUOUS
 62
    47
 10
147.391187
 20
-101.850345
 11
147.391187
 21
-101.150345
  0
LINE
  8
型材断面
  6
CONTINUOUS
 62
    47
 10
146.035967
 20
-105.763213
 11
145.7731
 21
-105.500345
  0
LINE
  8
型材断面
  6
CONTINUOUS
 10
101.891187
 20
-100.054395
 11
146.295238
 21
-100.054395
  0
LINE
  8
型材断面
  6
CONTINUOUS
 10
142.126025
 20
-99.70084
 11
103.12982
 21
-60.704635
  0
LINE
  8
型材断面
  6
CONTINUOUS
 10
142.267447
 20
-99.70084
 11
103.271242
 21
-60.704635
  0
LINE
  8
型材断面
  6
CONTINUOUS
 10
101.891187
 20
-55.650345
 11
146.295238
 21
-100.054395
  0
LINE
  8
型材断面
  6
CONTINUOUS
 10
101.891187
 20
-105.763213
 11
57.746407
 21
-105.763213
  0
LINE
  8
型材断面
  6
CONTINUOUS
 10
101.891187
 20
-105.500345
 11
57.241185
 21
-105.500345
  0
LINE
  8
型材断面
  6
CONTINUOUS
 10
101.891187
 20
-104.800345
 11
56.391185
 21
-104.800345
  0
LINE
  8
型材断面
  6
CONTINUOUS
 10
101.891187
 20
-101.850345
 11
56.391185
 21
-101.850345
  0
LINE
  8
型材断面
  6
CONTINUOUS
 10
101.891187
 20
-101.150345
 11
56.391185
 21
-101.150345
  0
LINE
  8
型材断面
  6
CONTINUOUS
 62
    47
 10
56.391185
 20
-101.850345
 11
56.391185
 21
-104.800345
  0
LINE
  8
型材断面
  6
CONTINUOUS
 62
    47
 10
57.241185
 20
-104.800345
 11
57.241185
 21
-105.500345
  0
LINE
  8
型材断面
  6
CONTINUOUS
 62
    47
 10
57.48714
 20
-100.054395
 11
56.391187
 21
-101.150345
  0
LINE
  8
型材断面
  6
CONTINUOUS
 62
    47
 10
56.391187
 20
-101.850345
 11
56.391187
 21
-101.150345
  0
LINE
  8
型材断面
  6
CONTINUOUS
 62
    47
 10
57.746407
 20
-105.763213
 11
58.009275
 21
-105.500345
  0
LINE
  8
型材断面
  6
CONTINUOUS
 10
101.891187
 20
-100.054395
 11
57.487138
 21
-100.054395
  0
LINE
  8
型材断面
  6
CONTINUOUS
 10
61.65635
 20
-99.70084
 11
100.652555
 21
-60.704635
  0
LINE
  8
型材断面
  6
CONTINUOUS
 10
61.514927
 20
-99.70084
 11
100.511132
 21
-60.704635
  0
LINE
  8
型材断面
  6
CONTINUOUS
 10
101.891187
 20
-55.650345
 11
57.487138
 21
-100.054395
  0
LINE
  8
型材断面
  6
CONTINUOUS
 10
142.126025
 20
-99.70084
 11
145.941683
 21
-99.70084
  0
LINE
  8
型材断面
  6
CONTINUOUS
 10
-117.32035
 20
-99.70084
 11
-113.504692
 21
-99.70084
  0
INSERT
  2
*GRP_0016
  8
型材断面
  6
CONTINUOUS
 10
0.0
 20
0.0
  0
INSERT
  2
*GRP_0017
  8
型材断面
  6
CONTINUOUS
 10
0.0
 20
0.0
  0
INSERT
  2
*GRP_0018
  8
型材断面
  6
CONTINUOUS
 10
0.0
 20
0.0
  0
INSERT
  2
*GRP_0019
  8
型材断面
  6
CONTINUOUS
 10
0.0
 20
0.0
  0
LINE
  8
型材断面
  6
DOT
 10
-110.030515
 20
9.742228
 11
-110.030515
 21
89.742228
  0
LINE
  8
型材断面
  6
DOT
 10
-108.030515
 20
9.742228
 11
-108.030515
 21
89.742228
  0
LINE
  8
型材断面
  6
CONTINUOUS
 10
-117.32035
 20
5.691735
 11
-113.672385
 21
5.691735
  0
LINE
  8
型材断面
  6
CONTINUOUS
 10
-74.746893
 20
44.617225
 11
-113.672385
 21
5.691735
  0
LINE
  8
型材断面
  6
CONTINUOUS
 10
-117.32035
 20
5.691735
 11
-117.32035
 21
9.3397
  0
LINE
  8
型材断面
  6
CONTINUOUS
 10
-78.394855
 20
48.265193
 11
-117.32035
 21
9.3397
  0
LINE
  8
型材断面
  6
CONTINUOUS
 10
-29.21936
 20
5.691735
 11
-32.867325
 21
5.691735
  0
LINE
  8
型材断面
  6
CONTINUOUS
 10
-71.792817
 20
44.617225
 11
-32.867325
 21
5.691735
  0
LINE
  8
型材断面
  6
CONTINUOUS
 10
-29.21936
 20
5.691735
 11
-29.21936
 21
9.3397
  0
LINE
  8
型材断面
  6
CONTINUOUS
 10
-68.144855
 20
48.265193
 11
-29.21936
 21
9.3397
  0
LINE
  8
型材断面
  6
CONTINUOUS
 10
-29.21936
 20
93.79272
 11
-32.867325
 21
93.79272
  0
LINE
  8
型材断面
  6
CONTINUOUS
 10
-71.792817
 20
54.86723
 11
-32.867325
 21
93.79272
  0
LINE
  8
型材断面
  6
CONTINUOUS
 10
-29.21936
 20
93.79272
 11
-29.21936
 21
90.144755
  0
LINE
  8
型材断面
  6
CONTINUOUS
 10
-68.144855
 20
51.219262
 11
-29.21936
 21
90.144755
  0
LINE
  8
型材断面
  6
CONTINUOUS
 10
-117.32035
 20
93.79272
 11
-113.672385
 21
93.79272
  0
LINE
  8
型材断面
  6
CONTINUOUS
 10
-74.746893
 20
54.86723
 11
-113.672385
 21
93.79272
  0
LINE
  8
型材断面
  6
CONTINUOUS
 10
-117.32035
 20
93.79272
 11
-117.32035
 21
90.144755
  0
LINE
  8
型材断面
  6
CONTINUOUS
 10
-78.394855
 20
51.219262
 11
-117.32035
 21
90.144755
  0
LINE
  8
型材断面
  6
CONTINUOUS
 10
93.306057
 20
73.83951
 11
117.23768
 21
73.83951
  0
LINE
  8
型材断面
  6
CONTINUOUS
 10
-73.269855
 20
-112.125345
 11
-29.875075
 21
-112.125345
  0
LINE
  8
型材断面
  6
CONTINUOUS
 10
-73.269855
 20
-111.620345
 11
-29.125075
 21
-111.620345
  0
LINE
  8
型材断面
  6
CONTINUOUS
 62
    47
 10
-29.875075
 20
-111.620345
 11
-29.875075
 21
-112.125345
  0
LINE
  8
型材断面
  6
CONTINUOUS
 62
    47
 10
-29.125075
 20
-105.763213
 11
-29.125075
 21
-111.620345
  0
LINE
  8
型材断面
  6
CONTINUOUS
 10
-73.269855
 20
-112.125345
 11
-116.664635
 21
-112.125345
  0
LINE
  8
型材断面
  6
CONTINUOUS
 10
-73.269855
 20
-111.620345
 11
-117.414635
 21
-111.620345
  0
LINE
  8
型材断面
  6
CONTINUOUS
 62
    47
 10
-116.664635
 20
-111.620345
 11
-116.664635
 21
-112.125345
  0
LINE
  8
型材断面
  6
CONTINUOUS
 62
    47
 10
-117.414635
 20
-105.763213
 11
-117.414635
 21
-111.620345
  0
LINE
  8
型材断面
  6
DASHDOT
 10
-33.269855
 20
89.742228
 11
-33.269855
 21
-112.125345
  0
LINE
  8
型材断面
  6
DASHDOT
 10
-113.269855
 20
89.742228
 11
-113.269855
 21
-112.125345
  0
LINE
  8
型材断面
  6
DASHDOT
 10
-73.269855
 20
89.742228
 11
-73.269855
 21
-112.125345
  0
LINE
  8
型材断面
  6
CONTINUOUS
 10
57.840692
 20
-99.70084
 11
61.65635
 21
-99.70084
  0
LINE
  8
型材断面
  6
CONTINUOUS
 10
101.891187
 20
-112.125345
 11
145.285967
 21
-112.125345
  0
LINE
  8
型材断面
  6
CONTINUOUS
 10
101.891187
 20
-111.620345
 11
146.035967
 21
-111.620345
  0
LINE
  8
型材断面
  6
CONTINUOUS
 62
    47
 10
145.285967
 20
-111.620345
 11
145.285967
 21
-112.125345
  0
LINE
  8
型材断面
  6
CONTINUOUS
 62
    47
 10
146.035967
 20
-105.763213
 11
146.035967
 21
-111.620345
  0
LINE
  8
型材断面
  6
CONTINUOUS
 10
101.891187
 20
-112.125345
 11
58.496407
 21
-112.125345
  0
LINE
  8
型材断面
  6
CONTINUOUS
 10
101.891187
 20
-111.620345
 11
57.746407
 21
-111.620345
  0
LINE
  8
型材断面
  6
CONTINUOUS
 62
    47
 10
58.496407
 20
-111.620345
 11
58.496407
 21
-112.125345
  0
LINE
  8
型材断面
  6
CONTINUOUS
 62
    47
 10
57.746407
 20
-105.763213
 11
57.746407
 21
-111.620345
  0
LINE
  8
ガラス
  6
CONTINUOUS
 10
-71.38215
 20
25.08372
 11
-75.254785
 21
21.211085
  0
LINE
  8
ガラス
  6
CONTINUOUS
 10
-72.262472
 20
23.485362
 11
-73.656427
 21
22.091408
  0
LINE
  8
ガラス
  6
CONTINUOUS
 10
-72.980508
 20
24.203398
 11
-74.374463
 21
22.809442
  0
LINE
  8
ガラス
  6
CONTINUOUS
 10
-71.38215
 20
78.6994
 11
-75.254785
 21
74.826765
  0
LINE
  8
ガラス
  6
CONTINUOUS
 10
-72.262472
 20
77.101043
 11
-73.656427
 21
75.707087
  0
LINE
  8
ガラス
  6
CONTINUOUS
 10
-72.980508
 20
77.819077
 11
-74.374463
 21
76.425123
  0
LINE
  8
ガラス
  6
CONTINUOUS
 10
-96.522605
 20
51.697723
 11
-100.39524
 21
47.825087
  0
LINE
  8
ガラス
  6
CONTINUOUS
 10
-97.402927
 20
50.099365
 11
-98.796882
 21
48.70541
  0
LINE
  8
ガラス
  6
CONTINUOUS
 10
-98.120963
 20
50.8174
 11
-99.514917
 21
49.423445
  0
LINE
  8
ガラス
  6
CONTINUOUS
 10
-46.070985
 20
51.697723
 11
-49.94362
 21
47.825087
  0
LINE
  8
ガラス
  6
CONTINUOUS
 10
-46.951307
 20
50.099365
 11
-48.345262
 21
48.70541
  0
LINE
  8
ガラス
  6
CONTINUOUS
 10
-47.669343
 20
50.8174
 11
-49.063298
 21
49.423445
  0
LINE
  8
ガラス
  6
CONTINUOUS
 10
-71.38215
 20
-82.875968
 11
-75.254785
 21
-86.748603
  0
LINE
  8
ガラス
  6
CONTINUOUS
 10
-72.262472
 20
-84.474325
 11
-73.656427
 21
-85.86828
  0
LINE
  8
ガラス
  6
CONTINUOUS
 10
-72.980508
 20
-83.75629
 11
-74.374463
 21
-85.150245
  0
LINE
  8
ガラス
  6
CONTINUOUS
 10
103.778893
 20
-82.875968
 11
99.906257
 21
-86.748603
  0
LINE
  8
ガラス
  6
CONTINUOUS
 10
102.89857
 20
-84.474325
 11
101.504615
 21
-85.86828
  0
LINE
  8
ガラス
  6
CONTINUOUS
 10
102.180535
 20
-83.75629
 11
100.78658
 21
-85.150245
  0
LINE
  8
ガラス
  6
CONTINUOUS
 10
80.890582
 20
15.687775
 11
165.533343
 21
15.687775
  0
LINE
  8
ガラス
  6
CONTINUOUS
 10
80.890582
 20
15.687775
 11
123.211962
 21
75.539245
  0
LINE
  8
ガラス
  6
CONTINUOUS
 10
165.533343
 20
15.687775
 11
123.211962
 21
75.539245
  0
CIRCLE
  8
ボルト／ビス
  6
CONTINUOUS
 10
-30.125075
 20
-106.848035
 40
0.25
  0
CIRCLE
  8
ボルト／ビス
  6
CONTINUOUS
 10
-30.125075
 20
-106.848035
 40
0.2
  0
CIRCLE
  8
ボルト／ビス
  6
CONTINUOUS
 10
-30.125075
 20
-110.063035
 40
0.25
  0
CIRCLE
  8
ボルト／ビス
  6
CONTINUOUS
 10
-30.125075
 20
-110.063035
 40
0.2
  0
CIRCLE
  8
ボルト／ビス
  6
CONTINUOUS
 10
-116.414635
 20
-106.848035
 40
0.25
  0
CIRCLE
  8
ボルト／ビス
  6
CONTINUOUS
 10
-116.414635
 20
-106.848035
 40
0.2
  0
CIRCLE
  8
ボルト／ビス
  6
CONTINUOUS
 10
-116.414635
 20
-110.063035
 40
0.25
  0
CIRCLE
  8
ボルト／ビス
  6
CONTINUOUS
 10
-116.414635
 20
-110.063035
 40
0.2
  0
CIRCLE
  8
ボルト／ビス
  6
CONTINUOUS
 10
145.035967
 20
-106.848035
 40
0.25
  0
CIRCLE
  8
ボルト／ビス
  6
CONTINUOUS
 10
145.035967
 20
-106.848035
 40
0.2
  0
CIRCLE
  8
ボルト／ビス
  6
CONTINUOUS
 10
145.035967
 20
-110.063035
 40
0.25
  0
CIRCLE
  8
ボルト／ビス
  6
CONTINUOUS
 10
145.035967
 20
-110.063035
 40
0.2
  0
CIRCLE
  8
ボルト／ビス
  6
CONTINUOUS
 10
58.746407
 20
-106.848035
 40
0.25
  0
CIRCLE
  8
ボルト／ビス
  6
CONTINUOUS
 10
58.746407
 20
-106.848035
 40
0.2
  0
CIRCLE
  8
ボルト／ビス
  6
CONTINUOUS
 10
58.746407
 20
-110.063035
 40
0.25
  0
CIRCLE
  8
ボルト／ビス
  6
CONTINUOUS
 10
58.746407
 20
-110.063035
 40
0.2
  0
TEXT
  7
TextStyle03
  8
文字
  6
CONTINUOUS
 10
62.075
 20
102.575
  1
ＮＳコード：ＮＳ４Ｃ
 40
5.0
 72
     5
 11
117.7
 21
102.575
  0
TEXT
  7
TextStyle03
  8
文字
  6
CONTINUOUS
 10
61.85
 20
124.225
  1
シリーズ：ＴＦ４
 40
5.0
 72
     5
 11
106.225
 21
124.225
  0
TEXT
  7
TextStyle03
  8
文字
  6
CONTINUOUS
 10
61.85
 20
118.6
  1
　　　　　四角錘（上下可動）1600×1600タイプ
 40
5.0
 72
     5
 11
184.975
 21
118.6
  0
TEXT
  7
TextStyle03
  8
文字
  6
CONTINUOUS
 10
61.85
 20
112.975
  1
図面名　：外観姿図
 40
5.0
 72
     5
 11
111.85
 21
112.975
  0
TEXT
  7
TextStyle03
  8
文字
  6
CONTINUOUS
 10
61.85
 20
107.35
  1
　　　　　　
 40
5.0
 72
     5
 11
94.975
 21
107.35
  0
TEXT
  7
TextStyle03
  8
文字
  6
CONTINUOUS
 10
29.3
 20
12.0
  1
は排水穴位置を示す
 40
3.0
 72
     5
 11
59.3
 21
12.0
  0
TEXT
  7
TextStyle03
  8
文字
  6
CONTINUOUS
 10
29.3
 20
4.15
  1
はケーシング位置を示す
 40
3.0
 72
     5
 11
66.05
 21
4.15
  0
TEXT
  7
TextStyle03
  8
文字
  6
CONTINUOUS
 10
29.3
 20
0.775
  1
４ヶ所中1ヶ所に設定
 40
3.0
 72
     5
 11
60.9875
 21
0.775
  0
TEXT
  7
TextStyle03
  8
文字
  6
CONTINUOUS
 10
-23.625
 20
28.475
  1
ﾊﾞﾗﾝｽｽﾃｰ
 40
3.0
 72
     5
 11
-10.3125
 21
28.475
  0
TEXT
  7
TextStyle03
  8
文字
  6
CONTINUOUS
 10
-81.6
 20
-6.875
  1
可動装置側
 40
3.0
 72
     5
 11
-65.1
 21
-6.875
  0
TEXT
  7
TextStyle03
  8
文字
  6
CONTINUOUS
 10
-81.6
 20
103.875
  1
可動装置側
 40
3.0
 72
     5
 11
-65.1
 21
103.875
  0
TEXT
  7
TextStyle03
  8
文字
  6
CONTINUOUS
 10
-136.1875
 20
76.925
  1
ﾊﾞﾗﾝｽｽﾃｰ
 40
3.0
 72
     5
 11
-122.875
 21
76.925
  0
TEXT
  7
TextStyle03
  8
文字
  6
CONTINUOUS
 10
23.7
 20
-6.375
  1
アンカー数量　１０ヶ所
 40
3.0
 72
     5
 11
60.45
 21
-6.375
  0
TEXT
  7
TextStyle03
  8
文字
  6
CONTINUOUS
 10
23.625
 20
-13.25
  1
アームユニット数　４ヶ所
 40
3.0
 72
     5
 11
63.75
 21
-13.25
  0
TEXT
  7
TextStyle03
  8
文字
  6
CONTINUOUS
 10
-133.5
 20
116.025
  1
アンカーピッチ
 40
3.0
 72
     5
 11
-110.25
 21
116.025
  0
TEXT
  7
TextStyle03
  8
文字
  6
CONTINUOUS
 10
-140.225
 20
6.675
  1
アンカーピッチ
 40
3.0
 50
90.0
 72
     5
 11
-140.225
 21
29.925
  0
TEXT
  7
TextStyle03
  8
文字
  6
CONTINUOUS
 10
96.925
 20
75.05
  1
ガラス寸法
 40
3.0
 72
     5
 11
113.425
 21
75.05
  0
TEXT
  7
TextStyle03
  8
文字
  6
CONTINUOUS
 10
144.45
 20
19.9
  1
×４枚
 40
3.0
 72
     5
 11
154.2
 21
19.9
  0
INSERT
  2
*DIM_0002
  8
寸法
  6
CONTINUOUS
 10
0.0
 20
0.0
  0
INSERT
  2
*DIM_0003
  8
寸法
  6
CONTINUOUS
 10
0.0
 20
0.0
  0
INSERT
  2
*DIM_0004
  8
寸法
  6
CONTINUOUS
 10
0.0
 20
0.0
  0
INSERT
  2
*DIM_0005
  8
寸法
  6
CONTINUOUS
 10
0.0
 20
0.0
  0
INSERT
  2
*DIM_0006
  8
寸法
  6
CONTINUOUS
 10
0.0
 20
0.0
  0
INSERT
  2
*DIM_0007
  8
寸法
  6
CONTINUOUS
 10
0.0
 20
0.0
  0
INSERT
  2
*DIM_0008
  8
寸法
  6
CONTINUOUS
 10
0.0
 20
0.0
  0
INSERT
  2
*GRP_0009
  8
寸法
  6
CONTINUOUS
 10
0.0
 20
0.0
  0
INSERT
  2
*DIM_0010
  8
寸法
  6
CONTINUOUS
 10
0.0
 20
0.0
  0
INSERT
  2
*GRP_0011
  8
寸法
  6
CONTINUOUS
 10
0.0
 20
0.0
  0
INSERT
  2
*DIM_0012
  8
寸法
  6
CONTINUOUS
 10
0.0
 20
0.0
  0
INSERT
  2
*DIM_0013
  8
寸法
  6
CONTINUOUS
 10
0.0
 20
0.0
  0
INSERT
  2
*DIM_0014
  8
寸法
  6
CONTINUOUS
 10
0.0
 20
0.0
  0
INSERT
  2
*DIM_0020
  8
寸法
  6
CONTINUOUS
 10
0.0
 20
0.0
  0
INSERT
  2
*DIM_0023
  8
寸法
  6
CONTINUOUS
 10
0.0
 20
0.0
  0
INSERT
  2
*DIM_0025
  8
寸法
  6
CONTINUOUS
 10
0.0
 20
0.0
  0
INSERT
  2
*DIM_0027
  8
寸法
  6
CONTINUOUS
 10
0.0
 20
0.0
  0
INSERT
  2
*GRP_0015
  8
曲げ物
  6
DOT
 10
0.0
 20
0.0
  0
ENDSEC
  0
EOF
