  0
SECTION
  2
HEADER
  9
$EXTMIN
 10
-210.0
 20
-148.5
  9
$EXTMAX
 10
210.0
 20
148.5
  9
$PDMODE
 70
    32
  9
$PDSIZE
 40
1.5
  9
$LTSCALE
 40
10.0
  0
ENDSEC
  0
SECTION
  2
TABLES
  0
TABLE
  2
LTYPE
 70
    15
  0
LTYPE
  2
CONTINUOUS
 70
    64
  3
実線
 72
    65
 73
     0
 40
0.0
  0
LTYPE
  2
DASHED
 70
    64
  3
破線A
 72
    65
 73
     2
 40
0.6
 49
0.4
 49
-0.2
  0
LTYPE
  2
DASHEDX2
 70
    64
  3
破線B
 72
    65
 73
     2
 40
1.3
 49
0.9
 49
-0.4
  0
LTYPE
  2
DASHDOT
 70
    64
  3
１点鎖線A
 72
    65
 73
     4
 40
0.5375
 49
0.375
 49
-0.05
 49
0.0625
 49
-0.05
  0
LTYPE
  2
DASHDOTX2
 70
    64
  3
１点鎖線B
 72
    65
 73
     4
 40
1.075
 49
0.75
 49
-0.1
 49
0.125
 49
-0.1
  0
LTYPE
  2
DIVIDE2
 70
    64
  3
２点鎖線A
 72
    65
 73
     6
 40
0.5125
 49
0.3
 49
-0.0375
 49
0.05
 49
-0.0375
 49
0.05
 49
-0.0375
  0
LTYPE
  2
DIVIDE
 70
    64
  3
２点鎖線B
 72
    65
 73
     6
 40
1.05
 49
0.55
 49
-0.1
 49
0.1
 49
-0.1
 49
0.1
 49
-0.1
  0
LTYPE
  2
DOT
 70
    64
  3
点線A
 72
    65
 73
     2
 40
0.1125
 49
0.0625
 49
-0.05
  0
LTYPE
  2
DOTX2
 70
    64
  3
点線B
 72
    65
 73
     2
 40
0.275
 49
0.15
 49
-0.125
  0
LTYPE
  2
CONTINUOUS
 70
    64
  3
実線
 72
    65
 73
     0
 40
0.0
  0
LTYPE
  2
CONTINUOUS
 70
    64
  3
実線
 72
    65
 73
     0
 40
0.0
  0
LTYPE
  2
CONTINUOUS
 70
    64
  3
実線
 72
    65
 73
     0
 40
0.0
  0
LTYPE
  2
CONTINUOUS
 70
    64
  3
実線
 72
    65
 73
     0
 40
0.0
  0
LTYPE
  2
CONTINUOUS
 70
    64
  3
実線
 72
    65
 73
     0
 40
0.0
  0
LTYPE
  2
CONTINUOUS
 70
    64
  3
実線
 72
    65
 73
     0
 40
0.0
  0
ENDTAB
  0
TABLE
  2
LAYER
 70
    38
  0
LAYER
  2
通り芯
 70
     0
 62
    15
  6
CONTINUOUS
  0
LAYER
  2
補助線
 70
     0
 62
    16
  6
DOT
  0
LAYER
  2
躯体
 70
     0
 62
    31
  6
CONTINUOUS
  0
LAYER
  2
型材
 70
     0
 62
    32
  6
CONTINUOUS
  0
LAYER
  2
型材断面
 70
     0
 62
    47
  6
CONTINUOUS
  0
LAYER
  2
ガラス
 70
     0
 62
    48
  6
CONTINUOUS
  0
LAYER
  2
ゴム等
 70
     0
 62
    63
  6
CONTINUOUS
  0
LAYER
  2
ボルト／ビス
 70
     0
 62
    64
  6
CONTINUOUS
  0
LAYER
  2
文字
 70
     0
 62
    79
  6
CONTINUOUS
  0
LAYER
  2
寸法
 70
     0
 62
    80
  6
CONTINUOUS
  0
LAYER
  2
ﾊｯﾁﾝｸﾞ
 70
     0
 62
    95
  6
CONTINUOUS
  0
LAYER
  2
別途部材
 70
     0
 62
    96
  6
CONTINUOUS
  0
LAYER
  2
曲げ物
 70
     0
 62
   111
  6
CONTINUOUS
  0
LAYER
  2
鉄骨等
 70
     0
 62
   112
  6
CONTINUOUS
  0
LAYER
  2
St
 70
     0
 62
   127
  6
CONTINUOUS
  0
LAYER
  2
その他部品等
 70
     0
 62
   128
  6
CONTINUOUS
  0
LAYER
  2
ｶﾞｽｹｯﾄ
 70
     0
 62
   143
  6
CONTINUOUS
  0
LAYER
  2
ｽｹｯﾁ
 70
     0
 62
    14
  6
CONTINUOUS
  0
LAYER
  2
0
 70
     0
 62
    17
  6
CONTINUOUS
  0
LAYER
  2
1
 70
     0
 62
    30
  6
CONTINUOUS
  0
LAYER
  2
4
 70
     0
 62
    33
  6
CONTINUOUS
  0
LAYER
  2
ﾚｲﾔ3
 70
     0
 62
    46
  6
CONTINUOUS
  0
LAYER
  2
外形線
 70
     0
 62
    49
  6
CONTINUOUS
  0
LAYER
  2
部品
 70
     0
 62
    14
  6
CONTINUOUS
  0
LAYER
  2
サッシ芯
 70
     0
 62
    17
  6
DASHDOTX2
  0
LAYER
  2
寸法線
 70
     0
 62
    62
  6
CONTINUOUS
  0
LAYER
  2
姿図外形線
 70
     0
 62
    65
  6
CONTINUOUS
  0
LAYER
  2
姿補助線
 70
     0
 62
    30
  6
CONTINUOUS
  0
LAYER
  2
透視線
 70
     0
 62
    78
  6
DOT
  0
LAYER
  2
用紙
 70
     0
 62
    81
  6
CONTINUOUS
  0
LAYER
  2
実線図枠
 70
     0
 62
    94
  6
CONTINUOUS
  0
LAYER
  2
補助図枠
 70
     0
 62
    97
  6
CONTINUOUS
  0
LAYER
  2
建具記号
 70
     0
 62
   110
  6
CONTINUOUS
  0
LAYER
  2
補助文字
 70
     0
 62
   113
  6
CONTINUOUS
  0
LAYER
  2
01
 70
     0
 62
     1
  6
CONTINUOUS
  0
LAYER
  2
05
 70
     0
 62
     5
  6
CONTINUOUS
  0
LAYER
  2
02
 70
     0
 62
     2
  6
CONTINUOUS
  0
LAYER
  2
04
 70
     0
 62
     4
  6
CONTINUOUS
  0
ENDTAB
  0
TABLE
  2
STYLE
 70
    10
  0
STYLE
  2
STANDARD
 70
     0
 40
1.0
 41
1.0
 42
1.0
 50
0.0
 71
     0
  3
TXT
  4
BIGFONT
  0
STYLE
  2
TATE
 70
     4
 40
1.0
 41
1.0
 42
1.0
 50
0.0
 71
     0
  3
TXT
  4
BIGFONT
  0
STYLE
  2
TextStyle03
 70
     0
 40
1.0
 41
1.0
 42
1.0
 50
0.0
 71
     0
  3
MONOTXT
  4
BIGFONT
  0
STYLE
  2
TextStyle04
 70
     0
 40
1.0
 41
1.0
 42
1.0
 50
0.0
 71
     0
  3
MONOTXT
  4
BIGFONT
  0
STYLE
  2
TextStyle05
 70
     0
 40
1.0
 41
1.0
 42
1.0
 50
0.0
 71
     0
  3
MONOTXT
  4
BIGFONT
  0
STYLE
  2
TextStyle06
 70
     0
 40
1.0
 41
1.0
 42
1.0
 50
0.0
 71
     0
  3
MONOTXT
  4
BIGFONT
  0
STYLE
  2
TextStyle07
 70
     0
 40
1.0
 41
1.0
 42
1.0
 50
0.0
 71
     0
  3
MONOTXT
  4
BIGFONT
  0
STYLE
  2
TextStyle08
 70
     0
 40
1.0
 41
1.0
 42
1.0
 50
0.0
 71
     0
  3
MONOTXT
  4
BIGFONT
  0
STYLE
  2
TextStyle09
 70
     0
 40
1.0
 41
1.0
 42
1.0
 50
0.0
 71
     0
  3
MONOTXT
  4
BIGFONT
  0
STYLE
  2
TextStyle10
 70
     0
 40
1.0
 41
1.0
 42
1.0
 50
0.0
 71
     0
  3
MONOTXT
  4
BIGFONT
  0
ENDTAB
  0
ENDSEC
  0
SECTION
  2
BLOCKS
  0
BLOCK
  2
*GRP_0001
 70
    65
 10
0.0
 20
0.0
  0
LINE
  8
型材断面
  6
CONTINUOUS
 10
195.0
 20
133.5
 11
195.0
 21
-133.5
  0
LINE
  8
型材断面
  6
CONTINUOUS
 10
195.0
 20
-133.5
 11
-185.0
 21
-133.5
  0
LINE
  8
型材断面
  6
CONTINUOUS
 10
-185.0
 20
-133.5
 11
-185.0
 21
133.5
  0
LINE
  8
型材断面
  6
CONTINUOUS
 10
195.0
 20
133.5
 11
-185.0
 21
133.5
  0
LINE
  8
型材断面
  6
CONTINUOUS
 10
145.0
 20
-133.5
 11
145.0
 21
-118.5
  0
LINE
  8
型材断面
  6
CONTINUOUS
 10
195.0
 20
-118.5
 11
145.0
 21
-118.5
  0
ENDBLK
  0
BLOCK
  2
*DIM_0002
 70
    65
 10
0.0
 20
0.0
  0
LINE
  8
寸法
  6
BYBLOCK
 62
     0
 10
-61.101115
 20
-51.008922
 11
-61.101115
 21
-34.669278
  0
LINE
  8
寸法
  6
BYBLOCK
 62
     0
 10
-50.85111
 20
-51.008922
 11
-50.85111
 21
-34.669278
  0
LINE
  8
寸法
  6
BYBLOCK
 62
     0
 10
-61.101115
 20
-34.669278
 11
-50.85111
 21
-34.669278
  0
POINT
  8
寸法
 62
     0
 10
-61.101115
 20
-34.669278
  0
POINT
  8
寸法
 62
     0
 10
-50.85111
 20
-34.669278
  0
TEXT
  7
TextStyle03
  8
寸法
  6
CONTINUOUS
 62
     0
 10
-58.4625
 20
-34.275
  1
205
 40
3.0
 72
     5
 11
-53.5875
 21
-34.275
  0
ENDBLK
  0
BLOCK
  2
*DIM_0003
 70
    65
 10
0.0
 20
0.0
  0
LINE
  8
寸法
  6
BYBLOCK
 62
     0
 10
-70.976112
 20
-17.996455
 11
-40.976112
 21
-17.996455
  0
POINT
  8
寸法
 62
     0
 10
-70.976112
 20
-17.996455
  0
POINT
  8
寸法
 62
     0
 10
-40.976112
 20
-17.996455
  0
TEXT
  7
TextStyle03
  8
寸法
  6
CONTINUOUS
 62
     0
 10
-66.875
 20
-17.65
  1
呼称寸法　600
 40
3.0
 72
     5
 11
-45.125
 21
-17.65
  0
ENDBLK
  0
BLOCK
  2
*DIM_0004
 70
    65
 10
0.0
 20
0.0
  0
LINE
  8
寸法
  6
BYBLOCK
 62
     0
 10
-46.642412
 20
-46.883925
 11
-45.698132
 21
-46.883925
  0
LINE
  8
寸法
  6
BYBLOCK
 62
     0
 10
-49.85111
 20
-52.008922
 11
-45.698132
 21
-52.008922
  0
LINE
  8
寸法
  6
BYBLOCK
 62
     0
 10
-45.698132
 20
-46.883925
 11
-45.698132
 21
-52.008922
  0
POINT
  8
寸法
 62
     0
 10
-45.698132
 20
-46.883925
  0
POINT
  8
寸法
 62
     0
 10
-45.698132
 20
-52.008922
  0
TEXT
  7
TextStyle03
  8
寸法
  6
CONTINUOUS
 62
     0
 10
-42.7
 20
-53.6
  1
102.5
 40
3.0
 50
90.0
 72
     5
 11
-42.7
 21
-45.35
  0
ENDBLK
  0
BLOCK
  2
*DIM_0005
 70
    65
 10
0.0
 20
0.0
  0
LINE
  8
寸法
  6
BYBLOCK
 62
     0
 10
-39.97611
 20
25.084423
 11
-19.426682
 21
25.084423
  0
LINE
  8
寸法
  6
BYBLOCK
 62
     0
 10
-31.952235
 20
30.634423
 11
-19.426682
 21
30.634423
  0
LINE
  8
寸法
  6
BYBLOCK
 62
     0
 10
-19.426682
 20
25.084423
 11
-19.426682
 21
30.634423
  0
POINT
  8
寸法
 62
     0
 10
-19.426682
 20
25.084423
  0
POINT
  8
寸法
 62
     0
 10
-19.426682
 20
30.634423
  0
TEXT
  7
TextStyle03
  8
寸法
  6
CONTINUOUS
 62
     0
 10
-19.85
 20
25.4125
  1
111
 40
3.0
 50
90.0
 72
     5
 11
-19.85
 21
30.2875
  0
ENDBLK
  0
BLOCK
  2
*DIM_0006
 70
    65
 10
0.0
 20
0.0
  0
LINE
  8
寸法
  6
BYBLOCK
 62
     0
 10
-39.97611
 20
55.084427
 11
-19.426682
 21
55.084427
  0
LINE
  8
寸法
  6
BYBLOCK
 62
     0
 10
-31.952235
 20
49.534427
 11
-19.426682
 21
49.534427
  0
LINE
  8
寸法
  6
BYBLOCK
 62
     0
 10
-19.426682
 20
55.084427
 11
-19.426682
 21
49.534427
  0
POINT
  8
寸法
 62
     0
 10
-19.426682
 20
55.084427
  0
POINT
  8
寸法
 62
     0
 10
-19.426682
 20
49.534427
  0
TEXT
  7
TextStyle03
  8
寸法
  6
CONTINUOUS
 62
     0
 10
-19.85
 20
49.8625
  1
111
 40
3.0
 50
90.0
 72
     5
 11
-19.85
 21
54.7375
  0
ENDBLK
  0
BLOCK
  2
*DIM_0007
 70
    65
 10
0.0
 20
0.0
  0
LINE
  8
寸法
  6
CONTINUOUS
 62
     0
 10
-45.976112
 20
56.084423
 11
-45.976112
 21
76.035028
  0
LINE
  8
寸法
  6
CONTINUOUS
 62
     0
 10
-65.976112
 20
56.084423
 11
-65.976112
 21
76.035028
  0
LINE
  8
寸法
  6
CONTINUOUS
 62
     0
 10
-45.976112
 20
76.035028
 11
-65.976112
 21
76.035028
  0
POINT
  8
寸法
 62
     0
 10
-45.976112
 20
76.035028
 50
-270.0
  0
POINT
  8
寸法
 62
     0
 10
-65.976112
 20
76.035028
 50
-270.0
  0
TEXT
  7
TextStyle03
  8
寸法
  6
CONTINUOUS
 62
     0
 10
-58.4625
 20
76.45
  1
400
 40
3.0
 72
     5
 11
-53.5875
 21
76.45
  0
ENDBLK
  0
BLOCK
  2
*GRP_0008
 70
    65
 10
0.0
 20
0.0
  0
POLYLINE
  8
寸法
  6
CONTINUOUS
 62
     0
 66
     1
  0
VERTEX
  8
寸法
 10
-43.312593
 20
37.580717
  0
VERTEX
  8
寸法
 10
-39.631398
 20
33.899523
  0
VERTEX
  8
寸法
 10
-16.78882
 20
33.899523
  0
SEQEND
  0
ENDBLK
  0
BLOCK
  2
*DIM_0009
 70
    65
 10
0.0
 20
0.0
  0
LINE
  8
寸法
  6
CONTINUOUS
 10
-50.976112
 20
-46.883925
 11
-19.31752
 21
-46.883925
  0
LINE
  8
寸法
  6
CONTINUOUS
 10
-19.31752
 20
-67.525345
 11
-19.31752
 21
-46.883925
  0
POINT
  8
寸法
 10
-19.31752
 20
-46.883925
  0
TEXT
  7
TextStyle03
  8
寸法
  6
CONTINUOUS
 10
-19.7
 20
-61.35
  1
412.8
 40
3.0
 50
90.0
 72
     5
 11
-19.7
 21
-53.1
  0
ENDBLK
  0
BLOCK
  2
*DIM_0010
 70
    65
 10
0.0
 20
0.0
  0
LINE
  8
寸法
  6
CONTINUOUS
 10
-35.47611
 20
-62.525345
 11
-35.47611
 21
-17.996455
  0
LINE
  8
寸法
  6
CONTINUOUS
 10
-40.976112
 20
-17.996455
 11
-35.47611
 21
-17.996455
  0
POINT
  8
寸法
 10
-40.976112
 20
-17.996455
  0
POINT
  8
寸法
 10
-35.47611
 20
-17.996455
  0
TEXT
  7
TextStyle03
  8
寸法
  6
CONTINUOUS
 10
-40.6875
 20
-17.625
  1
110
 40
3.0
 72
     5
 11
-35.8125
 21
-17.625
  0
ENDBLK
  0
BLOCK
  2
*DIM_0011
 70
    65
 10
0.0
 20
0.0
  0
LINE
  8
寸法
  6
CONTINUOUS
 10
-76.476115
 20
-62.525345
 11
-76.476115
 21
-17.996455
  0
LINE
  8
寸法
  6
CONTINUOUS
 10
-70.976112
 20
-17.996455
 11
-76.476115
 21
-17.996455
  0
POINT
  8
寸法
 10
-70.976112
 20
-17.996455
  0
POINT
  8
寸法
 10
-76.476115
 20
-17.996455
  0
TEXT
  7
TextStyle03
  8
寸法
  6
CONTINUOUS
 10
-76.1875
 20
-17.625
  1
110
 40
3.0
 72
     5
 11
-71.3125
 21
-17.625
  0
ENDBLK
  0
BLOCK
  2
*GRP_0012
 70
    65
 10
0.0
 20
0.0
  0
LINE
  8
型材断面
  6
DOT
 10
102.26457
 20
-44.508922
 11
102.335282
 21
-44.579635
  0
LINE
  8
型材断面
  6
DOT
 10
102.26457
 20
-44.508922
 11
107.38957
 21
-44.508922
  0
LINE
  8
型材断面
  6
DOT
 10
102.335282
 20
-44.579635
 11
107.38957
 21
-44.579635
  0
LINE
  8
型材断面
  6
DOT
 10
102.26457
 20
-44.508922
 11
107.389573
 21
-39.383925
  0
LINE
  8
型材断面
  6
DOT
 10
112.514575
 20
-44.508922
 11
112.443863
 21
-44.579635
  0
LINE
  8
型材断面
  6
DOT
 10
112.514575
 20
-44.508922
 11
107.389575
 21
-44.508922
  0
LINE
  8
型材断面
  6
DOT
 10
112.443863
 20
-44.579635
 11
107.389575
 21
-44.579635
  0
LINE
  8
型材断面
  6
DOT
 10
112.514575
 20
-44.508922
 11
107.389573
 21
-39.383925
  0
LINE
  8
型材断面
  6
DOT
 10
107.389573
 20
-64.375345
 11
87.73957
 21
-64.375345
  0
LINE
  8
型材断面
  6
DOT
 10
107.389573
 20
-63.675345
 11
86.88957
 21
-63.675345
  0
LINE
  8
型材断面
  6
DOT
 10
107.389573
 20
-60.725345
 11
86.88957
 21
-60.725345
  0
LINE
  8
型材断面
  6
DOT
 10
107.389573
 20
-60.025345
 11
86.88957
 21
-60.025345
  0
LINE
  8
型材断面
  6
DOT
 62
    47
 10
86.88957
 20
-60.725345
 11
86.88957
 21
-63.675345
  0
LINE
  8
型材断面
  6
DOT
 62
    47
 10
87.73957
 20
-63.675345
 11
87.73957
 21
-64.375345
  0
LINE
  8
型材断面
  6
DOT
 62
    47
 10
87.985525
 20
-58.929395
 11
86.889573
 21
-60.025345
  0
LINE
  8
型材断面
  6
DOT
 62
    47
 10
86.889573
 20
-60.725345
 11
86.889573
 21
-60.025345
  0
LINE
  8
型材断面
  6
DOT
 10
107.389573
 20
-58.929395
 11
87.985522
 21
-58.929395
  0
LINE
  8
型材断面
  6
DOT
 10
107.389573
 20
-64.375345
 11
127.039575
 21
-64.375345
  0
LINE
  8
型材断面
  6
DOT
 10
107.389573
 20
-63.675345
 11
127.889575
 21
-63.675345
  0
LINE
  8
型材断面
  6
DOT
 10
107.389573
 20
-60.725345
 11
127.889575
 21
-60.725345
  0
LINE
  8
型材断面
  6
DOT
 10
107.389573
 20
-60.025345
 11
127.889575
 21
-60.025345
  0
LINE
  8
型材断面
  6
DOT
 62
    47
 10
127.889575
 20
-60.725345
 11
127.889575
 21
-63.675345
  0
LINE
  8
型材断面
  6
DOT
 62
    47
 10
127.039575
 20
-63.675345
 11
127.039575
 21
-64.375345
  0
LINE
  8
型材断面
  6
DOT
 62
    47
 10
126.79362
 20
-58.929395
 11
127.889573
 21
-60.025345
  0
LINE
  8
型材断面
  6
DOT
 62
    47
 10
127.889573
 20
-60.725345
 11
127.889573
 21
-60.025345
  0
LINE
  8
型材断面
  6
DOT
 10
107.389573
 20
-58.929395
 11
126.793622
 21
-58.929395
  0
LINE
  8
型材断面
  6
DOT
 10
92.154735
 20
-58.57584
 11
106.15094
 21
-44.579635
  0
LINE
  8
型材断面
  6
DOT
 10
92.013313
 20
-58.57584
 11
106.009518
 21
-44.579635
  0
LINE
  8
型材断面
  6
DOT
 10
122.62441
 20
-58.57584
 11
108.628205
 21
-44.579635
  0
LINE
  8
型材断面
  6
DOT
 10
122.765833
 20
-58.57584
 11
108.769628
 21
-44.579635
  0
LINE
  8
型材断面
  6
DOT
 10
107.389573
 20
-39.525345
 11
87.985522
 21
-58.929395
  0
LINE
  8
型材断面
  6
DOT
 10
107.389573
 20
-39.525345
 11
126.793622
 21
-58.929395
  0
LINE
  8
型材断面
  6
DOT
 10
122.62441
 20
-58.57584
 11
126.440068
 21
-58.57584
  0
LINE
  8
型材断面
  6
DOT
 10
88.339077
 20
-58.57584
 11
92.154735
 21
-58.57584
  0
LINE
  8
ガラス
  6
DOT
 10
109.277277
 20
-52.376625
 11
105.404643
 21
-56.24926
  0
LINE
  8
ガラス
  6
DOT
 10
108.396955
 20
-53.974982
 11
107.003
 21
-55.368937
  0
LINE
  8
ガラス
  6
DOT
 10
107.67892
 20
-53.256948
 11
106.284965
 21
-54.650903
  0
ENDBLK
  0
BLOCK
  2
*DIM_0013
 70
    65
 10
0.0
 20
0.0
  0
LINE
  8
寸法
  6
CONTINUOUS
 10
132.039575
 20
-71.875345
 11
142.192418
 21
-71.875345
  0
LINE
  8
寸法
  6
CONTINUOUS
 10
132.039575
 20
-64.375345
 11
142.192418
 21
-64.375345
  0
LINE
  8
寸法
  6
CONTINUOUS
 10
142.192418
 20
-71.875345
 11
142.192418
 21
-64.375345
  0
POINT
  8
寸法
 10
142.192418
 20
-71.875345
  0
POINT
  8
寸法
 10
142.192418
 20
-64.375345
  0
TEXT
  7
TextStyle03
  8
寸法
  6
CONTINUOUS
 10
145.175
 20
-76.4
  1
上昇87以上
 40
3.0
 50
90.0
 72
     5
 11
145.175
 21
-59.9
  0
ENDBLK
  0
BLOCK
  2
*GRP_0014
 70
    65
 10
0.0
 20
0.0
  0
LINE
  8
補助線
  6
BYBLOCK
 62
    64
 10
117.287085
 20
-74.359265
 11
117.49206
 21
-74.50239
  0
LINE
  8
補助線
  6
BYBLOCK
 62
    64
 10
117.461135
 20
-74.32834
 11
117.31801
 21
-74.533315
  0
LINE
  8
補助線
  6
BYBLOCK
 62
    64
 10
109.292965
 20
-68.777462
 11
109.087988
 21
-68.634338
  0
LINE
  8
補助線
  6
BYBLOCK
 62
    64
 10
109.262038
 20
-68.60341
 11
109.118915
 21
-68.808388
  0
LINE
  8
補助線
  6
BYBLOCK
 62
    64
 10
101.093863
 20
-63.05254
 11
100.888885
 21
-62.909418
  0
LINE
  8
補助線
  6
BYBLOCK
 62
    64
 10
101.062935
 20
-62.87849
 11
100.919813
 21
-63.083468
  0
LINE
  8
型材断面
  6
CONTINUOUS
 10
118.515145
 20
-73.692188
 11
118.700705
 21
-74.736488
  0
LINE
  8
型材断面
  6
CONTINUOUS
 10
118.700705
 20
-74.736488
 11
118.128212
 21
-75.5564
  0
LINE
  8
型材断面
  6
CONTINUOUS
 10
118.128212
 20
-75.5564
 11
117.083913
 21
-75.74196
  0
LINE
  8
型材断面
  6
CONTINUOUS
 10
109.47672
 20
-68.29595
 11
108.904225
 21
-69.11586
  0
LINE
  8
型材断面
  6
CONTINUOUS
 10
101.297033
 20
-61.669845
 11
100.252732
 21
-61.855407
  0
LINE
  8
型材断面
  6
CONTINUOUS
 10
100.252732
 20
-61.855407
 11
99.68024
 21
-62.675317
  0
LINE
  8
型材断面
  6
CONTINUOUS
 10
99.68024
 20
-62.675317
 11
99.865805
 21
-63.71962
  0
LINE
  8
型材断面
  6
CONTINUOUS
 10
118.515145
 20
-73.692188
 11
101.297048
 21
-61.669842
  0
LINE
  8
型材断面
  6
CONTINUOUS
 10
117.083913
 20
-75.74196
 11
99.8658
 21
-63.71961
  0
LINE
  8
ボルト／ビス
  6
CONTINUOUS
 62
    64
 10
117.653995
 20
-74.052128
 11
117.849748
 21
-74.470475
  0
LINE
  8
ボルト／ビス
  6
CONTINUOUS
 62
    64
 10
117.653995
 20
-74.052128
 11
117.19382
 21
-74.012482
  0
LINE
  8
ボルト／ビス
  6
CONTINUOUS
 62
    64
 10
117.12515
 20
-74.809527
 11
117.585325
 21
-74.849172
  0
LINE
  8
ボルト／ビス
  6
CONTINUOUS
 62
    64
 10
117.12515
 20
-74.809527
 11
116.929398
 21
-74.39118
  0
CIRCLE
  8
ボルト／ビス
  6
CONTINUOUS
 62
    64
 10
117.389573
 20
-74.430828
 40
0.4
  0
LINE
  8
ボルト／ビス
  6
CONTINUOUS
 62
    64
 10
117.19382
 20
-74.012482
 11
116.929398
 21
-74.39118
  0
LINE
  8
ボルト／ビス
  6
CONTINUOUS
 62
    64
 10
117.849748
 20
-74.470475
 11
117.585325
 21
-74.849172
  0
LINE
  8
ボルト／ビス
  6
CONTINUOUS
 62
    64
 10
109.4549
 20
-68.3272
 11
108.994722
 21
-68.287553
  0
LINE
  8
ボルト／ビス
  6
CONTINUOUS
 62
    64
 10
109.4549
 20
-68.3272
 11
109.650653
 21
-68.745545
  0
LINE
  8
ボルト／ビス
  6
CONTINUOUS
 62
    64
 10
108.926052
 20
-69.084598
 11
108.7303
 21
-68.666252
  0
LINE
  8
ボルト／ビス
  6
CONTINUOUS
 62
    64
 10
108.926052
 20
-69.084598
 11
109.386227
 21
-69.124245
  0
CIRCLE
  8
ボルト／ビス
  6
CONTINUOUS
 62
    64
 10
109.190475
 20
-68.7059
 40
0.4
  0
LINE
  8
ボルト／ビス
  6
CONTINUOUS
 62
    64
 10
109.650653
 20
-68.745545
 11
109.386227
 21
-69.124245
  0
LINE
  8
ボルト／ビス
  6
CONTINUOUS
 62
    64
 10
108.994722
 20
-68.287553
 11
108.7303
 21
-68.666252
  0
LINE
  8
ボルト／ビス
  6
CONTINUOUS
 62
    64
 10
101.255795
 20
-62.60228
 11
100.79562
 21
-62.562633
  0
LINE
  8
ボルト／ビス
  6
CONTINUOUS
 62
    64
 10
101.255795
 20
-62.60228
 11
101.451548
 21
-63.020627
  0
LINE
  8
ボルト／ビス
  6
CONTINUOUS
 62
    64
 10
100.726952
 20
-63.35968
 11
100.5312
 21
-62.941333
  0
LINE
  8
ボルト／ビス
  6
CONTINUOUS
 62
    64
 10
100.726952
 20
-63.35968
 11
101.187127
 21
-63.399325
  0
CIRCLE
  8
ボルト／ビス
  6
CONTINUOUS
 62
    64
 10
100.991373
 20
-62.98098
 40
0.4
  0
LINE
  8
ボルト／ビス
  6
CONTINUOUS
 62
    64
 10
101.451548
 20
-63.020627
 11
101.187127
 21
-63.399325
  0
LINE
  8
ボルト／ビス
  6
CONTINUOUS
 62
    64
 10
100.79562
 20
-62.562633
 11
100.5312
 21
-62.941333
  0
ENDBLK
  0
BLOCK
  2
*GRP_0015
 70
    65
 10
0.0
 20
0.0
  0
LINE
  8
補助線
  6
BYBLOCK
 62
    64
 10
101.093865
 20
-74.359265
 11
100.88889
 21
-74.50239
  0
LINE
  8
補助線
  6
BYBLOCK
 62
    64
 10
100.919815
 20
-74.32834
 11
101.06294
 21
-74.533315
  0
LINE
  8
補助線
  6
BYBLOCK
 62
    64
 10
109.087985
 20
-68.777462
 11
109.292963
 21
-68.634338
  0
LINE
  8
補助線
  6
BYBLOCK
 62
    64
 10
109.118913
 20
-68.60341
 11
109.262035
 21
-68.808388
  0
LINE
  8
補助線
  6
BYBLOCK
 62
    64
 10
117.287088
 20
-63.05254
 11
117.492065
 21
-62.909418
  0
LINE
  8
補助線
  6
BYBLOCK
 62
    64
 10
117.318015
 20
-62.87849
 11
117.461138
 21
-63.083468
  0
LINE
  8
型材断面
  6
CONTINUOUS
 10
99.865805
 20
-73.692188
 11
99.680245
 21
-74.736488
  0
LINE
  8
型材断面
  6
CONTINUOUS
 10
99.680245
 20
-74.736488
 11
100.252737
 21
-75.5564
  0
LINE
  8
型材断面
  6
CONTINUOUS
 10
100.252737
 20
-75.5564
 11
101.297038
 21
-75.74196
  0
LINE
  8
型材断面
  6
CONTINUOUS
 10
108.90423
 20
-68.29595
 11
109.476725
 21
-69.11586
  0
LINE
  8
型材断面
  6
CONTINUOUS
 10
117.083917
 20
-61.669845
 11
118.128218
 21
-61.855407
  0
LINE
  8
型材断面
  6
CONTINUOUS
 10
118.128218
 20
-61.855407
 11
118.70071
 21
-62.675317
  0
LINE
  8
型材断面
  6
CONTINUOUS
 10
118.70071
 20
-62.675317
 11
118.515145
 21
-63.71962
  0
LINE
  8
型材断面
  6
CONTINUOUS
 10
99.865805
 20
-73.692188
 11
117.083902
 21
-61.669842
  0
LINE
  8
型材断面
  6
CONTINUOUS
 10
101.297038
 20
-75.74196
 11
118.51515
 21
-63.71961
  0
LINE
  8
ボルト／ビス
  6
CONTINUOUS
 62
    64
 10
100.726955
 20
-74.052128
 11
100.531202
 21
-74.470475
  0
LINE
  8
ボルト／ビス
  6
CONTINUOUS
 62
    64
 10
100.726955
 20
-74.052128
 11
101.18713
 21
-74.012482
  0
LINE
  8
ボルト／ビス
  6
CONTINUOUS
 62
    64
 10
101.2558
 20
-74.809527
 11
100.795625
 21
-74.849172
  0
LINE
  8
ボルト／ビス
  6
CONTINUOUS
 62
    64
 10
101.2558
 20
-74.809527
 11
101.451553
 21
-74.39118
  0
CIRCLE
  8
ボルト／ビス
  6
CONTINUOUS
 62
    64
 10
100.991378
 20
-74.430828
 40
0.4
  0
LINE
  8
ボルト／ビス
  6
CONTINUOUS
 62
    64
 10
101.18713
 20
-74.012482
 11
101.451553
 21
-74.39118
  0
LINE
  8
ボルト／ビス
  6
CONTINUOUS
 62
    64
 10
100.531202
 20
-74.470475
 11
100.795625
 21
-74.849172
  0
LINE
  8
ボルト／ビス
  6
CONTINUOUS
 62
    64
 10
108.92605
 20
-68.3272
 11
109.386227
 21
-68.287553
  0
LINE
  8
ボルト／ビス
  6
CONTINUOUS
 62
    64
 10
108.92605
 20
-68.3272
 11
108.730298
 21
-68.745545
  0
LINE
  8
ボルト／ビス
  6
CONTINUOUS
 62
    64
 10
109.454897
 20
-69.084598
 11
109.65065
 21
-68.666252
  0
LINE
  8
ボルト／ビス
  6
CONTINUOUS
 62
    64
 10
109.454897
 20
-69.084598
 11
108.994722
 21
-69.124245
  0
CIRCLE
  8
ボルト／ビス
  6
CONTINUOUS
 62
    64
 10
109.190475
 20
-68.7059
 40
0.4
  0
LINE
  8
ボルト／ビス
  6
CONTINUOUS
 62
    64
 10
108.730298
 20
-68.745545
 11
108.994722
 21
-69.124245
  0
LINE
  8
ボルト／ビス
  6
CONTINUOUS
 62
    64
 10
109.386227
 20
-68.287553
 11
109.65065
 21
-68.666252
  0
LINE
  8
ボルト／ビス
  6
CONTINUOUS
 62
    64
 10
117.125155
 20
-62.60228
 11
117.58533
 21
-62.562633
  0
LINE
  8
ボルト／ビス
  6
CONTINUOUS
 62
    64
 10
117.125155
 20
-62.60228
 11
116.929402
 21
-63.020627
  0
LINE
  8
ボルト／ビス
  6
CONTINUOUS
 62
    64
 10
117.653997
 20
-63.35968
 11
117.84975
 21
-62.941333
  0
LINE
  8
ボルト／ビス
  6
CONTINUOUS
 62
    64
 10
117.653997
 20
-63.35968
 11
117.193822
 21
-63.399325
  0
CIRCLE
  8
ボルト／ビス
  6
CONTINUOUS
 62
    64
 10
117.389578
 20
-62.98098
 40
0.4
  0
LINE
  8
ボルト／ビス
  6
CONTINUOUS
 62
    64
 10
116.929402
 20
-63.020627
 11
117.193822
 21
-63.399325
  0
LINE
  8
ボルト／ビス
  6
CONTINUOUS
 62
    64
 10
117.58533
 20
-62.562633
 11
117.84975
 21
-62.941333
  0
ENDBLK
  0
BLOCK
  2
*DIM_0018
 70
    65
 10
0.0
 20
0.0
  0
LINE
  8
寸法
  6
CONTINUOUS
 10
-31.831333
 20
-77.995345
 11
-19.31752
 21
-77.995345
  0
LINE
  8
寸法
  6
CONTINUOUS
 10
-30.47611
 20
-67.525345
 11
-19.31752
 21
-67.525345
  0
LINE
  8
寸法
  6
CONTINUOUS
 10
-19.31752
 20
-77.995345
 11
-19.31752
 21
-67.525345
  0
POINT
  8
寸法
 10
-19.31752
 20
-77.995345
  0
POINT
  8
寸法
 10
-19.31752
 20
-67.525345
  0
TEXT
  7
TextStyle03
  8
寸法
  6
CONTINUOUS
 10
-19.7
 20
-76.9
  1
209.4
 40
3.0
 50
90.0
 72
     5
 11
-19.7
 21
-68.65
  0
ENDBLK
  0
BLOCK
  2
*DIM_0021
 70
    65
 10
0.0
 20
0.0
  0
LINE
  8
寸法
  6
BYBLOCK
 62
     0
 10
116.883345
 20
57.805287
 11
142.395535
 21
57.805287
  0
LINE
  8
寸法
  6
BYBLOCK
 62
     0
 10
134.204725
 20
33.309158
 11
142.395535
 21
33.309158
  0
LINE
  8
寸法
  6
BYBLOCK
 62
     0
 10
142.395535
 20
57.805287
 11
142.395535
 21
33.309158
  0
POINT
  8
寸法
 62
     0
 10
142.395535
 20
57.805287
  0
POINT
  8
寸法
 62
     0
 10
142.395535
 20
33.309158
  0
TEXT
  7
TextStyle03
  8
寸法
  6
CONTINUOUS
 62
     0
 10
142.0
 20
40.05
  1
489.9
 40
4.0
 50
90.0
 72
     5
 11
142.0
 21
51.05
  0
ENDBLK
  0
BLOCK
  2
*DIM_0022
 70
    65
 10
0.0
 20
0.0
  0
LINE
  8
寸法
  6
BYBLOCK
 62
     0
 10
96.561965
 20
30.309158
 11
96.561965
 21
20.108878
  0
LINE
  8
寸法
  6
BYBLOCK
 62
     0
 10
131.204725
 20
30.309158
 11
131.204725
 21
20.108878
  0
LINE
  8
寸法
  6
BYBLOCK
 62
     0
 10
96.561965
 20
20.108878
 11
131.204725
 21
20.108878
  0
POINT
  8
寸法
 62
     0
 10
96.561965
 20
20.108878
  0
POINT
  8
寸法
 62
     0
 10
131.204725
 20
20.108878
  0
TEXT
  7
TextStyle03
  8
寸法
  6
CONTINUOUS
 62
     0
 10
108.375
 20
20.475
  1
692.9
 40
4.0
 72
     5
 11
119.375
 21
20.475
  0
ENDBLK
  0
ENDSEC
  0
SECTION
  2
ENTITIES
  0
POLYLINE
  8
通り芯
  6
CONTINUOUS
 66
     1
 70
     1
  0
VERTEX
  8
通り芯
 10
-210.0
 20
-148.5
  0
VERTEX
  8
通り芯
 10
210.0
 20
-148.5
  0
VERTEX
  8
通り芯
 10
210.0
 20
148.5
  0
VERTEX
  8
通り芯
 10
-210.0
 20
148.5
  0
SEQEND
  0
INSERT
  2
*GRP_0001
  8
型材断面
  6
CONTINUOUS
 10
0.0
 20
0.0
  0
LINE
  8
型材断面
  6
CONTINUOUS
 10
-61.101115
 20
-52.008922
 11
-61.030403
 21
-52.079635
  0
LINE
  8
型材断面
  6
CONTINUOUS
 10
-61.101115
 20
-52.008922
 11
-55.976115
 21
-52.008922
  0
LINE
  8
型材断面
  6
CONTINUOUS
 10
-61.030403
 20
-52.079635
 11
-55.976115
 21
-52.079635
  0
LINE
  8
型材断面
  6
CONTINUOUS
 10
-61.101115
 20
-52.008922
 11
-55.976112
 21
-46.883925
  0
LINE
  8
型材断面
  6
CONTINUOUS
 10
-50.85111
 20
-52.008922
 11
-50.921822
 21
-52.079635
  0
LINE
  8
型材断面
  6
CONTINUOUS
 10
-50.85111
 20
-52.008922
 11
-55.97611
 21
-52.008922
  0
LINE
  8
型材断面
  6
CONTINUOUS
 10
-50.921822
 20
-52.079635
 11
-55.97611
 21
-52.079635
  0
LINE
  8
型材断面
  6
CONTINUOUS
 10
-50.85111
 20
-52.008922
 11
-55.976112
 21
-46.883925
  0
LINE
  8
型材断面
  6
DASHDOT
 10
-70.976112
 20
25.084425
 11
-40.976112
 21
25.084425
  0
LINE
  8
型材断面
  6
CONTINUOUS
 10
-61.101112
 20
34.959423
 11
-61.101112
 21
40.084423
  0
LINE
  8
型材断面
  6
CONTINUOUS
 10
-61.101112
 20
34.959423
 11
-55.976112
 21
34.959423
  0
LINE
  8
型材断面
  6
CONTINUOUS
 10
-50.851112
 20
45.209427
 11
-50.851112
 21
40.084427
  0
LINE
  8
型材断面
  6
CONTINUOUS
 10
-50.851112
 20
45.209427
 11
-55.976112
 21
45.209427
  0
LINE
  8
型材断面
  6
CONTINUOUS
 10
-61.101112
 20
45.209427
 11
-61.101112
 21
40.084427
  0
LINE
  8
型材断面
  6
CONTINUOUS
 10
-61.101112
 20
45.209427
 11
-55.976112
 21
45.209427
  0
LINE
  8
型材断面
  6
CONTINUOUS
 10
-61.101112
 20
45.209427
 11
-61.101112
 21
40.084427
  0
LINE
  8
型材断面
  6
CONTINUOUS
 10
-61.101112
 20
45.209427
 11
-55.976112
 21
45.209427
  0
LINE
  8
型材断面
  6
CONTINUOUS
 10
-50.851112
 20
45.209427
 11
-50.851112
 21
40.084427
  0
LINE
  8
型材断面
  6
CONTINUOUS
 10
-50.851112
 20
45.209427
 11
-55.976112
 21
45.209427
  0
LINE
  8
型材断面
  6
CONTINUOUS
 10
-50.85111
 20
34.959425
 11
-55.97611
 21
34.959425
  0
LINE
  8
型材断面
  6
CONTINUOUS
 10
-50.85111
 20
34.959425
 11
-50.85111
 21
40.084425
  0
LINE
  8
型材断面
  6
DASHDOT
 10
-70.976112
 20
55.084425
 11
-40.976112
 21
55.084425
  0
LINE
  8
型材断面
  6
DASHDOT
 10
-70.976112
 20
40.084425
 11
-40.976112
 21
40.084425
  0
LINE
  8
型材断面
  6
CONTINUOUS
 10
-78.999985
 20
30.634423
 11
-82.885745
 21
31.528507
  0
LINE
  8
型材断面
  6
CONTINUOUS
 10
-78.999985
 20
30.634423
 11
-82.885745
 21
29.740337
  0
LINE
  8
型材断面
  6
CONTINUOUS
 10
-82.885745
 20
29.740337
 11
-82.885745
 21
31.528507
  0
LINE
  8
型材断面
  6
CONTINUOUS
 10
-78.999985
 20
40.084425
 11
-82.885745
 21
37.84098
  0
LINE
  8
型材断面
  6
CONTINUOUS
 10
-78.999985
 20
40.084425
 11
-82.885745
 21
42.32787
  0
LINE
  8
型材断面
  6
CONTINUOUS
 10
-82.885745
 20
42.32787
 11
-82.885745
 21
37.84098
  0
LINE
  8
型材断面
  6
CONTINUOUS
 10
-78.999985
 20
49.534427
 11
-82.885745
 21
48.640343
  0
LINE
  8
型材断面
  6
CONTINUOUS
 10
-78.999985
 20
49.534427
 11
-82.885745
 21
50.428513
  0
LINE
  8
型材断面
  6
CONTINUOUS
 10
-82.885745
 20
50.428513
 11
-82.885745
 21
48.640343
  0
LINE
  8
型材断面
  6
CONTINUOUS
 10
-32.952235
 20
30.634423
 11
-29.066475
 21
31.528507
  0
LINE
  8
型材断面
  6
CONTINUOUS
 10
-32.952235
 20
30.634423
 11
-29.066475
 21
29.740337
  0
LINE
  8
型材断面
  6
CONTINUOUS
 10
-29.066475
 20
29.740337
 11
-29.066475
 21
31.528507
  0
LINE
  8
型材断面
  6
CONTINUOUS
 10
-32.952235
 20
40.084425
 11
-29.066475
 21
37.84098
  0
LINE
  8
型材断面
  6
CONTINUOUS
 10
-32.952235
 20
40.084425
 11
-29.066475
 21
42.32787
  0
LINE
  8
型材断面
  6
CONTINUOUS
 10
-29.066475
 20
42.32787
 11
-29.066475
 21
37.84098
  0
LINE
  8
型材断面
  6
CONTINUOUS
 10
-32.952235
 20
49.534427
 11
-29.066475
 21
48.640343
  0
LINE
  8
型材断面
  6
CONTINUOUS
 10
-32.952235
 20
49.534427
 11
-29.066475
 21
50.428513
  0
LINE
  8
型材断面
  6
CONTINUOUS
 10
-29.066475
 20
50.428513
 11
-29.066475
 21
48.640343
  0
LINE
  8
型材断面
  6
CONTINUOUS
 10
-55.976112
 20
63.108297
 11
-58.219557
 21
66.994058
  0
LINE
  8
型材断面
  6
CONTINUOUS
 10
-55.976112
 20
63.108297
 11
-53.732668
 21
66.994058
  0
LINE
  8
型材断面
  6
CONTINUOUS
 10
-53.732668
 20
66.994058
 11
-58.219557
 21
66.994058
  0
LINE
  8
型材断面
  6
CONTINUOUS
 10
-55.976112
 20
17.060548
 11
-58.219557
 21
13.174787
  0
LINE
  8
型材断面
  6
CONTINUOUS
 10
-55.976112
 20
17.060548
 11
-53.732668
 21
13.174787
  0
LINE
  8
型材断面
  6
CONTINUOUS
 10
-53.732668
 20
13.174787
 11
-58.219557
 21
13.174787
  0
LINE
  8
型材断面
  6
DOT
 10
-45.312593
 20
25.084425
 11
-45.312593
 21
55.084427
  0
LINE
  8
型材断面
  6
DOT
 10
-43.312593
 20
25.084425
 11
-43.312593
 21
55.084427
  0
LINE
  8
型材断面
  6
CONTINUOUS
 10
-16.303323
 20
18.1855
 11
-18.546767
 21
14.29974
  0
LINE
  8
型材断面
  6
CONTINUOUS
 10
-16.303323
 20
18.1855
 11
-14.059878
 21
14.29974
  0
LINE
  8
型材断面
  6
CONTINUOUS
 10
-14.059878
 20
14.29974
 11
-18.546767
 21
14.29974
  0
LINE
  8
型材断面
  6
CONTINUOUS
 10
-16.303323
 20
10.495953
 11
-15.409238
 21
6.610193
  0
LINE
  8
型材断面
  6
CONTINUOUS
 10
-16.303323
 20
10.495953
 11
-17.197408
 21
6.610193
  0
LINE
  8
型材断面
  6
CONTINUOUS
 10
-17.197408
 20
6.610193
 11
-15.409238
 21
6.610193
  0
LINE
  8
型材断面
  6
CONTINUOUS
 10
-25.337202
 20
12.891848
 11
27.319477
 21
12.891848
  0
LINE
  8
型材断面
  6
CONTINUOUS
 10
-25.337202
 20
1.691855
 11
27.319477
 21
1.691855
  0
LINE
  8
型材断面
  6
CONTINUOUS
 10
-25.337202
 20
-5.14809
 11
27.319477
 21
-5.14809
  0
POLYLINE
  8
型材断面
  6
CONTINUOUS
 66
     1
 70
     1
  0
VERTEX
  8
型材断面
 10
-46.769268
 20
11.132915
  0
VERTEX
  8
型材断面
 10
-65.32448
 20
11.132915
  0
VERTEX
  8
型材断面
 10
-65.32448
 20
6.34088
  0
VERTEX
  8
型材断面
 10
-46.769268
 20
6.34088
  0
SEQEND
  0
POLYLINE
  8
型材断面
  6
CONTINUOUS
 66
     1
 70
     1
  0
VERTEX
  8
型材断面
 10
-46.769268
 20
73.524878
  0
VERTEX
  8
型材断面
 10
-65.32448
 20
73.524878
  0
VERTEX
  8
型材断面
 10
-65.32448
 20
68.732842
  0
VERTEX
  8
型材断面
 10
-46.769268
 20
68.732842
  0
SEQEND
  0
LINE
  8
型材断面
  6
CONTINUOUS
 10
-25.337202
 20
-11.988035
 11
27.319477
 21
-11.988035
  0
LINE
  8
型材断面
  6
CONTINUOUS
 10
-55.976112
 20
-72.138213
 11
-75.120892
 21
-72.138213
  0
LINE
  8
型材断面
  6
CONTINUOUS
 10
-55.976112
 20
-71.875345
 11
-75.626115
 21
-71.875345
  0
LINE
  8
型材断面
  6
CONTINUOUS
 10
-55.976112
 20
-71.175345
 11
-76.476115
 21
-71.175345
  0
LINE
  8
型材断面
  6
CONTINUOUS
 10
-55.976112
 20
-68.225345
 11
-76.476115
 21
-68.225345
  0
LINE
  8
型材断面
  6
CONTINUOUS
 10
-55.976112
 20
-67.525345
 11
-76.476115
 21
-67.525345
  0
LINE
  8
型材断面
  6
CONTINUOUS
 62
    47
 10
-76.476115
 20
-68.225345
 11
-76.476115
 21
-71.175345
  0
LINE
  8
型材断面
  6
CONTINUOUS
 62
    47
 10
-75.626115
 20
-71.175345
 11
-75.626115
 21
-71.875345
  0
LINE
  8
型材断面
  6
CONTINUOUS
 62
    47
 10
-75.38016
 20
-66.429395
 11
-76.476112
 21
-67.525345
  0
LINE
  8
型材断面
  6
CONTINUOUS
 62
    47
 10
-76.476112
 20
-68.225345
 11
-76.476112
 21
-67.525345
  0
LINE
  8
型材断面
  6
CONTINUOUS
 62
    47
 10
-75.120892
 20
-72.138213
 11
-74.858025
 21
-71.875345
  0
LINE
  8
型材断面
  6
CONTINUOUS
 10
-55.976112
 20
-66.429395
 11
-75.380163
 21
-66.429395
  0
LINE
  8
型材断面
  6
CONTINUOUS
 10
-55.976112
 20
-72.138213
 11
-36.831333
 21
-72.138213
  0
LINE
  8
型材断面
  6
CONTINUOUS
 10
-55.976112
 20
-71.875345
 11
-36.32611
 21
-71.875345
  0
LINE
  8
型材断面
  6
CONTINUOUS
 10
-55.976112
 20
-71.175345
 11
-35.47611
 21
-71.175345
  0
LINE
  8
型材断面
  6
CONTINUOUS
 10
-55.976112
 20
-68.225345
 11
-35.47611
 21
-68.225345
  0
LINE
  8
型材断面
  6
CONTINUOUS
 10
-55.976112
 20
-67.525345
 11
-35.47611
 21
-67.525345
  0
LINE
  8
型材断面
  6
CONTINUOUS
 62
    47
 10
-35.47611
 20
-68.225345
 11
-35.47611
 21
-71.175345
  0
LINE
  8
型材断面
  6
CONTINUOUS
 62
    47
 10
-36.32611
 20
-71.175345
 11
-36.32611
 21
-71.875345
  0
LINE
  8
型材断面
  6
CONTINUOUS
 62
    47
 10
-36.572065
 20
-66.429395
 11
-35.476112
 21
-67.525345
  0
LINE
  8
型材断面
  6
CONTINUOUS
 62
    47
 10
-35.476112
 20
-68.225345
 11
-35.476112
 21
-67.525345
  0
LINE
  8
型材断面
  6
CONTINUOUS
 62
    47
 10
-36.831333
 20
-72.138213
 11
-37.0942
 21
-71.875345
  0
LINE
  8
型材断面
  6
CONTINUOUS
 10
-55.976112
 20
-66.429395
 11
-36.572062
 21
-66.429395
  0
LINE
  8
型材断面
  6
CONTINUOUS
 10
-71.21095
 20
-66.07584
 11
-57.214745
 21
-52.079635
  0
LINE
  8
型材断面
  6
CONTINUOUS
 10
-71.352373
 20
-66.07584
 11
-57.356167
 21
-52.079635
  0
LINE
  8
型材断面
  6
CONTINUOUS
 10
-40.741275
 20
-66.07584
 11
-54.73748
 21
-52.079635
  0
LINE
  8
型材断面
  6
CONTINUOUS
 10
-40.599852
 20
-66.07584
 11
-54.596058
 21
-52.079635
  0
LINE
  8
型材断面
  6
CONTINUOUS
 10
-55.976112
 20
-47.025345
 11
-75.380163
 21
-66.429395
  0
LINE
  8
型材断面
  6
CONTINUOUS
 10
-55.976112
 20
-47.025345
 11
-36.572062
 21
-66.429395
  0
LINE
  8
型材断面
  6
CONTINUOUS
 10
-36.57207
 20
59.488465
 11
-75.38016
 21
59.48848
  0
LINE
  8
型材断面
  6
CONTINUOUS
 10
-35.476115
 20
60.58442
 11
-76.476115
 21
60.584435
  0
LINE
  8
型材断面
  6
CONTINUOUS
 10
-75.38016
 20
59.48848
 11
-75.38016
 21
20.68038
  0
LINE
  8
型材断面
  6
CONTINUOUS
 10
-76.476115
 20
60.584435
 11
-76.476115
 21
19.584425
  0
LINE
  8
型材断面
  6
CONTINUOUS
 10
-76.476115
 20
19.584425
 11
-35.476105
 21
19.58442
  0
LINE
  8
型材断面
  6
CONTINUOUS
 10
-35.476115
 20
60.58442
 11
-35.476105
 21
19.58442
  0
LINE
  8
型材断面
  6
CONTINUOUS
 10
-75.38016
 20
20.68038
 11
-36.57206
 21
20.680375
  0
LINE
  8
型材断面
  6
CONTINUOUS
 10
-36.57207
 20
59.488465
 11
-36.57206
 21
20.680375
  0
LINE
  8
型材断面
  6
CONTINUOUS
 10
-55.976112
 20
40.084425
 11
-76.476115
 21
19.584425
  0
LINE
  8
型材断面
  6
CONTINUOUS
 10
-55.976112
 20
40.084425
 11
-35.47611
 21
19.584425
  0
LINE
  8
型材断面
  6
CONTINUOUS
 10
-55.976112
 20
40.084425
 11
-35.47611
 21
60.584425
  0
LINE
  8
型材断面
  6
CONTINUOUS
 10
-55.976112
 20
40.084425
 11
-76.476115
 21
60.584425
  0
LINE
  8
型材断面
  6
CONTINUOUS
 10
-40.741275
 20
-66.07584
 11
-36.925618
 21
-66.07584
  0
LINE
  8
型材断面
  6
CONTINUOUS
 10
-75.026607
 20
-66.07584
 11
-71.21095
 21
-66.07584
  0
LINE
  8
型材断面
  6
CONTINUOUS
 10
102.26457
 20
-52.008922
 11
102.335282
 21
-52.079635
  0
LINE
  8
型材断面
  6
CONTINUOUS
 10
102.26457
 20
-52.008922
 11
107.38957
 21
-52.008922
  0
LINE
  8
型材断面
  6
CONTINUOUS
 10
102.335282
 20
-52.079635
 11
107.38957
 21
-52.079635
  0
LINE
  8
型材断面
  6
CONTINUOUS
 10
102.26457
 20
-52.008922
 11
107.389573
 21
-46.883925
  0
LINE
  8
型材断面
  6
CONTINUOUS
 10
112.514575
 20
-52.008922
 11
112.443863
 21
-52.079635
  0
LINE
  8
型材断面
  6
CONTINUOUS
 10
112.514575
 20
-52.008922
 11
107.389575
 21
-52.008922
  0
LINE
  8
型材断面
  6
CONTINUOUS
 10
112.443863
 20
-52.079635
 11
107.389575
 21
-52.079635
  0
LINE
  8
型材断面
  6
CONTINUOUS
 10
112.514575
 20
-52.008922
 11
107.389573
 21
-46.883925
  0
LINE
  8
型材断面
  6
CONTINUOUS
 10
107.389573
 20
-72.138213
 11
88.244793
 21
-72.138213
  0
LINE
  8
型材断面
  6
CONTINUOUS
 10
107.389573
 20
-71.875345
 11
87.73957
 21
-71.875345
  0
LINE
  8
型材断面
  6
CONTINUOUS
 10
107.389573
 20
-71.175345
 11
86.88957
 21
-71.175345
  0
LINE
  8
型材断面
  6
CONTINUOUS
 10
107.389573
 20
-68.225345
 11
86.88957
 21
-68.225345
  0
LINE
  8
型材断面
  6
CONTINUOUS
 10
107.389573
 20
-67.525345
 11
86.88957
 21
-67.525345
  0
LINE
  8
型材断面
  6
CONTINUOUS
 62
    47
 10
86.88957
 20
-68.225345
 11
86.88957
 21
-71.175345
  0
LINE
  8
型材断面
  6
CONTINUOUS
 62
    47
 10
87.73957
 20
-71.175345
 11
87.73957
 21
-71.875345
  0
LINE
  8
型材断面
  6
CONTINUOUS
 62
    47
 10
87.985525
 20
-66.429395
 11
86.889573
 21
-67.525345
  0
LINE
  8
型材断面
  6
CONTINUOUS
 62
    47
 10
86.889573
 20
-68.225345
 11
86.889573
 21
-67.525345
  0
LINE
  8
型材断面
  6
CONTINUOUS
 62
    47
 10
88.244793
 20
-72.138213
 11
88.50766
 21
-71.875345
  0
LINE
  8
型材断面
  6
CONTINUOUS
 10
107.389573
 20
-66.429395
 11
87.985522
 21
-66.429395
  0
LINE
  8
型材断面
  6
CONTINUOUS
 10
107.389573
 20
-72.138213
 11
126.534353
 21
-72.138213
  0
LINE
  8
型材断面
  6
CONTINUOUS
 10
107.389573
 20
-71.875345
 11
127.039575
 21
-71.875345
  0
LINE
  8
型材断面
  6
CONTINUOUS
 10
107.389573
 20
-71.175345
 11
127.889575
 21
-71.175345
  0
LINE
  8
型材断面
  6
CONTINUOUS
 10
107.389573
 20
-68.225345
 11
127.889575
 21
-68.225345
  0
LINE
  8
型材断面
  6
CONTINUOUS
 10
107.389573
 20
-67.525345
 11
127.889575
 21
-67.525345
  0
LINE
  8
型材断面
  6
CONTINUOUS
 62
    47
 10
127.889575
 20
-68.225345
 11
127.889575
 21
-71.175345
  0
LINE
  8
型材断面
  6
CONTINUOUS
 62
    47
 10
127.039575
 20
-71.175345
 11
127.039575
 21
-71.875345
  0
LINE
  8
型材断面
  6
CONTINUOUS
 62
    47
 10
126.79362
 20
-66.429395
 11
127.889573
 21
-67.525345
  0
LINE
  8
型材断面
  6
CONTINUOUS
 62
    47
 10
127.889573
 20
-68.225345
 11
127.889573
 21
-67.525345
  0
LINE
  8
型材断面
  6
CONTINUOUS
 62
    47
 10
126.534353
 20
-72.138213
 11
126.271485
 21
-71.875345
  0
LINE
  8
型材断面
  6
CONTINUOUS
 10
107.389573
 20
-66.429395
 11
126.793622
 21
-66.429395
  0
LINE
  8
型材断面
  6
CONTINUOUS
 10
92.154735
 20
-66.07584
 11
106.15094
 21
-52.079635
  0
LINE
  8
型材断面
  6
CONTINUOUS
 10
92.013313
 20
-66.07584
 11
106.009518
 21
-52.079635
  0
LINE
  8
型材断面
  6
CONTINUOUS
 10
122.62441
 20
-66.07584
 11
108.628205
 21
-52.079635
  0
LINE
  8
型材断面
  6
CONTINUOUS
 10
122.765833
 20
-66.07584
 11
108.769628
 21
-52.079635
  0
LINE
  8
型材断面
  6
CONTINUOUS
 10
107.389573
 20
-47.025345
 11
87.985522
 21
-66.429395
  0
LINE
  8
型材断面
  6
CONTINUOUS
 10
107.389573
 20
-47.025345
 11
126.793622
 21
-66.429395
  0
LINE
  8
型材断面
  6
CONTINUOUS
 10
122.62441
 20
-66.07584
 11
126.440068
 21
-66.07584
  0
LINE
  8
型材断面
  6
CONTINUOUS
 10
88.339077
 20
-66.07584
 11
92.154735
 21
-66.07584
  0
INSERT
  2
*GRP_0012
  8
型材断面
  6
DOT
 10
0.0
 20
0.0
  0
INSERT
  2
*GRP_0014
  8
型材断面
  6
CONTINUOUS
 10
0.0
 20
0.0
  0
INSERT
  2
*GRP_0015
  8
型材断面
  6
CONTINUOUS
 10
0.0
 20
0.0
  0
LINE
  8
型材断面
  6
CONTINUOUS
 10
-75.026607
 20
21.033933
 11
-75.026607
 21
24.681898
  0
LINE
  8
型材断面
  6
CONTINUOUS
 10
-75.026607
 20
21.033933
 11
-71.378643
 21
21.033933
  0
LINE
  8
型材断面
  6
CONTINUOUS
 10
-71.378643
 20
21.033933
 11
-57.45315
 21
34.959423
  0
LINE
  8
型材断面
  6
CONTINUOUS
 10
-75.026607
 20
24.681898
 11
-61.101112
 21
38.60739
  0
LINE
  8
型材断面
  6
CONTINUOUS
 10
-36.925618
 20
21.033933
 11
-36.925618
 21
24.681898
  0
LINE
  8
型材断面
  6
CONTINUOUS
 10
-36.925618
 20
21.033933
 11
-40.573582
 21
21.033933
  0
LINE
  8
型材断面
  6
CONTINUOUS
 10
-40.573582
 20
21.033933
 11
-54.499075
 21
34.959423
  0
LINE
  8
型材断面
  6
CONTINUOUS
 10
-36.925618
 20
24.681898
 11
-50.85111
 21
38.607388
  0
LINE
  8
型材断面
  6
CONTINUOUS
 10
-36.925618
 20
59.134917
 11
-36.925618
 21
55.486953
  0
LINE
  8
型材断面
  6
CONTINUOUS
 10
-36.925618
 20
59.134917
 11
-40.573582
 21
59.134917
  0
LINE
  8
型材断面
  6
CONTINUOUS
 10
-40.573582
 20
59.134917
 11
-54.499075
 21
45.209427
  0
LINE
  8
型材断面
  6
CONTINUOUS
 10
-36.925618
 20
55.486953
 11
-50.85111
 21
41.561463
  0
LINE
  8
型材断面
  6
CONTINUOUS
 10
-75.026607
 20
59.134917
 11
-75.026607
 21
55.486953
  0
LINE
  8
型材断面
  6
CONTINUOUS
 10
-75.026607
 20
59.134917
 11
-71.378643
 21
59.134917
  0
LINE
  8
型材断面
  6
CONTINUOUS
 10
-71.378643
 20
59.134917
 11
-57.45315
 21
45.209427
  0
LINE
  8
型材断面
  6
CONTINUOUS
 10
-75.026607
 20
55.486953
 11
-61.101115
 21
41.561463
  0
LINE
  8
型材断面
  6
CONTINUOUS
 10
83.97744
 20
56.105552
 11
107.909063
 21
56.105552
  0
LINE
  8
型材断面
  6
DASHDOT
 10
-70.976112
 20
-78.438137
 11
-70.976112
 21
55.084425
  0
LINE
  8
型材断面
  6
DASHDOT
 10
-55.976112
 20
-78.438137
 11
-55.976112
 21
55.084425
  0
LINE
  8
型材断面
  6
DASHDOT
 10
-40.976112
 20
-78.438137
 11
-40.976112
 21
55.084425
  0
LINE
  8
型材断面
  6
CONTINUOUS
 10
-55.976112
 20
-78.500345
 11
-74.370892
 21
-78.500345
  0
LINE
  8
型材断面
  6
CONTINUOUS
 10
-55.976112
 20
-77.995345
 11
-75.120892
 21
-77.995345
  0
LINE
  8
型材断面
  6
CONTINUOUS
 62
    47
 10
-74.370892
 20
-77.995345
 11
-74.370892
 21
-78.500345
  0
LINE
  8
型材断面
  6
CONTINUOUS
 62
    47
 10
-75.120892
 20
-72.138213
 11
-75.120892
 21
-77.995345
  0
LINE
  8
型材断面
  6
CONTINUOUS
 10
-55.976112
 20
-78.500345
 11
-37.581333
 21
-78.500345
  0
LINE
  8
型材断面
  6
CONTINUOUS
 10
-55.976112
 20
-77.995345
 11
-36.831333
 21
-77.995345
  0
LINE
  8
型材断面
  6
CONTINUOUS
 62
    47
 10
-37.581333
 20
-77.995345
 11
-37.581333
 21
-78.500345
  0
LINE
  8
型材断面
  6
CONTINUOUS
 62
    47
 10
-36.831333
 20
-72.138213
 11
-36.831333
 21
-77.995345
  0
LINE
  8
型材断面
  6
CONTINUOUS
 10
107.389573
 20
-78.500345
 11
88.994793
 21
-78.500345
  0
LINE
  8
型材断面
  6
CONTINUOUS
 10
107.389573
 20
-77.995345
 11
88.244793
 21
-77.995345
  0
LINE
  8
型材断面
  6
CONTINUOUS
 62
    47
 10
88.994793
 20
-77.995345
 11
88.994793
 21
-78.500345
  0
LINE
  8
型材断面
  6
CONTINUOUS
 62
    47
 10
88.244793
 20
-72.138213
 11
88.244793
 21
-77.995345
  0
LINE
  8
型材断面
  6
CONTINUOUS
 10
107.389573
 20
-78.500345
 11
125.784353
 21
-78.500345
  0
LINE
  8
型材断面
  6
CONTINUOUS
 10
107.389573
 20
-77.995345
 11
126.534353
 21
-77.995345
  0
LINE
  8
型材断面
  6
CONTINUOUS
 62
    47
 10
125.784353
 20
-77.995345
 11
125.784353
 21
-78.500345
  0
LINE
  8
型材断面
  6
CONTINUOUS
 62
    47
 10
126.534353
 20
-72.138213
 11
126.534353
 21
-77.995345
  0
LINE
  8
ガラス
  6
CONTINUOUS
 10
-54.088407
 20
53.473393
 11
-57.961042
 21
49.600757
  0
LINE
  8
ガラス
  6
CONTINUOUS
 10
-54.96873
 20
51.875035
 11
-56.362685
 21
50.48108
  0
LINE
  8
ガラス
  6
CONTINUOUS
 10
-55.686765
 20
52.59307
 11
-57.08072
 21
51.199115
  0
LINE
  8
ガラス
  6
CONTINUOUS
 10
-54.088407
 20
29.387925
 11
-57.961042
 21
25.51529
  0
LINE
  8
ガラス
  6
CONTINUOUS
 10
-54.96873
 20
27.789567
 11
-56.362685
 21
26.395613
  0
LINE
  8
ガラス
  6
CONTINUOUS
 10
-55.686765
 20
28.507603
 11
-57.08072
 21
27.113647
  0
LINE
  8
ガラス
  6
CONTINUOUS
 10
-41.62827
 20
42.03992
 11
-45.500905
 21
38.167285
  0
LINE
  8
ガラス
  6
CONTINUOUS
 10
-42.508593
 20
40.441562
 11
-43.902548
 21
39.047608
  0
LINE
  8
ガラス
  6
CONTINUOUS
 10
-43.226627
 20
41.159598
 11
-44.620582
 21
39.765642
  0
LINE
  8
ガラス
  6
CONTINUOUS
 10
-66.257107
 20
42.03992
 11
-70.129742
 21
38.167285
  0
LINE
  8
ガラス
  6
CONTINUOUS
 10
-67.13743
 20
40.441562
 11
-68.531385
 21
39.047608
  0
LINE
  8
ガラス
  6
CONTINUOUS
 10
-67.855465
 20
41.159598
 11
-69.24942
 21
39.765642
  0
LINE
  8
ガラス
  6
CONTINUOUS
 10
-54.088407
 20
-59.876625
 11
-57.961042
 21
-63.74926
  0
LINE
  8
ガラス
  6
CONTINUOUS
 10
-54.96873
 20
-61.474982
 11
-56.362685
 21
-62.868937
  0
LINE
  8
ガラス
  6
CONTINUOUS
 10
-55.686765
 20
-60.756948
 11
-57.08072
 21
-62.150903
  0
LINE
  8
ガラス
  6
CONTINUOUS
 10
109.277277
 20
-59.876625
 11
105.404643
 21
-63.74926
  0
LINE
  8
ガラス
  6
CONTINUOUS
 10
108.396955
 20
-61.474982
 11
107.003
 21
-62.868937
  0
LINE
  8
ガラス
  6
CONTINUOUS
 10
107.67892
 20
-60.756948
 11
106.284965
 21
-62.150903
  0
LINE
  8
ガラス
  6
CONTINUOUS
 10
96.561965
 20
33.309158
 11
131.204725
 21
33.309158
  0
LINE
  8
ガラス
  6
CONTINUOUS
 10
96.561965
 20
33.309158
 11
113.883345
 21
57.805287
  0
LINE
  8
ガラス
  6
CONTINUOUS
 10
131.204725
 20
33.309158
 11
113.883345
 21
57.805287
  0
CIRCLE
  8
ボルト／ビス
  6
CONTINUOUS
 10
-74.120892
 20
-73.223035
 40
0.25
  0
CIRCLE
  8
ボルト／ビス
  6
CONTINUOUS
 10
-74.120892
 20
-73.223035
 40
0.2
  0
CIRCLE
  8
ボルト／ビス
  6
CONTINUOUS
 10
-74.120892
 20
-76.438035
 40
0.25
  0
CIRCLE
  8
ボルト／ビス
  6
CONTINUOUS
 10
-74.120892
 20
-76.438035
 40
0.2
  0
CIRCLE
  8
ボルト／ビス
  6
CONTINUOUS
 10
-37.831333
 20
-73.223035
 40
0.25
  0
CIRCLE
  8
ボルト／ビス
  6
CONTINUOUS
 10
-37.831333
 20
-73.223035
 40
0.2
  0
CIRCLE
  8
ボルト／ビス
  6
CONTINUOUS
 10
-37.831333
 20
-76.438035
 40
0.25
  0
CIRCLE
  8
ボルト／ビス
  6
CONTINUOUS
 10
-37.831333
 20
-76.438035
 40
0.2
  0
CIRCLE
  8
ボルト／ビス
  6
CONTINUOUS
 10
89.244793
 20
-73.223035
 40
0.25
  0
CIRCLE
  8
ボルト／ビス
  6
CONTINUOUS
 10
89.244793
 20
-73.223035
 40
0.2
  0
CIRCLE
  8
ボルト／ビス
  6
CONTINUOUS
 10
89.244793
 20
-76.438035
 40
0.25
  0
CIRCLE
  8
ボルト／ビス
  6
CONTINUOUS
 10
89.244793
 20
-76.438035
 40
0.2
  0
CIRCLE
  8
ボルト／ビス
  6
CONTINUOUS
 10
125.534353
 20
-73.223035
 40
0.25
  0
CIRCLE
  8
ボルト／ビス
  6
CONTINUOUS
 10
125.534353
 20
-73.223035
 40
0.2
  0
CIRCLE
  8
ボルト／ビス
  6
CONTINUOUS
 10
125.534353
 20
-76.438035
 40
0.25
  0
CIRCLE
  8
ボルト／ビス
  6
CONTINUOUS
 10
125.534353
 20
-76.438035
 40
0.2
  0
TEXT
  7
TextStyle03
  8
文字
  6
CONTINUOUS
 10
62.075
 20
102.575
  1
ＮＳコード：ＮＳ４Ｃ
 40
5.0
 72
     5
 11
117.7
 21
102.575
  0
TEXT
  7
TextStyle03
  8
文字
  6
CONTINUOUS
 10
61.85
 20
124.225
  1
シリーズ：ＴＦ４
 40
5.0
 72
     5
 11
106.225
 21
124.225
  0
TEXT
  7
TextStyle03
  8
文字
  6
CONTINUOUS
 10
61.85
 20
118.6
  1
　　　　　四角錘（上下可動）600×600タイプ
 40
5.0
 72
     5
 11
179.35
 21
118.6
  0
TEXT
  7
TextStyle03
  8
文字
  6
CONTINUOUS
 10
61.85
 20
112.975
  1
図面名　：外観姿図
 40
5.0
 72
     5
 11
111.85
 21
112.975
  0
TEXT
  7
TextStyle03
  8
文字
  6
CONTINUOUS
 10
61.85
 20
107.35
  1
　　　　　　
 40
5.0
 72
     5
 11
94.975
 21
107.35
  0
TEXT
  7
TextStyle03
  8
文字
  6
CONTINUOUS
 10
-77.375
 20
81.475
  1
アンカーピッチ
 40
3.0
 72
     5
 11
-54.125
 21
81.475
  0
TEXT
  7
TextStyle03
  8
文字
  6
CONTINUOUS
 10
-16.05
 20
32.475
  1
ﾊﾞﾗﾝｽｽﾃｰ
 40
3.0
 72
     5
 11
-2.7375
 21
32.475
  0
TEXT
  7
TextStyle03
  8
文字
  6
CONTINUOUS
 10
-12.025
 20
14.65
  1
は排水穴位置を示す
 40
3.0
 72
     5
 11
17.975
 21
14.65
  0
TEXT
  7
TextStyle03
  8
文字
  6
CONTINUOUS
 10
-12.025
 20
6.8
  1
はケーシング位置を示す
 40
3.0
 72
     5
 11
24.725
 21
6.8
  0
TEXT
  7
TextStyle03
  8
文字
  6
CONTINUOUS
 10
-12.025
 20
3.425
  1
４ヶ所中1ヶ所に設定
 40
3.0
 72
     5
 11
19.6625
 21
3.425
  0
TEXT
  7
TextStyle03
  8
文字
  6
CONTINUOUS
 10
-17.625
 20
-3.725
  1
アンカー数量　４ヶ所
 40
3.0
 72
     5
 11
15.75
 21
-3.725
  0
TEXT
  7
TextStyle03
  8
文字
  6
CONTINUOUS
 10
-64.35
 20
7.325
  1
可動装置側
 40
3.0
 72
     5
 11
-47.85
 21
7.325
  0
TEXT
  7
TextStyle03
  8
文字
  6
CONTINUOUS
 10
-64.35
 20
69.7
  1
可動装置側
 40
3.0
 72
     5
 11
-47.85
 21
69.7
  0
TEXT
  7
TextStyle03
  8
文字
  6
CONTINUOUS
 10
-17.625
 20
-10.55
  1
アームユニット数　２ヶ所
 40
3.0
 72
     5
 11
22.5
 21
-10.55
  0
TEXT
  7
TextStyle03
  8
文字
  6
CONTINUOUS
 10
117.725
 20
34.85
  1
×４枚
 40
3.0
 72
     5
 11
127.475
 21
34.85
  0
TEXT
  7
TextStyle03
  8
文字
  6
CONTINUOUS
 10
87.625
 20
57.325
  1
ガラス寸法
 40
3.0
 72
     5
 11
104.125
 21
57.325
  0
INSERT
  2
*DIM_0002
  8
寸法
  6
CONTINUOUS
 10
0.0
 20
0.0
  0
INSERT
  2
*DIM_0003
  8
寸法
  6
CONTINUOUS
 10
0.0
 20
0.0
  0
INSERT
  2
*DIM_0004
  8
寸法
  6
CONTINUOUS
 10
0.0
 20
0.0
  0
INSERT
  2
*DIM_0005
  8
寸法
  6
CONTINUOUS
 10
0.0
 20
0.0
  0
INSERT
  2
*DIM_0006
  8
寸法
  6
CONTINUOUS
 10
0.0
 20
0.0
  0
INSERT
  2
*DIM_0007
  8
寸法
  6
CONTINUOUS
 10
0.0
 20
0.0
  0
INSERT
  2
*GRP_0008
  8
寸法
  6
CONTINUOUS
 10
0.0
 20
0.0
  0
INSERT
  2
*DIM_0009
  8
寸法
  6
CONTINUOUS
 10
0.0
 20
0.0
  0
INSERT
  2
*DIM_0010
  8
寸法
  6
CONTINUOUS
 10
0.0
 20
0.0
  0
INSERT
  2
*DIM_0011
  8
寸法
  6
CONTINUOUS
 10
0.0
 20
0.0
  0
INSERT
  2
*DIM_0013
  8
寸法
  6
CONTINUOUS
 10
0.0
 20
0.0
  0
INSERT
  2
*DIM_0018
  8
寸法
  6
CONTINUOUS
 10
0.0
 20
0.0
  0
INSERT
  2
*DIM_0021
  8
寸法
  6
CONTINUOUS
 10
0.0
 20
0.0
  0
INSERT
  2
*DIM_0022
  8
寸法
  6
CONTINUOUS
 10
0.0
 20
0.0
  0
ENDSEC
  0
EOF
