  0
SECTION
  2
HEADER
  9
$EXTMIN
 10
-210.0
 20
-148.5
  9
$EXTMAX
 10
210.0
 20
148.5
  9
$PDMODE
 70
    32
  9
$PDSIZE
 40
1.5
  9
$LTSCALE
 40
10.0
  0
ENDSEC
  0
SECTION
  2
TABLES
  0
TABLE
  2
LTYPE
 70
    15
  0
LTYPE
  2
CONTINUOUS
 70
    64
  3
実線
 72
    65
 73
     0
 40
0.0
  0
LTYPE
  2
DASHED
 70
    64
  3
破線A
 72
    65
 73
     2
 40
0.6
 49
0.4
 49
-0.2
  0
LTYPE
  2
DASHEDX2
 70
    64
  3
破線B
 72
    65
 73
     2
 40
1.3
 49
0.9
 49
-0.4
  0
LTYPE
  2
DASHDOT
 70
    64
  3
１点鎖線A
 72
    65
 73
     4
 40
0.5375
 49
0.375
 49
-0.05
 49
0.0625
 49
-0.05
  0
LTYPE
  2
DASHDOTX2
 70
    64
  3
１点鎖線B
 72
    65
 73
     4
 40
1.075
 49
0.75
 49
-0.1
 49
0.125
 49
-0.1
  0
LTYPE
  2
DIVIDE2
 70
    64
  3
２点鎖線A
 72
    65
 73
     6
 40
0.5125
 49
0.3
 49
-0.0375
 49
0.05
 49
-0.0375
 49
0.05
 49
-0.0375
  0
LTYPE
  2
DIVIDE
 70
    64
  3
２点鎖線B
 72
    65
 73
     6
 40
1.05
 49
0.55
 49
-0.1
 49
0.1
 49
-0.1
 49
0.1
 49
-0.1
  0
LTYPE
  2
DOT
 70
    64
  3
点線A
 72
    65
 73
     2
 40
0.1125
 49
0.0625
 49
-0.05
  0
LTYPE
  2
DOTX2
 70
    64
  3
点線B
 72
    65
 73
     2
 40
0.275
 49
0.15
 49
-0.125
  0
LTYPE
  2
CONTINUOUS
 70
    64
  3
実線
 72
    65
 73
     0
 40
0.0
  0
LTYPE
  2
CONTINUOUS
 70
    64
  3
実線
 72
    65
 73
     0
 40
0.0
  0
LTYPE
  2
CONTINUOUS
 70
    64
  3
実線
 72
    65
 73
     0
 40
0.0
  0
LTYPE
  2
CONTINUOUS
 70
    64
  3
実線
 72
    65
 73
     0
 40
0.0
  0
LTYPE
  2
CONTINUOUS
 70
    64
  3
実線
 72
    65
 73
     0
 40
0.0
  0
LTYPE
  2
CONTINUOUS
 70
    64
  3
実線
 72
    65
 73
     0
 40
0.0
  0
ENDTAB
  0
TABLE
  2
LAYER
 70
    35
  0
LAYER
  2
通り芯
 70
     0
 62
    15
  6
CONTINUOUS
  0
LAYER
  2
補助線
 70
     0
 62
    16
  6
DOT
  0
LAYER
  2
躯体
 70
     0
 62
    31
  6
CONTINUOUS
  0
LAYER
  2
型材
 70
     0
 62
    32
  6
CONTINUOUS
  0
LAYER
  2
型材断面
 70
     0
 62
    47
  6
CONTINUOUS
  0
LAYER
  2
ガラス
 70
     0
 62
    48
  6
CONTINUOUS
  0
LAYER
  2
ゴム等
 70
     0
 62
    63
  6
CONTINUOUS
  0
LAYER
  2
ボルト／ビス
 70
     0
 62
    64
  6
CONTINUOUS
  0
LAYER
  2
文字
 70
     0
 62
    79
  6
CONTINUOUS
  0
LAYER
  2
寸法
 70
     0
 62
    80
  6
CONTINUOUS
  0
LAYER
  2
ﾊｯﾁﾝｸﾞ
 70
     0
 62
    95
  6
CONTINUOUS
  0
LAYER
  2
別途部材
 70
     0
 62
    96
  6
CONTINUOUS
  0
LAYER
  2
曲げ物
 70
     0
 62
   111
  6
CONTINUOUS
  0
LAYER
  2
鉄骨等
 70
     0
 62
   112
  6
CONTINUOUS
  0
LAYER
  2
St
 70
     0
 62
   127
  6
CONTINUOUS
  0
LAYER
  2
その他部品等
 70
     0
 62
   128
  6
CONTINUOUS
  0
LAYER
  2
ｶﾞｽｹｯﾄ
 70
     0
 62
   143
  6
CONTINUOUS
  0
LAYER
  2
ｽｹｯﾁ
 70
     0
 62
    14
  6
CONTINUOUS
  0
LAYER
  2
0
 70
     0
 62
    17
  6
CONTINUOUS
  0
LAYER
  2
1
 70
     0
 62
    30
  6
CONTINUOUS
  0
LAYER
  2
4
 70
     0
 62
    33
  6
CONTINUOUS
  0
LAYER
  2
ﾚｲﾔ3
 70
     0
 62
    46
  6
CONTINUOUS
  0
LAYER
  2
外形線
 70
     0
 62
    49
  6
CONTINUOUS
  0
LAYER
  2
部品
 70
     0
 62
    14
  6
CONTINUOUS
  0
LAYER
  2
サッシ芯
 70
     0
 62
    17
  6
DASHDOTX2
  0
LAYER
  2
寸法線
 70
     0
 62
    62
  6
CONTINUOUS
  0
LAYER
  2
姿図外形線
 70
     0
 62
    65
  6
CONTINUOUS
  0
LAYER
  2
姿補助線
 70
     0
 62
    30
  6
CONTINUOUS
  0
LAYER
  2
透視線
 70
     0
 62
    78
  6
DOT
  0
LAYER
  2
用紙
 70
     0
 62
    81
  6
CONTINUOUS
  0
LAYER
  2
実線図枠
 70
     0
 62
    94
  6
CONTINUOUS
  0
LAYER
  2
補助図枠
 70
     0
 62
    97
  6
CONTINUOUS
  0
LAYER
  2
建具記号
 70
     0
 62
   110
  6
CONTINUOUS
  0
LAYER
  2
補助文字
 70
     0
 62
   113
  6
CONTINUOUS
  0
LAYER
  2
01
 70
     0
 62
     1
  6
CONTINUOUS
  0
ENDTAB
  0
TABLE
  2
STYLE
 70
    10
  0
STYLE
  2
STANDARD
 70
     0
 40
1.0
 41
1.0
 42
1.0
 50
0.0
 71
     0
  3
TXT
  4
BIGFONT
  0
STYLE
  2
TATE
 70
     4
 40
1.0
 41
1.0
 42
1.0
 50
0.0
 71
     0
  3
TXT
  4
BIGFONT
  0
STYLE
  2
TextStyle03
 70
     0
 40
1.0
 41
1.0
 42
1.0
 50
0.0
 71
     0
  3
MONOTXT
  4
BIGFONT
  0
STYLE
  2
TextStyle04
 70
     0
 40
1.0
 41
1.0
 42
1.0
 50
0.0
 71
     0
  3
MONOTXT
  4
BIGFONT
  0
STYLE
  2
TextStyle05
 70
     0
 40
1.0
 41
1.0
 42
1.0
 50
0.0
 71
     0
  3
MONOTXT
  4
BIGFONT
  0
STYLE
  2
TextStyle06
 70
     0
 40
1.0
 41
1.0
 42
1.0
 50
0.0
 71
     0
  3
MONOTXT
  4
BIGFONT
  0
STYLE
  2
TextStyle07
 70
     0
 40
1.0
 41
1.0
 42
1.0
 50
0.0
 71
     0
  3
MONOTXT
  4
BIGFONT
  0
STYLE
  2
TextStyle08
 70
     0
 40
1.0
 41
1.0
 42
1.0
 50
0.0
 71
     0
  3
MONOTXT
  4
BIGFONT
  0
STYLE
  2
TextStyle09
 70
     0
 40
1.0
 41
1.0
 42
1.0
 50
0.0
 71
     0
  3
MONOTXT
  4
BIGFONT
  0
STYLE
  2
TextStyle10
 70
     0
 40
1.0
 41
1.0
 42
1.0
 50
0.0
 71
     0
  3
MONOTXT
  4
BIGFONT
  0
ENDTAB
  0
ENDSEC
  0
SECTION
  2
BLOCKS
  0
BLOCK
  2
*GRP_0001
 70
    65
 10
0.0
 20
0.0
  0
LINE
  8
型材断面
  6
CONTINUOUS
 10
195.0
 20
133.5
 11
195.0
 21
-133.5
  0
LINE
  8
型材断面
  6
CONTINUOUS
 10
195.0
 20
-133.5
 11
-185.0
 21
-133.5
  0
LINE
  8
型材断面
  6
CONTINUOUS
 10
-185.0
 20
-133.5
 11
-185.0
 21
133.5
  0
LINE
  8
型材断面
  6
CONTINUOUS
 10
195.0
 20
133.5
 11
-185.0
 21
133.5
  0
LINE
  8
型材断面
  6
CONTINUOUS
 10
145.0
 20
-133.5
 11
145.0
 21
-118.5
  0
LINE
  8
型材断面
  6
CONTINUOUS
 10
195.0
 20
-118.5
 11
145.0
 21
-118.5
  0
ENDBLK
  0
BLOCK
  2
*DIM_0002
 70
    65
 10
0.0
 20
0.0
  0
LINE
  8
寸法
  6
BYBLOCK
 62
     0
 10
-75.615367
 20
-51.008922
 11
-75.615367
 21
-34.669278
  0
LINE
  8
寸法
  6
BYBLOCK
 62
     0
 10
-65.365362
 20
-51.008922
 11
-65.365362
 21
-34.669278
  0
LINE
  8
寸法
  6
BYBLOCK
 62
     0
 10
-75.615367
 20
-34.669278
 11
-65.365362
 21
-34.669278
  0
POINT
  8
寸法
 62
     0
 10
-75.615367
 20
-34.669278
  0
POINT
  8
寸法
 62
     0
 10
-65.365362
 20
-34.669278
  0
TEXT
  7
TextStyle03
  8
寸法
  6
CONTINUOUS
 62
     0
 10
-72.9625
 20
-34.275
  1
205
 40
3.0
 72
     5
 11
-68.0875
 21
-34.275
  0
ENDBLK
  0
BLOCK
  2
*DIM_0003
 70
    65
 10
0.0
 20
0.0
  0
LINE
  8
寸法
  6
CONTINUOUS
 10
-53.656665
 20
-46.883925
 11
-52.712385
 21
-46.883925
  0
LINE
  8
寸法
  6
CONTINUOUS
 10
-64.365362
 20
-52.008922
 11
-52.712385
 21
-52.008922
  0
LINE
  8
寸法
  6
CONTINUOUS
 10
-52.712385
 20
-46.883925
 11
-52.712385
 21
-52.008922
  0
POINT
  8
寸法
 10
-52.712385
 20
-46.883925
  0
POINT
  8
寸法
 10
-52.712385
 20
-52.008922
  0
TEXT
  7
TextStyle03
  8
寸法
  6
CONTINUOUS
 10
-49.725
 20
-53.575
  1
102.5
 40
3.0
 50
90.0
 72
     5
 11
-49.725
 21
-45.325
  0
ENDBLK
  0
BLOCK
  2
*DIM_0004
 70
    65
 10
0.0
 20
0.0
  0
LINE
  8
寸法
  6
CONTINUOUS
 10
-42.490362
 20
-70.025345
 11
-42.490362
 21
-17.996455
  0
LINE
  8
寸法
  6
CONTINUOUS
 10
-47.990365
 20
-17.996455
 11
-42.490362
 21
-17.996455
  0
POINT
  8
寸法
 10
-47.990365
 20
-17.996455
  0
POINT
  8
寸法
 10
-42.490362
 20
-17.996455
  0
TEXT
  7
TextStyle03
  8
寸法
  6
CONTINUOUS
 10
-47.6875
 20
-17.625
  1
110
 40
3.0
 72
     5
 11
-42.8125
 21
-17.625
  0
ENDBLK
  0
BLOCK
  2
*DIM_0005
 70
    65
 10
0.0
 20
0.0
  0
LINE
  8
寸法
  6
CONTINUOUS
 10
-98.490367
 20
-70.025345
 11
-98.490367
 21
-17.996455
  0
LINE
  8
寸法
  6
CONTINUOUS
 10
-92.990365
 20
-17.996455
 11
-98.490367
 21
-17.996455
  0
POINT
  8
寸法
 10
-92.990365
 20
-17.996455
  0
POINT
  8
寸法
 10
-98.490367
 20
-17.996455
  0
TEXT
  7
TextStyle03
  8
寸法
  6
CONTINUOUS
 10
-98.1875
 20
-17.625
  1
110
 40
3.0
 72
     5
 11
-93.3125
 21
-17.625
  0
ENDBLK
  0
BLOCK
  2
*DIM_0006
 70
    65
 10
0.0
 20
0.0
  0
LINE
  8
寸法
  6
CONTINUOUS
 10
-37.490362
 20
-75.025345
 11
-26.331772
 21
-75.025345
  0
LINE
  8
寸法
  6
CONTINUOUS
 10
-65.490365
 20
-46.883925
 11
-26.331772
 21
-46.883925
  0
LINE
  8
寸法
  6
CONTINUOUS
 10
-26.331772
 20
-75.025345
 11
-26.331772
 21
-46.883925
  0
POINT
  8
寸法
 10
-26.331772
 20
-46.883925
  0
TEXT
  7
TextStyle03
  8
寸法
  6
CONTINUOUS
 10
-26.725
 20
-65.1
  1
562.8
 40
3.0
 50
90.0
 72
     5
 11
-26.725
 21
-56.85
  0
ENDBLK
  0
BLOCK
  2
*DIM_0007
 70
    65
 10
0.0
 20
0.0
  0
LINE
  8
寸法
  6
CONTINUOUS
 10
-92.990365
 20
-17.996455
 11
-47.990365
 21
-17.996455
  0
POINT
  8
寸法
 10
-92.990365
 20
-17.996455
  0
POINT
  8
寸法
 10
-47.990365
 20
-17.996455
  0
TEXT
  7
TextStyle03
  8
寸法
  6
CONTINUOUS
 10
-81.375
 20
-17.625
  1
呼称寸法　900
 40
3.0
 72
     5
 11
-59.625
 21
-17.625
  0
ENDBLK
  0
BLOCK
  2
*DIM_0008
 70
    65
 10
0.0
 20
0.0
  0
LINE
  8
寸法
  6
BYBLOCK
 62
     0
 10
-46.990365
 20
62.584425
 11
-30.130452
 21
62.584425
  0
LINE
  8
寸法
  6
BYBLOCK
 62
     0
 10
-38.96649
 20
57.034427
 11
-30.130452
 21
57.034427
  0
LINE
  8
寸法
  6
BYBLOCK
 62
     0
 10
-30.130452
 20
62.584425
 11
-30.130452
 21
57.034427
  0
POINT
  8
寸法
 62
     0
 10
-30.130452
 20
62.584425
  0
POINT
  8
寸法
 62
     0
 10
-30.130452
 20
57.034427
  0
TEXT
  7
TextStyle03
  8
寸法
  6
CONTINUOUS
 62
     0
 10
-30.475
 20
57.3375
  1
111
 40
3.0
 50
90.0
 72
     5
 11
-30.475
 21
62.2125
  0
ENDBLK
  0
BLOCK
  2
*DIM_0009
 70
    65
 10
0.0
 20
0.0
  0
LINE
  8
寸法
  6
BYBLOCK
 62
     0
 10
-46.990365
 20
17.584425
 11
-30.130452
 21
17.584425
  0
LINE
  8
寸法
  6
BYBLOCK
 62
     0
 10
-38.96649
 20
23.134423
 11
-30.130452
 21
23.134423
  0
LINE
  8
寸法
  6
BYBLOCK
 62
     0
 10
-30.130452
 20
17.584425
 11
-30.130452
 21
23.134423
  0
POINT
  8
寸法
 62
     0
 10
-30.130452
 20
17.584425
  0
POINT
  8
寸法
 62
     0
 10
-30.130452
 20
23.134423
  0
TEXT
  7
TextStyle03
  8
寸法
  6
CONTINUOUS
 62
     0
 10
-30.475
 20
17.8875
  1
111
 40
3.0
 50
90.0
 72
     5
 11
-30.475
 21
22.7625
  0
ENDBLK
  0
BLOCK
  2
*DIM_0010
 70
    65
 10
0.0
 20
0.0
  0
LINE
  8
寸法
  6
BYBLOCK
 62
     0
 10
-85.490365
 20
63.584425
 11
-85.490365
 21
81.52344
  0
LINE
  8
寸法
  6
BYBLOCK
 62
     0
 10
-55.490365
 20
63.584425
 11
-55.490365
 21
81.52344
  0
LINE
  8
寸法
  6
BYBLOCK
 62
     0
 10
-85.490365
 20
81.52344
 11
-55.490365
 21
81.52344
  0
POINT
  8
寸法
 62
     0
 10
-85.490365
 20
81.52344
  0
POINT
  8
寸法
 62
     0
 10
-55.490365
 20
81.52344
  0
TEXT
  7
TextStyle03
  8
寸法
  6
CONTINUOUS
 62
     0
 10
-72.9125
 20
81.875
  1
600
 40
3.0
 72
     5
 11
-68.0375
 21
81.875
  0
ENDBLK
  0
BLOCK
  2
*DIM_0011
 70
    65
 10
0.0
 20
0.0
  0
LINE
  8
寸法
  6
BYBLOCK
 62
     0
 10
-93.990365
 20
62.584425
 11
-116.898607
 21
62.584425
  0
LINE
  8
寸法
  6
BYBLOCK
 62
     0
 10
-93.990365
 20
40.084425
 11
-116.898607
 21
40.084425
  0
LINE
  8
寸法
  6
BYBLOCK
 62
     0
 10
-116.898607
 20
62.584425
 11
-116.898607
 21
40.084425
  0
POINT
  8
寸法
 62
     0
 10
-116.898607
 20
62.584425
  0
POINT
  8
寸法
 62
     0
 10
-116.898607
 20
40.084425
  0
TEXT
  7
TextStyle03
  8
寸法
  6
CONTINUOUS
 62
     0
 10
-117.25
 20
48.8625
  1
450
 40
3.0
 50
90.0
 72
     5
 11
-117.25
 21
53.7375
  0
ENDBLK
  0
BLOCK
  2
*DIM_0012
 70
    65
 10
0.0
 20
0.0
  0
LINE
  8
寸法
  6
BYBLOCK
 62
     0
 10
-93.990365
 20
17.584425
 11
-116.898607
 21
17.584425
  0
LINE
  8
寸法
  6
BYBLOCK
 62
     0
 10
-116.898607
 20
40.084425
 11
-116.898607
 21
17.584425
  0
POINT
  8
寸法
 62
     0
 10
-116.898607
 20
17.584425
  0
TEXT
  7
TextStyle03
  8
寸法
  6
CONTINUOUS
 62
     0
 10
-117.25
 20
26.3625
  1
450
 40
3.0
 50
90.0
 72
     5
 11
-117.25
 21
31.2375
  0
ENDBLK
  0
BLOCK
  2
*GRP_0013
 70
    65
 10
0.0
 20
0.0
  0
POLYLINE
  8
寸法
  6
CONTINUOUS
 62
     0
 66
     1
  0
VERTEX
  8
寸法
 10
-51.229705
 20
30.080717
  0
VERTEX
  8
寸法
 10
-47.54851
 20
26.399523
  0
VERTEX
  8
寸法
 10
-24.705933
 20
26.399523
  0
SEQEND
  0
ENDBLK
  0
BLOCK
  2
*GRP_0014
 70
    65
 10
0.0
 20
0.0
  0
LINE
  8
型材断面
  6
DOT
 10
97.385587
 20
-41.008922
 11
97.4563
 21
-41.079635
  0
LINE
  8
型材断面
  6
DOT
 10
97.385587
 20
-41.008922
 11
102.510587
 21
-41.008922
  0
LINE
  8
型材断面
  6
DOT
 10
97.4563
 20
-41.079635
 11
102.510587
 21
-41.079635
  0
LINE
  8
型材断面
  6
DOT
 10
97.385587
 20
-41.008922
 11
102.51059
 21
-35.883925
  0
LINE
  8
型材断面
  6
DOT
 10
107.635592
 20
-41.008922
 11
107.56488
 21
-41.079635
  0
LINE
  8
型材断面
  6
DOT
 10
107.635592
 20
-41.008922
 11
102.510592
 21
-41.008922
  0
LINE
  8
型材断面
  6
DOT
 10
107.56488
 20
-41.079635
 11
102.510592
 21
-41.079635
  0
LINE
  8
型材断面
  6
DOT
 10
107.635592
 20
-41.008922
 11
102.51059
 21
-35.883925
  0
LINE
  8
型材断面
  6
DOT
 10
102.51059
 20
-68.375345
 11
129.660592
 21
-68.375345
  0
LINE
  8
型材断面
  6
DOT
 10
102.51059
 20
-67.675345
 11
130.510592
 21
-67.675345
  0
LINE
  8
型材断面
  6
DOT
 10
102.51059
 20
-64.725345
 11
130.510592
 21
-64.725345
  0
LINE
  8
型材断面
  6
DOT
 10
102.51059
 20
-64.025345
 11
130.510592
 21
-64.025345
  0
LINE
  8
型材断面
  6
DOT
 62
    47
 10
130.510592
 20
-64.725345
 11
130.510592
 21
-67.675345
  0
LINE
  8
型材断面
  6
DOT
 62
    47
 10
129.660592
 20
-67.675345
 11
129.660592
 21
-68.375345
  0
LINE
  8
型材断面
  6
DOT
 62
    47
 10
129.414638
 20
-62.929395
 11
130.51059
 21
-64.025345
  0
LINE
  8
型材断面
  6
DOT
 62
    47
 10
130.51059
 20
-64.725345
 11
130.51059
 21
-64.025345
  0
LINE
  8
型材断面
  6
DOT
 10
102.51059
 20
-62.929395
 11
129.41464
 21
-62.929395
  0
LINE
  8
型材断面
  6
DOT
 10
125.245428
 20
-62.57584
 11
103.749223
 21
-41.079635
  0
LINE
  8
型材断面
  6
DOT
 10
125.38685
 20
-62.57584
 11
103.890645
 21
-41.079635
  0
LINE
  8
型材断面
  6
DOT
 10
102.51059
 20
-36.025345
 11
129.41464
 21
-62.929395
  0
LINE
  8
型材断面
  6
DOT
 10
102.51059
 20
-68.375345
 11
75.360587
 21
-68.375345
  0
LINE
  8
型材断面
  6
DOT
 10
102.51059
 20
-67.675345
 11
74.510587
 21
-67.675345
  0
LINE
  8
型材断面
  6
DOT
 10
102.51059
 20
-64.725345
 11
74.510587
 21
-64.725345
  0
LINE
  8
型材断面
  6
DOT
 10
102.51059
 20
-64.025345
 11
74.510587
 21
-64.025345
  0
LINE
  8
型材断面
  6
DOT
 62
    47
 10
74.510587
 20
-64.725345
 11
74.510587
 21
-67.675345
  0
LINE
  8
型材断面
  6
DOT
 62
    47
 10
75.360587
 20
-67.675345
 11
75.360587
 21
-68.375345
  0
LINE
  8
型材断面
  6
DOT
 62
    47
 10
75.606543
 20
-62.929395
 11
74.51059
 21
-64.025345
  0
LINE
  8
型材断面
  6
DOT
 62
    47
 10
74.51059
 20
-64.725345
 11
74.51059
 21
-64.025345
  0
LINE
  8
型材断面
  6
DOT
 10
102.51059
 20
-62.929395
 11
75.60654
 21
-62.929395
  0
LINE
  8
型材断面
  6
DOT
 10
79.775753
 20
-62.57584
 11
101.271957
 21
-41.079635
  0
LINE
  8
型材断面
  6
DOT
 10
79.63433
 20
-62.57584
 11
101.130535
 21
-41.079635
  0
LINE
  8
型材断面
  6
DOT
 10
102.51059
 20
-36.025345
 11
75.60654
 21
-62.929395
  0
LINE
  8
型材断面
  6
DOT
 10
125.245428
 20
-62.57584
 11
129.061085
 21
-62.57584
  0
LINE
  8
型材断面
  6
DOT
 10
75.960095
 20
-62.57584
 11
79.775753
 21
-62.57584
  0
LINE
  8
ガラス
  6
DOT
 10
104.398295
 20
-52.95924
 11
100.52566
 21
-56.831875
  0
LINE
  8
ガラス
  6
DOT
 10
103.517973
 20
-54.557597
 11
102.124018
 21
-55.951552
  0
LINE
  8
ガラス
  6
DOT
 10
102.799937
 20
-53.839563
 11
101.405983
 21
-55.233518
  0
ENDBLK
  0
BLOCK
  2
*DIM_0015
 70
    65
 10
0.0
 20
0.0
  0
LINE
  8
寸法
  6
CONTINUOUS
 10
134.660592
 20
-79.375345
 11
150.760195
 21
-79.375345
  0
LINE
  8
寸法
  6
CONTINUOUS
 10
134.660592
 20
-68.375345
 11
150.760195
 21
-68.375345
  0
LINE
  8
寸法
  6
CONTINUOUS
 10
150.760195
 20
-79.375345
 11
150.760195
 21
-68.375345
  0
POINT
  8
寸法
 10
150.760195
 20
-79.375345
  0
POINT
  8
寸法
 10
150.760195
 20
-68.375345
  0
TEXT
  7
TextStyle03
  8
寸法
  6
CONTINUOUS
 10
153.75
 20
-82.99375
  1
上昇159以上
 40
3.0
 50
90.0
 72
     5
 11
153.75
 21
-64.80625
  0
ENDBLK
  0
BLOCK
  2
*GRP_0016
 70
    65
 10
0.0
 20
0.0
  0
LINE
  8
補助線
  6
BYBLOCK
 62
    64
 10
119.898898
 20
-81.874708
 11
120.122283
 21
-81.986948
  0
LINE
  8
補助線
  6
BYBLOCK
 62
    64
 10
120.06671
 20
-81.819135
 11
119.95447
 21
-82.04252
  0
LINE
  8
補助線
  6
BYBLOCK
 62
    64
 10
105.244537
 20
-74.511988
 11
105.021145
 21
-74.399748
  0
LINE
  8
補助線
  6
BYBLOCK
 62
    64
 10
105.188957
 20
-74.34417
 11
105.076722
 21
-74.56756
  0
LINE
  8
補助線
  6
BYBLOCK
 62
    64
 10
90.366748
 20
-67.037097
 11
90.143357
 21
-66.924865
  0
LINE
  8
補助線
  6
BYBLOCK
 62
    64
 10
90.31117
 20
-66.869285
 11
90.198935
 21
-67.092675
  0
LINE
  8
型材断面
  6
CONTINUOUS
 10
121.018553
 20
-81.038353
 11
121.35201
 21
-82.04523
  0
LINE
  8
型材断面
  6
CONTINUOUS
 10
121.35201
 20
-82.04523
 11
120.903065
 21
-82.93879
  0
LINE
  8
型材断面
  6
CONTINUOUS
 10
120.903065
 20
-82.93879
 11
119.896188
 21
-83.272247
  0
LINE
  8
型材断面
  6
CONTINUOUS
 10
90.369448
 20
-65.639557
 11
89.362575
 21
-65.973023
  0
LINE
  8
型材断面
  6
CONTINUOUS
 10
89.362575
 20
-65.973023
 11
88.913628
 21
-66.866585
  0
LINE
  8
型材断面
  6
CONTINUOUS
 10
88.913628
 20
-66.866585
 11
89.247095
 21
-67.87346
  0
LINE
  8
型材断面
  6
CONTINUOUS
 10
121.018553
 20
-81.038353
 11
90.369563
 21
-65.639517
  0
LINE
  8
型材断面
  6
CONTINUOUS
 10
119.896188
 20
-83.272247
 11
89.24706
 21
-67.873352
  0
LINE
  8
ボルト／ビス
  6
CONTINUOUS
 62
    64
 10
120.217948
 20
-81.51811
 11
120.471693
 21
-81.904047
  0
LINE
  8
ボルト／ビス
  6
CONTINUOUS
 62
    64
 10
120.217948
 20
-81.51811
 11
119.756848
 21
-81.544892
  0
LINE
  8
ボルト／ビス
  6
CONTINUOUS
 62
    64
 10
119.803233
 20
-82.343545
 11
120.264332
 21
-82.316763
  0
LINE
  8
ボルト／ビス
  6
CONTINUOUS
 62
    64
 10
119.803233
 20
-82.343545
 11
119.549488
 21
-81.957607
  0
CIRCLE
  8
ボルト／ビス
  6
CONTINUOUS
 62
    64
 10
120.01059
 20
-81.930828
 40
0.4
  0
LINE
  8
ボルト／ビス
  6
CONTINUOUS
 62
    64
 10
119.756848
 20
-81.544892
 11
119.549488
 21
-81.957607
  0
LINE
  8
ボルト／ビス
  6
CONTINUOUS
 62
    64
 10
120.471693
 20
-81.904047
 11
120.264332
 21
-82.316763
  0
LINE
  8
ボルト／ビス
  6
CONTINUOUS
 62
    64
 10
105.3402
 20
-74.04315
 11
104.879095
 21
-74.069927
  0
LINE
  8
ボルト／ビス
  6
CONTINUOUS
 62
    64
 10
105.3402
 20
-74.04315
 11
105.593945
 21
-74.429085
  0
LINE
  8
ボルト／ビス
  6
CONTINUOUS
 62
    64
 10
104.92548
 20
-74.868582
 11
104.671738
 21
-74.482647
  0
LINE
  8
ボルト／ビス
  6
CONTINUOUS
 62
    64
 10
104.92548
 20
-74.868582
 11
105.386583
 21
-74.841803
  0
CIRCLE
  8
ボルト／ビス
  6
CONTINUOUS
 62
    64
 10
105.132837
 20
-74.455868
 40
0.4
  0
LINE
  8
ボルト／ビス
  6
CONTINUOUS
 62
    64
 10
105.593945
 20
-74.429085
 11
105.386583
 21
-74.841803
  0
LINE
  8
ボルト／ビス
  6
CONTINUOUS
 62
    64
 10
104.879095
 20
-74.069927
 11
104.671738
 21
-74.482647
  0
LINE
  8
ボルト／ビス
  6
CONTINUOUS
 62
    64
 10
90.46241
 20
-66.56826
 11
90.001305
 21
-66.595043
  0
LINE
  8
ボルト／ビス
  6
CONTINUOUS
 62
    64
 10
90.46241
 20
-66.56826
 11
90.716152
 21
-66.954198
  0
LINE
  8
ボルト／ビス
  6
CONTINUOUS
 62
    64
 10
90.047693
 20
-67.393697
 11
89.79395
 21
-67.00776
  0
LINE
  8
ボルト／ビス
  6
CONTINUOUS
 62
    64
 10
90.047693
 20
-67.393697
 11
90.5088
 21
-67.366915
  0
CIRCLE
  8
ボルト／ビス
  6
CONTINUOUS
 62
    64
 10
90.255055
 20
-66.98098
 40
0.4
  0
LINE
  8
ボルト／ビス
  6
CONTINUOUS
 62
    64
 10
90.716152
 20
-66.954198
 11
90.5088
 21
-67.366915
  0
LINE
  8
ボルト／ビス
  6
CONTINUOUS
 62
    64
 10
90.001305
 20
-66.595043
 11
89.79395
 21
-67.00776
  0
ENDBLK
  0
BLOCK
  2
*GRP_0017
 70
    65
 10
0.0
 20
0.0
  0
LINE
  8
補助線
  6
BYBLOCK
 62
    64
 10
90.366783
 20
-81.874708
 11
90.143397
 21
-81.986948
  0
LINE
  8
補助線
  6
BYBLOCK
 62
    64
 10
90.19897
 20
-81.819135
 11
90.31121
 21
-82.04252
  0
LINE
  8
補助線
  6
BYBLOCK
 62
    64
 10
105.021142
 20
-74.511988
 11
105.244535
 21
-74.399748
  0
LINE
  8
補助線
  6
BYBLOCK
 62
    64
 10
105.076722
 20
-74.34417
 11
105.188957
 21
-74.56756
  0
LINE
  8
補助線
  6
BYBLOCK
 62
    64
 10
119.898933
 20
-67.037097
 11
120.122322
 21
-66.924865
  0
LINE
  8
補助線
  6
BYBLOCK
 62
    64
 10
119.95451
 20
-66.869285
 11
120.066745
 21
-67.092675
  0
LINE
  8
型材断面
  6
CONTINUOUS
 10
89.247127
 20
-81.038353
 11
88.91367
 21
-82.04523
  0
LINE
  8
型材断面
  6
CONTINUOUS
 10
88.91367
 20
-82.04523
 11
89.362615
 21
-82.93879
  0
LINE
  8
型材断面
  6
CONTINUOUS
 10
89.362615
 20
-82.93879
 11
90.369492
 21
-83.272247
  0
LINE
  8
型材断面
  6
CONTINUOUS
 10
119.896233
 20
-65.639557
 11
120.903105
 21
-65.973023
  0
LINE
  8
型材断面
  6
CONTINUOUS
 10
120.903105
 20
-65.973023
 11
121.352052
 21
-66.866585
  0
LINE
  8
型材断面
  6
CONTINUOUS
 10
121.352052
 20
-66.866585
 11
121.018585
 21
-67.87346
  0
LINE
  8
型材断面
  6
CONTINUOUS
 10
89.247127
 20
-81.038353
 11
119.896118
 21
-65.639517
  0
LINE
  8
型材断面
  6
CONTINUOUS
 10
90.369492
 20
-83.272247
 11
121.01862
 21
-67.873352
  0
LINE
  8
ボルト／ビス
  6
CONTINUOUS
 62
    64
 10
90.047732
 20
-81.51811
 11
89.793988
 21
-81.904047
  0
LINE
  8
ボルト／ビス
  6
CONTINUOUS
 62
    64
 10
90.047732
 20
-81.51811
 11
90.508833
 21
-81.544892
  0
LINE
  8
ボルト／ビス
  6
CONTINUOUS
 62
    64
 10
90.462448
 20
-82.343545
 11
90.001347
 21
-82.316763
  0
LINE
  8
ボルト／ビス
  6
CONTINUOUS
 62
    64
 10
90.462448
 20
-82.343545
 11
90.716193
 21
-81.957607
  0
CIRCLE
  8
ボルト／ビス
  6
CONTINUOUS
 62
    64
 10
90.25509
 20
-81.930828
 40
0.4
  0
LINE
  8
ボルト／ビス
  6
CONTINUOUS
 62
    64
 10
90.508833
 20
-81.544892
 11
90.716193
 21
-81.957607
  0
LINE
  8
ボルト／ビス
  6
CONTINUOUS
 62
    64
 10
89.793988
 20
-81.904047
 11
90.001347
 21
-82.316763
  0
LINE
  8
ボルト／ビス
  6
CONTINUOUS
 62
    64
 10
104.92548
 20
-74.04315
 11
105.386585
 21
-74.069927
  0
LINE
  8
ボルト／ビス
  6
CONTINUOUS
 62
    64
 10
104.92548
 20
-74.04315
 11
104.671735
 21
-74.429085
  0
LINE
  8
ボルト／ビス
  6
CONTINUOUS
 62
    64
 10
105.3402
 20
-74.868582
 11
105.593943
 21
-74.482647
  0
LINE
  8
ボルト／ビス
  6
CONTINUOUS
 62
    64
 10
105.3402
 20
-74.868582
 11
104.879097
 21
-74.841803
  0
CIRCLE
  8
ボルト／ビス
  6
CONTINUOUS
 62
    64
 10
105.132842
 20
-74.455868
 40
0.4
  0
LINE
  8
ボルト／ビス
  6
CONTINUOUS
 62
    64
 10
104.671735
 20
-74.429085
 11
104.879097
 21
-74.841803
  0
LINE
  8
ボルト／ビス
  6
CONTINUOUS
 62
    64
 10
105.386585
 20
-74.069927
 11
105.593943
 21
-74.482647
  0
LINE
  8
ボルト／ビス
  6
CONTINUOUS
 62
    64
 10
119.80327
 20
-66.56826
 11
120.264375
 21
-66.595043
  0
LINE
  8
ボルト／ビス
  6
CONTINUOUS
 62
    64
 10
119.80327
 20
-66.56826
 11
119.549527
 21
-66.954198
  0
LINE
  8
ボルト／ビス
  6
CONTINUOUS
 62
    64
 10
120.217987
 20
-67.393697
 11
120.47173
 21
-67.00776
  0
LINE
  8
ボルト／ビス
  6
CONTINUOUS
 62
    64
 10
120.217987
 20
-67.393697
 11
119.75688
 21
-67.366915
  0
CIRCLE
  8
ボルト／ビス
  6
CONTINUOUS
 62
    64
 10
120.010625
 20
-66.98098
 40
0.4
  0
LINE
  8
ボルト／ビス
  6
CONTINUOUS
 62
    64
 10
119.549527
 20
-66.954198
 11
119.75688
 21
-67.366915
  0
LINE
  8
ボルト／ビス
  6
CONTINUOUS
 62
    64
 10
120.264375
 20
-66.595043
 11
120.47173
 21
-67.00776
  0
ENDBLK
  0
BLOCK
  2
*DIM_0020
 70
    65
 10
0.0
 20
0.0
  0
LINE
  8
寸法
  6
CONTINUOUS
 10
-37.490362
 20
-75.025345
 11
-26.331772
 21
-75.025345
  0
LINE
  8
寸法
  6
CONTINUOUS
 10
-38.845585
 20
-85.495345
 11
-26.331772
 21
-85.495345
  0
LINE
  8
寸法
  6
CONTINUOUS
 10
-26.331772
 20
-75.025345
 11
-26.331772
 21
-85.495345
  0
POINT
  8
寸法
 10
-26.331772
 20
-75.025345
  0
POINT
  8
寸法
 10
-26.331772
 20
-85.495345
  0
TEXT
  7
TextStyle03
  8
寸法
  6
CONTINUOUS
 10
-26.725
 20
-84.4
  1
209.4
 40
3.0
 50
90.0
 72
     5
 11
-26.725
 21
-76.15
  0
ENDBLK
  0
BLOCK
  2
*DIM_0021
 70
    65
 10
0.0
 20
0.0
  0
LINE
  8
寸法
  6
BYBLOCK
 62
     0
 10
83.74157
 20
19.702555
 11
83.74157
 21
9.002303
  0
LINE
  8
寸法
  6
BYBLOCK
 62
     0
 10
133.38433
 20
19.702555
 11
133.38433
 21
9.002303
  0
LINE
  8
寸法
  6
BYBLOCK
 62
     0
 10
83.74157
 20
9.002303
 11
133.38433
 21
9.002303
  0
POINT
  8
寸法
 62
     0
 10
83.74157
 20
9.002303
  0
POINT
  8
寸法
 62
     0
 10
133.38433
 20
9.002303
  0
TEXT
  7
TextStyle03
  8
寸法
  6
CONTINUOUS
 62
     0
 10
103.05
 20
9.375
  1
992.9
 40
4.0
 72
     5
 11
114.05
 21
9.375
  0
ENDBLK
  0
BLOCK
  2
*DIM_0023
 70
    65
 10
0.0
 20
0.0
  0
LINE
  8
寸法
  6
BYBLOCK
 62
     0
 10
111.56295
 20
57.805287
 11
148.447782
 21
57.805287
  0
LINE
  8
寸法
  6
BYBLOCK
 62
     0
 10
136.38433
 20
22.702555
 11
148.447782
 21
22.702555
  0
LINE
  8
寸法
  6
BYBLOCK
 62
     0
 10
148.447782
 20
57.805287
 11
148.447782
 21
22.702555
  0
POINT
  8
寸法
 62
     0
 10
148.447782
 20
57.805287
  0
POINT
  8
寸法
 62
     0
 10
148.447782
 20
22.702555
  0
TEXT
  7
TextStyle03
  8
寸法
  6
CONTINUOUS
 62
     0
 10
148.05
 20
37.0
  1
702
 40
4.0
 50
90.0
 72
     5
 11
148.05
 21
43.5
  0
ENDBLK
  0
ENDSEC
  0
SECTION
  2
ENTITIES
  0
POLYLINE
  8
通り芯
  6
CONTINUOUS
 66
     1
 70
     1
  0
VERTEX
  8
通り芯
 10
-210.0
 20
-148.5
  0
VERTEX
  8
通り芯
 10
210.0
 20
-148.5
  0
VERTEX
  8
通り芯
 10
210.0
 20
148.5
  0
VERTEX
  8
通り芯
 10
-210.0
 20
148.5
  0
SEQEND
  0
INSERT
  2
*GRP_0001
  8
型材断面
  6
CONTINUOUS
 10
0.0
 20
0.0
  0
LINE
  8
型材断面
  6
CONTINUOUS
 10
-75.615367
 20
-52.008922
 11
-75.544655
 21
-52.079635
  0
LINE
  8
型材断面
  6
CONTINUOUS
 10
-75.615367
 20
-52.008922
 11
-70.490367
 21
-52.008922
  0
LINE
  8
型材断面
  6
CONTINUOUS
 10
-75.544655
 20
-52.079635
 11
-70.490367
 21
-52.079635
  0
LINE
  8
型材断面
  6
CONTINUOUS
 10
-75.615367
 20
-52.008922
 11
-70.490365
 21
-46.883925
  0
LINE
  8
型材断面
  6
CONTINUOUS
 10
-65.365362
 20
-52.008922
 11
-65.436075
 21
-52.079635
  0
LINE
  8
型材断面
  6
CONTINUOUS
 10
-65.365362
 20
-52.008922
 11
-70.490362
 21
-52.008922
  0
LINE
  8
型材断面
  6
CONTINUOUS
 10
-65.436075
 20
-52.079635
 11
-70.490362
 21
-52.079635
  0
LINE
  8
型材断面
  6
CONTINUOUS
 10
-65.365362
 20
-52.008922
 11
-70.490365
 21
-46.883925
  0
LINE
  8
型材断面
  6
CONTINUOUS
 10
-75.615365
 20
34.959423
 11
-75.615365
 21
40.084423
  0
LINE
  8
型材断面
  6
CONTINUOUS
 10
-75.615365
 20
34.959423
 11
-70.490365
 21
34.959423
  0
LINE
  8
型材断面
  6
CONTINUOUS
 10
-65.365365
 20
45.209427
 11
-65.365365
 21
40.084427
  0
LINE
  8
型材断面
  6
CONTINUOUS
 10
-65.365365
 20
45.209427
 11
-70.490365
 21
45.209427
  0
LINE
  8
型材断面
  6
CONTINUOUS
 10
-75.615365
 20
45.209427
 11
-75.615365
 21
40.084427
  0
LINE
  8
型材断面
  6
CONTINUOUS
 10
-75.615365
 20
45.209427
 11
-70.490365
 21
45.209427
  0
LINE
  8
型材断面
  6
CONTINUOUS
 10
-75.615365
 20
45.209427
 11
-75.615365
 21
40.084427
  0
LINE
  8
型材断面
  6
CONTINUOUS
 10
-75.615365
 20
45.209427
 11
-70.490365
 21
45.209427
  0
LINE
  8
型材断面
  6
CONTINUOUS
 10
-65.365365
 20
45.209427
 11
-65.365365
 21
40.084427
  0
LINE
  8
型材断面
  6
CONTINUOUS
 10
-65.365365
 20
45.209427
 11
-70.490365
 21
45.209427
  0
LINE
  8
型材断面
  6
CONTINUOUS
 10
-65.365362
 20
34.959425
 11
-70.490362
 21
34.959425
  0
LINE
  8
型材断面
  6
CONTINUOUS
 10
-65.365362
 20
34.959425
 11
-65.365362
 21
40.084425
  0
LINE
  8
型材断面
  6
DASHDOT
 10
-92.990365
 20
40.084425
 11
-47.990365
 21
40.084425
  0
LINE
  8
型材断面
  6
CONTINUOUS
 10
-70.490365
 20
40.084425
 11
-42.490362
 21
68.084425
  0
LINE
  8
型材断面
  6
CONTINUOUS
 10
-70.490365
 20
40.084425
 11
-98.490367
 21
68.084425
  0
LINE
  8
型材断面
  6
DASHDOT
 10
-92.990365
 20
62.584425
 11
-47.990365
 21
62.584425
  0
LINE
  8
型材断面
  6
CONTINUOUS
 10
-43.586323
 20
66.988465
 11
-97.394413
 21
66.98848
  0
LINE
  8
型材断面
  6
CONTINUOUS
 10
-42.490367
 20
68.08442
 11
-98.490367
 21
68.084435
  0
LINE
  8
型材断面
  6
CONTINUOUS
 10
-70.490365
 20
40.084425
 11
-42.490362
 21
12.084425
  0
LINE
  8
型材断面
  6
CONTINUOUS
 10
-70.490365
 20
40.084425
 11
-98.490367
 21
12.084425
  0
LINE
  8
型材断面
  6
DASHDOT
 10
-92.990365
 20
17.584425
 11
-47.990365
 21
17.584425
  0
LINE
  8
型材断面
  6
CONTINUOUS
 10
-98.490367
 20
12.084425
 11
-42.490358
 21
12.08442
  0
LINE
  8
型材断面
  6
CONTINUOUS
 10
-97.394413
 20
13.18038
 11
-43.586312
 21
13.180375
  0
LINE
  8
型材断面
  6
CONTINUOUS
 10
-42.490367
 20
68.08442
 11
-42.490358
 21
12.08442
  0
LINE
  8
型材断面
  6
CONTINUOUS
 10
-43.586323
 20
66.988465
 11
-43.586312
 21
13.180375
  0
LINE
  8
型材断面
  6
CONTINUOUS
 10
-97.394413
 20
66.98848
 11
-97.394413
 21
13.18038
  0
LINE
  8
型材断面
  6
CONTINUOUS
 10
-98.490367
 20
68.084435
 11
-98.490367
 21
12.084425
  0
LINE
  8
型材断面
  6
CONTINUOUS
 10
-70.490365
 20
-79.638213
 11
-43.845585
 21
-79.638213
  0
LINE
  8
型材断面
  6
CONTINUOUS
 10
-70.490365
 20
-79.375345
 11
-43.340362
 21
-79.375345
  0
LINE
  8
型材断面
  6
CONTINUOUS
 10
-70.490365
 20
-78.675345
 11
-42.490362
 21
-78.675345
  0
LINE
  8
型材断面
  6
CONTINUOUS
 10
-70.490365
 20
-75.725345
 11
-42.490362
 21
-75.725345
  0
LINE
  8
型材断面
  6
CONTINUOUS
 10
-70.490365
 20
-75.025345
 11
-42.490362
 21
-75.025345
  0
LINE
  8
型材断面
  6
CONTINUOUS
 62
    47
 10
-42.490362
 20
-75.725345
 11
-42.490362
 21
-78.675345
  0
LINE
  8
型材断面
  6
CONTINUOUS
 62
    47
 10
-43.340362
 20
-78.675345
 11
-43.340362
 21
-79.375345
  0
LINE
  8
型材断面
  6
CONTINUOUS
 62
    47
 10
-43.586318
 20
-73.929395
 11
-42.490365
 21
-75.025345
  0
LINE
  8
型材断面
  6
CONTINUOUS
 62
    47
 10
-42.490365
 20
-75.725345
 11
-42.490365
 21
-75.025345
  0
LINE
  8
型材断面
  6
CONTINUOUS
 62
    47
 10
-43.845585
 20
-79.638213
 11
-44.108453
 21
-79.375345
  0
LINE
  8
型材断面
  6
CONTINUOUS
 10
-70.490365
 20
-73.929395
 11
-43.586315
 21
-73.929395
  0
LINE
  8
型材断面
  6
CONTINUOUS
 10
-47.755527
 20
-73.57584
 11
-69.251732
 21
-52.079635
  0
LINE
  8
型材断面
  6
CONTINUOUS
 10
-47.614105
 20
-73.57584
 11
-69.11031
 21
-52.079635
  0
LINE
  8
型材断面
  6
CONTINUOUS
 10
-70.490365
 20
-47.025345
 11
-43.586315
 21
-73.929395
  0
LINE
  8
型材断面
  6
DASHDOT
 10
-92.990365
 20
-83.103208
 11
-92.990365
 21
-46.163605
  0
LINE
  8
型材断面
  6
CONTINUOUS
 10
-70.490365
 20
-79.638213
 11
-97.135145
 21
-79.638213
  0
LINE
  8
型材断面
  6
CONTINUOUS
 10
-70.490365
 20
-79.375345
 11
-97.640367
 21
-79.375345
  0
LINE
  8
型材断面
  6
CONTINUOUS
 10
-70.490365
 20
-78.675345
 11
-98.490367
 21
-78.675345
  0
LINE
  8
型材断面
  6
CONTINUOUS
 10
-70.490365
 20
-75.725345
 11
-98.490367
 21
-75.725345
  0
LINE
  8
型材断面
  6
CONTINUOUS
 10
-70.490365
 20
-75.025345
 11
-98.490367
 21
-75.025345
  0
LINE
  8
型材断面
  6
CONTINUOUS
 62
    47
 10
-98.490367
 20
-75.725345
 11
-98.490367
 21
-78.675345
  0
LINE
  8
型材断面
  6
CONTINUOUS
 62
    47
 10
-97.640367
 20
-78.675345
 11
-97.640367
 21
-79.375345
  0
LINE
  8
型材断面
  6
CONTINUOUS
 62
    47
 10
-97.394413
 20
-73.929395
 11
-98.490365
 21
-75.025345
  0
LINE
  8
型材断面
  6
CONTINUOUS
 62
    47
 10
-98.490365
 20
-75.725345
 11
-98.490365
 21
-75.025345
  0
LINE
  8
型材断面
  6
CONTINUOUS
 62
    47
 10
-97.135145
 20
-79.638213
 11
-96.872278
 21
-79.375345
  0
LINE
  8
型材断面
  6
CONTINUOUS
 10
-70.490365
 20
-73.929395
 11
-97.394415
 21
-73.929395
  0
LINE
  8
型材断面
  6
CONTINUOUS
 10
-93.225202
 20
-73.57584
 11
-71.728997
 21
-52.079635
  0
LINE
  8
型材断面
  6
CONTINUOUS
 10
-93.366625
 20
-73.57584
 11
-71.87042
 21
-52.079635
  0
LINE
  8
型材断面
  6
CONTINUOUS
 10
-70.490365
 20
-47.025345
 11
-97.394415
 21
-73.929395
  0
LINE
  8
型材断面
  6
CONTINUOUS
 10
-47.755527
 20
-73.57584
 11
-43.93987
 21
-73.57584
  0
LINE
  8
型材断面
  6
CONTINUOUS
 10
-97.04086
 20
-73.57584
 11
-93.225202
 21
-73.57584
  0
LINE
  8
型材断面
  6
CONTINUOUS
 10
-101.01424
 20
23.134423
 11
-104.9
 21
24.028507
  0
LINE
  8
型材断面
  6
CONTINUOUS
 10
-101.01424
 20
23.134423
 11
-104.9
 21
22.240337
  0
LINE
  8
型材断面
  6
CONTINUOUS
 10
-104.9
 20
22.240337
 11
-104.9
 21
24.028507
  0
LINE
  8
型材断面
  6
CONTINUOUS
 10
-15.53082
 20
16.705505
 11
-17.774265
 21
12.819745
  0
LINE
  8
型材断面
  6
CONTINUOUS
 10
-15.53082
 20
16.705505
 11
-13.287375
 21
12.819745
  0
LINE
  8
型材断面
  6
CONTINUOUS
 10
-13.287375
 20
12.819745
 11
-17.774265
 21
12.819745
  0
LINE
  8
型材断面
  6
CONTINUOUS
 10
-15.53082
 20
9.015957
 11
-14.636735
 21
5.130198
  0
LINE
  8
型材断面
  6
CONTINUOUS
 10
-15.53082
 20
9.015957
 11
-16.424905
 21
5.130198
  0
LINE
  8
型材断面
  6
CONTINUOUS
 10
-16.424905
 20
5.130198
 11
-14.636735
 21
5.130198
  0
LINE
  8
型材断面
  6
CONTINUOUS
 10
-24.5647
 20
11.411852
 11
28.09198
 21
11.411852
  0
LINE
  8
型材断面
  6
CONTINUOUS
 10
-24.5647
 20
0.21186
 11
28.09198
 21
0.21186
  0
LINE
  8
型材断面
  6
CONTINUOUS
 10
-24.5647
 20
-6.628085
 11
28.09198
 21
-6.628085
  0
LINE
  8
型材断面
  6
CONTINUOUS
 10
-101.01424
 20
57.034427
 11
-104.9
 21
56.140343
  0
LINE
  8
型材断面
  6
CONTINUOUS
 10
-101.01424
 20
57.034427
 11
-104.9
 21
57.928513
  0
LINE
  8
型材断面
  6
CONTINUOUS
 10
-104.9
 20
57.928513
 11
-104.9
 21
56.140343
  0
LINE
  8
型材断面
  6
CONTINUOUS
 10
-39.96649
 20
23.134423
 11
-36.08073
 21
24.028507
  0
LINE
  8
型材断面
  6
CONTINUOUS
 10
-39.96649
 20
23.134423
 11
-36.08073
 21
22.240337
  0
LINE
  8
型材断面
  6
CONTINUOUS
 10
-36.08073
 20
22.240337
 11
-36.08073
 21
24.028507
  0
LINE
  8
型材断面
  6
CONTINUOUS
 10
-39.96649
 20
57.034427
 11
-36.08073
 21
56.140343
  0
LINE
  8
型材断面
  6
CONTINUOUS
 10
-39.96649
 20
57.034427
 11
-36.08073
 21
57.928513
  0
LINE
  8
型材断面
  6
CONTINUOUS
 10
-36.08073
 20
57.928513
 11
-36.08073
 21
56.140343
  0
LINE
  8
型材断面
  6
CONTINUOUS
 10
-70.490365
 20
70.6083
 11
-72.73381
 21
74.49406
  0
LINE
  8
型材断面
  6
CONTINUOUS
 10
-70.490365
 20
70.6083
 11
-68.24692
 21
74.49406
  0
LINE
  8
型材断面
  6
CONTINUOUS
 10
-68.24692
 20
74.49406
 11
-72.73381
 21
74.49406
  0
LINE
  8
型材断面
  6
CONTINUOUS
 10
-70.490365
 20
9.56055
 11
-72.73381
 21
5.67479
  0
LINE
  8
型材断面
  6
CONTINUOUS
 10
-70.490365
 20
9.56055
 11
-68.24692
 21
5.67479
  0
LINE
  8
型材断面
  6
CONTINUOUS
 10
-68.24692
 20
5.67479
 11
-72.73381
 21
5.67479
  0
LINE
  8
型材断面
  6
CONTINUOUS
 10
-39.96649
 20
40.084425
 11
-36.08073
 21
42.32787
  0
LINE
  8
型材断面
  6
CONTINUOUS
 10
-39.96649
 20
40.084425
 11
-36.08073
 21
37.84098
  0
LINE
  8
型材断面
  6
CONTINUOUS
 10
-36.08073
 20
37.84098
 11
-36.08073
 21
42.32787
  0
LINE
  8
型材断面
  6
CONTINUOUS
 10
-101.01424
 20
40.084425
 11
-104.9
 21
42.32787
  0
LINE
  8
型材断面
  6
CONTINUOUS
 10
-101.01424
 20
40.084425
 11
-104.9
 21
37.84098
  0
LINE
  8
型材断面
  6
CONTINUOUS
 10
-104.9
 20
37.84098
 11
-104.9
 21
42.32787
  0
POLYLINE
  8
型材断面
  6
CONTINUOUS
 66
     1
 70
     1
  0
VERTEX
  8
型材断面
 10
-61.336448
 20
4.368988
  0
VERTEX
  8
型材断面
 10
-79.89166
 20
4.368988
  0
VERTEX
  8
型材断面
 10
-79.89166
 20
-0.423048
  0
VERTEX
  8
型材断面
 10
-61.336448
 20
-0.423048
  0
SEQEND
  0
POLYLINE
  8
型材断面
  6
CONTINUOUS
 66
     1
 70
     1
  0
VERTEX
  8
型材断面
 10
-61.336448
 20
79.984612
  0
VERTEX
  8
型材断面
 10
-79.89166
 20
79.984612
  0
VERTEX
  8
型材断面
 10
-79.89166
 20
75.192577
  0
VERTEX
  8
型材断面
 10
-61.336448
 20
75.192577
  0
SEQEND
  0
LINE
  8
型材断面
  6
CONTINUOUS
 10
-24.5647
 20
-13.46803
 11
28.09198
 21
-13.46803
  0
LINE
  8
型材断面
  6
DOT
 10
-51.229705
 20
17.584425
 11
-51.229705
 21
62.584425
  0
LINE
  8
型材断面
  6
DOT
 10
-53.229705
 20
17.584425
 11
-53.229705
 21
62.584425
  0
LINE
  8
型材断面
  6
CONTINUOUS
 10
97.385587
 20
-52.008922
 11
97.4563
 21
-52.079635
  0
LINE
  8
型材断面
  6
CONTINUOUS
 10
97.385587
 20
-52.008922
 11
102.510587
 21
-52.008922
  0
LINE
  8
型材断面
  6
CONTINUOUS
 10
97.4563
 20
-52.079635
 11
102.510587
 21
-52.079635
  0
LINE
  8
型材断面
  6
CONTINUOUS
 10
97.385587
 20
-52.008922
 11
102.51059
 21
-46.883925
  0
LINE
  8
型材断面
  6
CONTINUOUS
 10
107.635592
 20
-52.008922
 11
107.56488
 21
-52.079635
  0
LINE
  8
型材断面
  6
CONTINUOUS
 10
107.635592
 20
-52.008922
 11
102.510592
 21
-52.008922
  0
LINE
  8
型材断面
  6
CONTINUOUS
 10
107.56488
 20
-52.079635
 11
102.510592
 21
-52.079635
  0
LINE
  8
型材断面
  6
CONTINUOUS
 10
107.635592
 20
-52.008922
 11
102.51059
 21
-46.883925
  0
LINE
  8
型材断面
  6
CONTINUOUS
 10
102.51059
 20
-79.638213
 11
129.15537
 21
-79.638213
  0
LINE
  8
型材断面
  6
CONTINUOUS
 10
102.51059
 20
-79.375345
 11
129.660592
 21
-79.375345
  0
LINE
  8
型材断面
  6
CONTINUOUS
 10
102.51059
 20
-78.675345
 11
130.510592
 21
-78.675345
  0
LINE
  8
型材断面
  6
CONTINUOUS
 10
102.51059
 20
-75.725345
 11
130.510592
 21
-75.725345
  0
LINE
  8
型材断面
  6
CONTINUOUS
 10
102.51059
 20
-75.025345
 11
130.510592
 21
-75.025345
  0
LINE
  8
型材断面
  6
CONTINUOUS
 62
    47
 10
130.510592
 20
-75.725345
 11
130.510592
 21
-78.675345
  0
LINE
  8
型材断面
  6
CONTINUOUS
 62
    47
 10
129.660592
 20
-78.675345
 11
129.660592
 21
-79.375345
  0
LINE
  8
型材断面
  6
CONTINUOUS
 62
    47
 10
129.414638
 20
-73.929395
 11
130.51059
 21
-75.025345
  0
LINE
  8
型材断面
  6
CONTINUOUS
 62
    47
 10
130.51059
 20
-75.725345
 11
130.51059
 21
-75.025345
  0
LINE
  8
型材断面
  6
CONTINUOUS
 62
    47
 10
129.15537
 20
-79.638213
 11
128.892503
 21
-79.375345
  0
LINE
  8
型材断面
  6
CONTINUOUS
 10
102.51059
 20
-73.929395
 11
129.41464
 21
-73.929395
  0
LINE
  8
型材断面
  6
CONTINUOUS
 10
125.245428
 20
-73.57584
 11
103.749223
 21
-52.079635
  0
LINE
  8
型材断面
  6
CONTINUOUS
 10
125.38685
 20
-73.57584
 11
103.890645
 21
-52.079635
  0
LINE
  8
型材断面
  6
CONTINUOUS
 10
102.51059
 20
-47.025345
 11
129.41464
 21
-73.929395
  0
LINE
  8
型材断面
  6
CONTINUOUS
 10
102.51059
 20
-79.638213
 11
75.86581
 21
-79.638213
  0
LINE
  8
型材断面
  6
CONTINUOUS
 10
102.51059
 20
-79.375345
 11
75.360587
 21
-79.375345
  0
LINE
  8
型材断面
  6
CONTINUOUS
 10
102.51059
 20
-78.675345
 11
74.510587
 21
-78.675345
  0
LINE
  8
型材断面
  6
CONTINUOUS
 10
102.51059
 20
-75.725345
 11
74.510587
 21
-75.725345
  0
LINE
  8
型材断面
  6
CONTINUOUS
 10
102.51059
 20
-75.025345
 11
74.510587
 21
-75.025345
  0
LINE
  8
型材断面
  6
CONTINUOUS
 62
    47
 10
74.510587
 20
-75.725345
 11
74.510587
 21
-78.675345
  0
LINE
  8
型材断面
  6
CONTINUOUS
 62
    47
 10
75.360587
 20
-78.675345
 11
75.360587
 21
-79.375345
  0
LINE
  8
型材断面
  6
CONTINUOUS
 62
    47
 10
75.606543
 20
-73.929395
 11
74.51059
 21
-75.025345
  0
LINE
  8
型材断面
  6
CONTINUOUS
 62
    47
 10
74.51059
 20
-75.725345
 11
74.51059
 21
-75.025345
  0
LINE
  8
型材断面
  6
CONTINUOUS
 62
    47
 10
75.86581
 20
-79.638213
 11
76.128678
 21
-79.375345
  0
LINE
  8
型材断面
  6
CONTINUOUS
 10
102.51059
 20
-73.929395
 11
75.60654
 21
-73.929395
  0
LINE
  8
型材断面
  6
CONTINUOUS
 10
79.775753
 20
-73.57584
 11
101.271957
 21
-52.079635
  0
LINE
  8
型材断面
  6
CONTINUOUS
 10
79.63433
 20
-73.57584
 11
101.130535
 21
-52.079635
  0
LINE
  8
型材断面
  6
CONTINUOUS
 10
102.51059
 20
-47.025345
 11
75.60654
 21
-73.929395
  0
LINE
  8
型材断面
  6
CONTINUOUS
 10
125.245428
 20
-73.57584
 11
129.061085
 21
-73.57584
  0
LINE
  8
型材断面
  6
CONTINUOUS
 10
75.960095
 20
-73.57584
 11
79.775753
 21
-73.57584
  0
INSERT
  2
*GRP_0016
  8
型材断面
  6
CONTINUOUS
 10
0.0
 20
0.0
  0
INSERT
  2
*GRP_0017
  8
型材断面
  6
CONTINUOUS
 10
0.0
 20
0.0
  0
LINE
  8
型材断面
  6
CONTINUOUS
 10
-97.04086
 20
13.533933
 11
-93.392895
 21
13.533933
  0
LINE
  8
型材断面
  6
CONTINUOUS
 10
-71.967403
 20
34.959423
 11
-93.392895
 21
13.533933
  0
LINE
  8
型材断面
  6
CONTINUOUS
 10
-97.04086
 20
13.533933
 11
-97.04086
 21
17.181898
  0
LINE
  8
型材断面
  6
CONTINUOUS
 10
-75.615365
 20
38.60739
 11
-97.04086
 21
17.181898
  0
LINE
  8
型材断面
  6
CONTINUOUS
 10
-43.93987
 20
13.533933
 11
-47.587835
 21
13.533933
  0
LINE
  8
型材断面
  6
CONTINUOUS
 10
-69.013328
 20
34.959423
 11
-47.587835
 21
13.533933
  0
LINE
  8
型材断面
  6
CONTINUOUS
 10
-43.93987
 20
13.533933
 11
-43.93987
 21
17.181898
  0
LINE
  8
型材断面
  6
CONTINUOUS
 10
-65.365365
 20
38.60739
 11
-43.93987
 21
17.181898
  0
LINE
  8
型材断面
  6
CONTINUOUS
 10
-43.93987
 20
66.634917
 11
-47.587835
 21
66.634917
  0
LINE
  8
型材断面
  6
CONTINUOUS
 10
-69.013328
 20
45.209427
 11
-47.587835
 21
66.634917
  0
LINE
  8
型材断面
  6
CONTINUOUS
 10
-43.93987
 20
66.634917
 11
-43.93987
 21
62.986953
  0
LINE
  8
型材断面
  6
CONTINUOUS
 10
-65.365365
 20
41.56146
 11
-43.93987
 21
62.986953
  0
LINE
  8
型材断面
  6
CONTINUOUS
 10
-97.04086
 20
66.634917
 11
-93.392895
 21
66.634917
  0
LINE
  8
型材断面
  6
CONTINUOUS
 10
-71.967403
 20
45.209427
 11
-93.392895
 21
66.634917
  0
LINE
  8
型材断面
  6
CONTINUOUS
 10
-97.04086
 20
66.634917
 11
-97.04086
 21
62.986953
  0
LINE
  8
型材断面
  6
CONTINUOUS
 10
-75.615365
 20
41.56146
 11
-97.04086
 21
62.986953
  0
LINE
  8
型材断面
  6
CONTINUOUS
 10
78.657045
 20
56.105552
 11
102.588667
 21
56.105552
  0
LINE
  8
型材断面
  6
CONTINUOUS
 10
-70.490365
 20
-86.000345
 11
-44.595585
 21
-86.000345
  0
LINE
  8
型材断面
  6
CONTINUOUS
 10
-70.490365
 20
-85.495345
 11
-43.845585
 21
-85.495345
  0
LINE
  8
型材断面
  6
CONTINUOUS
 62
    47
 10
-44.595585
 20
-85.495345
 11
-44.595585
 21
-86.000345
  0
LINE
  8
型材断面
  6
CONTINUOUS
 62
    47
 10
-43.845585
 20
-79.638213
 11
-43.845585
 21
-85.495345
  0
LINE
  8
型材断面
  6
CONTINUOUS
 10
-70.490365
 20
-86.000345
 11
-96.385145
 21
-86.000345
  0
LINE
  8
型材断面
  6
CONTINUOUS
 10
-70.490365
 20
-85.495345
 11
-97.135145
 21
-85.495345
  0
LINE
  8
型材断面
  6
CONTINUOUS
 62
    47
 10
-96.385145
 20
-85.495345
 11
-96.385145
 21
-86.000345
  0
LINE
  8
型材断面
  6
CONTINUOUS
 62
    47
 10
-97.135145
 20
-79.638213
 11
-97.135145
 21
-85.495345
  0
LINE
  8
型材断面
  6
DASHDOT
 10
-70.490365
 20
-85.938137
 11
-70.490365
 21
62.584425
  0
LINE
  8
型材断面
  6
DASHDOT
 10
-47.990365
 20
-85.938137
 11
-47.990365
 21
62.584425
  0
LINE
  8
型材断面
  6
DASHDOT
 10
-92.990365
 20
-85.938137
 11
-92.990365
 21
62.584425
  0
LINE
  8
型材断面
  6
CONTINUOUS
 10
102.51059
 20
-86.000345
 11
128.40537
 21
-86.000345
  0
LINE
  8
型材断面
  6
CONTINUOUS
 10
102.51059
 20
-85.495345
 11
129.15537
 21
-85.495345
  0
LINE
  8
型材断面
  6
CONTINUOUS
 62
    47
 10
128.40537
 20
-85.495345
 11
128.40537
 21
-86.000345
  0
LINE
  8
型材断面
  6
CONTINUOUS
 62
    47
 10
129.15537
 20
-79.638213
 11
129.15537
 21
-85.495345
  0
LINE
  8
型材断面
  6
CONTINUOUS
 10
102.51059
 20
-86.000345
 11
76.61581
 21
-86.000345
  0
LINE
  8
型材断面
  6
CONTINUOUS
 10
102.51059
 20
-85.495345
 11
75.86581
 21
-85.495345
  0
LINE
  8
型材断面
  6
CONTINUOUS
 62
    47
 10
76.61581
 20
-85.495345
 11
76.61581
 21
-86.000345
  0
LINE
  8
型材断面
  6
CONTINUOUS
 62
    47
 10
75.86581
 20
-79.638213
 11
75.86581
 21
-85.495345
  0
LINE
  8
ガラス
  6
CONTINUOUS
 10
-68.60266
 20
25.455525
 11
-72.475295
 21
21.58289
  0
LINE
  8
ガラス
  6
CONTINUOUS
 10
-69.482982
 20
23.857167
 11
-70.876937
 21
22.463213
  0
LINE
  8
ガラス
  6
CONTINUOUS
 10
-70.201018
 20
24.575202
 11
-71.594973
 21
23.181248
  0
LINE
  8
ガラス
  6
CONTINUOUS
 10
-85.41728
 20
42.03992
 11
-89.289915
 21
38.167285
  0
LINE
  8
ガラス
  6
CONTINUOUS
 10
-86.297602
 20
40.441562
 11
-87.691558
 21
39.047608
  0
LINE
  8
ガラス
  6
CONTINUOUS
 10
-87.015637
 20
41.159598
 11
-88.409592
 21
39.765642
  0
LINE
  8
ガラス
  6
CONTINUOUS
 10
-68.60266
 20
59.659013
 11
-72.475295
 21
55.786377
  0
LINE
  8
ガラス
  6
CONTINUOUS
 10
-69.482982
 20
58.060655
 11
-70.876937
 21
56.6667
  0
LINE
  8
ガラス
  6
CONTINUOUS
 10
-70.201018
 20
58.77869
 11
-71.594973
 21
57.384735
  0
LINE
  8
ガラス
  6
CONTINUOUS
 10
-51.15862
 20
42.03992
 11
-55.031255
 21
38.167285
  0
LINE
  8
ガラス
  6
CONTINUOUS
 10
-52.038943
 20
40.441562
 11
-53.432898
 21
39.047608
  0
LINE
  8
ガラス
  6
CONTINUOUS
 10
-52.756977
 20
41.159598
 11
-54.150932
 21
39.765642
  0
LINE
  8
ガラス
  6
CONTINUOUS
 10
-68.60266
 20
-63.95924
 11
-72.475295
 21
-67.831875
  0
LINE
  8
ガラス
  6
CONTINUOUS
 10
-69.482982
 20
-65.557597
 11
-70.876937
 21
-66.951552
  0
LINE
  8
ガラス
  6
CONTINUOUS
 10
-70.201018
 20
-64.839563
 11
-71.594973
 21
-66.233518
  0
LINE
  8
ガラス
  6
CONTINUOUS
 10
104.398295
 20
-63.95924
 11
100.52566
 21
-67.831875
  0
LINE
  8
ガラス
  6
CONTINUOUS
 10
103.517973
 20
-65.557597
 11
102.124018
 21
-66.951552
  0
LINE
  8
ガラス
  6
CONTINUOUS
 10
102.799937
 20
-64.839563
 11
101.405983
 21
-66.233518
  0
LINE
  8
ガラス
  6
CONTINUOUS
 10
83.74157
 20
22.702555
 11
133.38433
 21
22.702555
  0
LINE
  8
ガラス
  6
CONTINUOUS
 10
83.74157
 20
22.702555
 11
108.56295
 21
57.805287
  0
LINE
  8
ガラス
  6
CONTINUOUS
 10
133.38433
 20
22.702555
 11
108.56295
 21
57.805287
  0
CIRCLE
  8
ボルト／ビス
  6
CONTINUOUS
 10
-44.845585
 20
-80.723035
 40
0.25
  0
CIRCLE
  8
ボルト／ビス
  6
CONTINUOUS
 10
-44.845585
 20
-80.723035
 40
0.2
  0
CIRCLE
  8
ボルト／ビス
  6
CONTINUOUS
 10
-44.845585
 20
-83.938035
 40
0.25
  0
CIRCLE
  8
ボルト／ビス
  6
CONTINUOUS
 10
-44.845585
 20
-83.938035
 40
0.2
  0
CIRCLE
  8
ボルト／ビス
  6
CONTINUOUS
 10
-96.135145
 20
-80.723035
 40
0.25
  0
CIRCLE
  8
ボルト／ビス
  6
CONTINUOUS
 10
-96.135145
 20
-80.723035
 40
0.2
  0
CIRCLE
  8
ボルト／ビス
  6
CONTINUOUS
 10
-96.135145
 20
-83.938035
 40
0.25
  0
CIRCLE
  8
ボルト／ビス
  6
CONTINUOUS
 10
-96.135145
 20
-83.938035
 40
0.2
  0
CIRCLE
  8
ボルト／ビス
  6
CONTINUOUS
 10
128.15537
 20
-80.723035
 40
0.25
  0
CIRCLE
  8
ボルト／ビス
  6
CONTINUOUS
 10
128.15537
 20
-80.723035
 40
0.2
  0
CIRCLE
  8
ボルト／ビス
  6
CONTINUOUS
 10
128.15537
 20
-83.938035
 40
0.25
  0
CIRCLE
  8
ボルト／ビス
  6
CONTINUOUS
 10
128.15537
 20
-83.938035
 40
0.2
  0
CIRCLE
  8
ボルト／ビス
  6
CONTINUOUS
 10
76.86581
 20
-80.723035
 40
0.25
  0
CIRCLE
  8
ボルト／ビス
  6
CONTINUOUS
 10
76.86581
 20
-80.723035
 40
0.2
  0
CIRCLE
  8
ボルト／ビス
  6
CONTINUOUS
 10
76.86581
 20
-83.938035
 40
0.25
  0
CIRCLE
  8
ボルト／ビス
  6
CONTINUOUS
 10
76.86581
 20
-83.938035
 40
0.2
  0
TEXT
  7
TextStyle03
  8
文字
  6
CONTINUOUS
 10
62.075
 20
102.575
  1
ＮＳコード：ＮＳ４Ｃ
 40
5.0
 72
     5
 11
117.7
 21
102.575
  0
TEXT
  7
TextStyle03
  8
文字
  6
CONTINUOUS
 10
61.85
 20
124.225
  1
シリーズ：ＴＦ４
 40
5.0
 72
     5
 11
106.225
 21
124.225
  0
TEXT
  7
TextStyle03
  8
文字
  6
CONTINUOUS
 10
61.85
 20
118.6
  1
　　　　　四角錘（上下可動）900×900タイプ
 40
5.0
 72
     5
 11
179.35
 21
118.6
  0
TEXT
  7
TextStyle03
  8
文字
  6
CONTINUOUS
 10
61.85
 20
112.975
  1
図面名　：外観姿図
 40
5.0
 72
     5
 11
111.85
 21
112.975
  0
TEXT
  7
TextStyle03
  8
文字
  6
CONTINUOUS
 10
61.85
 20
107.35
  1
　　　　　　
 40
5.0
 72
     5
 11
94.975
 21
107.35
  0
TEXT
  7
TextStyle03
  8
文字
  6
CONTINUOUS
 10
-11.225
 20
13.125
  1
は排水穴位置を示す
 40
3.0
 72
     5
 11
18.775
 21
13.125
  0
TEXT
  7
TextStyle03
  8
文字
  6
CONTINUOUS
 10
-11.225
 20
5.275
  1
はケーシング位置を示す
 40
3.0
 72
     5
 11
25.525
 21
5.275
  0
TEXT
  7
TextStyle03
  8
文字
  6
CONTINUOUS
 10
-11.225
 20
1.9
  1
４ヶ所中1ヶ所に設定
 40
3.0
 72
     5
 11
20.4625
 21
1.9
  0
TEXT
  7
TextStyle03
  8
文字
  6
CONTINUOUS
 10
-99.35
 20
85.775
  1
アンカーピッチ
 40
3.0
 72
     5
 11
-76.1
 21
85.775
  0
TEXT
  7
TextStyle03
  8
文字
  6
CONTINUOUS
 10
-123.0
 20
7.675
  1
アンカーピッチ
 40
3.0
 50
90.0
 72
     5
 11
-123.0
 21
30.925
  0
TEXT
  7
TextStyle03
  8
文字
  6
CONTINUOUS
 10
-16.825
 20
-5.25
  1
アンカー数量　６ヶ所
 40
3.0
 72
     5
 11
16.55
 21
-5.25
  0
TEXT
  7
TextStyle03
  8
文字
  6
CONTINUOUS
 10
-78.875
 20
0.55
  1
可動装置側
 40
3.0
 72
     5
 11
-62.375
 21
0.55
  0
TEXT
  7
TextStyle03
  8
文字
  6
CONTINUOUS
 10
-78.875
 20
76.15
  1
可動装置側
 40
3.0
 72
     5
 11
-62.375
 21
76.15
  0
TEXT
  7
TextStyle03
  8
文字
  6
CONTINUOUS
 10
-16.85
 20
-12.05
  1
アームユニット数　２ヶ所
 40
3.0
 72
     5
 11
23.275
 21
-12.05
  0
TEXT
  7
TextStyle03
  8
文字
  6
CONTINUOUS
 10
-23.9
 20
24.95
  1
ﾊﾞﾗﾝｽｽﾃｰ
 40
3.0
 72
     5
 11
-10.5875
 21
24.95
  0
TEXT
  7
TextStyle03
  8
文字
  6
CONTINUOUS
 10
82.325
 20
57.325
  1
ガラス寸法
 40
3.0
 72
     5
 11
98.825
 21
57.325
  0
TEXT
  7
TextStyle03
  8
文字
  6
CONTINUOUS
 10
117.3
 20
25.025
  1
×４枚
 40
3.0
 72
     5
 11
127.05
 21
25.025
  0
INSERT
  2
*DIM_0002
  8
寸法
  6
CONTINUOUS
 10
0.0
 20
0.0
  0
INSERT
  2
*DIM_0003
  8
寸法
  6
CONTINUOUS
 10
0.0
 20
0.0
  0
INSERT
  2
*DIM_0004
  8
寸法
  6
CONTINUOUS
 10
0.0
 20
0.0
  0
INSERT
  2
*DIM_0005
  8
寸法
  6
CONTINUOUS
 10
0.0
 20
0.0
  0
INSERT
  2
*DIM_0006
  8
寸法
  6
CONTINUOUS
 10
0.0
 20
0.0
  0
INSERT
  2
*DIM_0007
  8
寸法
  6
CONTINUOUS
 10
0.0
 20
0.0
  0
INSERT
  2
*DIM_0008
  8
寸法
  6
CONTINUOUS
 10
0.0
 20
0.0
  0
INSERT
  2
*DIM_0009
  8
寸法
  6
CONTINUOUS
 10
0.0
 20
0.0
  0
INSERT
  2
*DIM_0010
  8
寸法
  6
CONTINUOUS
 10
0.0
 20
0.0
  0
INSERT
  2
*DIM_0011
  8
寸法
  6
CONTINUOUS
 10
0.0
 20
0.0
  0
INSERT
  2
*DIM_0012
  8
寸法
  6
CONTINUOUS
 10
0.0
 20
0.0
  0
CIRCLE
  8
寸法
  6
CONTINUOUS
 10
-112.008723
 20
40.084425
 40
1.73792
  0
INSERT
  2
*GRP_0013
  8
寸法
  6
CONTINUOUS
 10
0.0
 20
0.0
  0
INSERT
  2
*DIM_0015
  8
寸法
  6
CONTINUOUS
 10
0.0
 20
0.0
  0
INSERT
  2
*DIM_0020
  8
寸法
  6
CONTINUOUS
 10
0.0
 20
0.0
  0
INSERT
  2
*DIM_0021
  8
寸法
  6
CONTINUOUS
 10
0.0
 20
0.0
  0
INSERT
  2
*DIM_0023
  8
寸法
  6
CONTINUOUS
 10
0.0
 20
0.0
  0
INSERT
  2
*GRP_0014
  8
曲げ物
  6
DOT
 10
0.0
 20
0.0
  0
ENDSEC
  0
EOF
