  0
SECTION
  2
HEADER
  9
$EXTMIN
 10
-210.0
 20
-148.5
  9
$EXTMAX
 10
210.0
 20
148.5
  9
$PDMODE
 70
    32
  9
$PDSIZE
 40
1.5
  9
$LTSCALE
 40
10.0
  0
ENDSEC
  0
SECTION
  2
TABLES
  0
TABLE
  2
LTYPE
 70
    15
  0
LTYPE
  2
CONTINUOUS
 70
    64
  3
実線
 72
    65
 73
     0
 40
0.0
  0
LTYPE
  2
DASHED
 70
    64
  3
破線A
 72
    65
 73
     2
 40
0.6
 49
0.4
 49
-0.2
  0
LTYPE
  2
DASHEDX2
 70
    64
  3
破線B
 72
    65
 73
     2
 40
1.3
 49
0.9
 49
-0.4
  0
LTYPE
  2
DASHDOT
 70
    64
  3
１点鎖線A
 72
    65
 73
     4
 40
0.5375
 49
0.375
 49
-0.05
 49
0.0625
 49
-0.05
  0
LTYPE
  2
DASHDOTX2
 70
    64
  3
１点鎖線B
 72
    65
 73
     4
 40
1.075
 49
0.75
 49
-0.1
 49
0.125
 49
-0.1
  0
LTYPE
  2
DIVIDE2
 70
    64
  3
２点鎖線A
 72
    65
 73
     6
 40
0.5125
 49
0.3
 49
-0.0375
 49
0.05
 49
-0.0375
 49
0.05
 49
-0.0375
  0
LTYPE
  2
DIVIDE
 70
    64
  3
２点鎖線B
 72
    65
 73
     6
 40
1.05
 49
0.55
 49
-0.1
 49
0.1
 49
-0.1
 49
0.1
 49
-0.1
  0
LTYPE
  2
DOT
 70
    64
  3
点線A
 72
    65
 73
     2
 40
0.1125
 49
0.0625
 49
-0.05
  0
LTYPE
  2
DOTX2
 70
    64
  3
点線B
 72
    65
 73
     2
 40
0.275
 49
0.15
 49
-0.125
  0
LTYPE
  2
CONTINUOUS
 70
    64
  3
実線
 72
    65
 73
     0
 40
0.0
  0
LTYPE
  2
CONTINUOUS
 70
    64
  3
実線
 72
    65
 73
     0
 40
0.0
  0
LTYPE
  2
CONTINUOUS
 70
    64
  3
実線
 72
    65
 73
     0
 40
0.0
  0
LTYPE
  2
CONTINUOUS
 70
    64
  3
実線
 72
    65
 73
     0
 40
0.0
  0
LTYPE
  2
CONTINUOUS
 70
    64
  3
実線
 72
    65
 73
     0
 40
0.0
  0
LTYPE
  2
CONTINUOUS
 70
    64
  3
実線
 72
    65
 73
     0
 40
0.0
  0
ENDTAB
  0
TABLE
  2
LAYER
 70
    36
  0
LAYER
  2
通り芯
 70
     0
 62
    15
  6
CONTINUOUS
  0
LAYER
  2
補助線
 70
     0
 62
    16
  6
DOT
  0
LAYER
  2
躯体
 70
     0
 62
    31
  6
CONTINUOUS
  0
LAYER
  2
型材
 70
     0
 62
    32
  6
CONTINUOUS
  0
LAYER
  2
型材断面
 70
     0
 62
    47
  6
CONTINUOUS
  0
LAYER
  2
ガラス
 70
     0
 62
    48
  6
CONTINUOUS
  0
LAYER
  2
ゴム等
 70
     0
 62
    63
  6
CONTINUOUS
  0
LAYER
  2
ボルト／ビス
 70
     0
 62
    64
  6
CONTINUOUS
  0
LAYER
  2
文字
 70
     0
 62
    79
  6
CONTINUOUS
  0
LAYER
  2
寸法
 70
     0
 62
    80
  6
CONTINUOUS
  0
LAYER
  2
ﾊｯﾁﾝｸﾞ
 70
     0
 62
    95
  6
CONTINUOUS
  0
LAYER
  2
別途部材
 70
     0
 62
    96
  6
CONTINUOUS
  0
LAYER
  2
曲げ物
 70
     0
 62
   111
  6
CONTINUOUS
  0
LAYER
  2
鉄骨等
 70
     0
 62
   112
  6
CONTINUOUS
  0
LAYER
  2
St
 70
     0
 62
   127
  6
CONTINUOUS
  0
LAYER
  2
その他部品等
 70
     0
 62
   128
  6
CONTINUOUS
  0
LAYER
  2
ｶﾞｽｹｯﾄ
 70
     0
 62
   143
  6
CONTINUOUS
  0
LAYER
  2
ｽｹｯﾁ
 70
     0
 62
    14
  6
CONTINUOUS
  0
LAYER
  2
0
 70
     0
 62
    17
  6
CONTINUOUS
  0
LAYER
  2
1
 70
     0
 62
    30
  6
CONTINUOUS
  0
LAYER
  2
4
 70
     0
 62
    33
  6
CONTINUOUS
  0
LAYER
  2
ﾚｲﾔ3
 70
     0
 62
    46
  6
CONTINUOUS
  0
LAYER
  2
外形線
 70
     0
 62
    49
  6
CONTINUOUS
  0
LAYER
  2
部品
 70
     0
 62
    14
  6
CONTINUOUS
  0
LAYER
  2
サッシ芯
 70
     0
 62
    17
  6
DASHDOTX2
  0
LAYER
  2
寸法線
 70
     0
 62
    62
  6
CONTINUOUS
  0
LAYER
  2
姿図外形線
 70
     0
 62
    65
  6
CONTINUOUS
  0
LAYER
  2
姿補助線
 70
     0
 62
    30
  6
CONTINUOUS
  0
LAYER
  2
透視線
 70
     0
 62
    78
  6
DOT
  0
LAYER
  2
用紙
 70
     0
 62
    81
  6
CONTINUOUS
  0
LAYER
  2
実線図枠
 70
     0
 62
    94
  6
CONTINUOUS
  0
LAYER
  2
補助図枠
 70
     0
 62
    97
  6
CONTINUOUS
  0
LAYER
  2
建具記号
 70
     0
 62
   110
  6
CONTINUOUS
  0
LAYER
  2
補助文字
 70
     0
 62
   113
  6
CONTINUOUS
  0
LAYER
  2
01
 70
     0
 62
     1
  6
CONTINUOUS
  0
LAYER
  2
02
 70
     0
 62
     2
  6
CONTINUOUS
  0
ENDTAB
  0
TABLE
  2
STYLE
 70
    10
  0
STYLE
  2
STANDARD
 70
     0
 40
1.0
 41
1.0
 42
1.0
 50
0.0
 71
     0
  3
TXT
  4
BIGFONT
  0
STYLE
  2
TATE
 70
     4
 40
1.0
 41
1.0
 42
1.0
 50
0.0
 71
     0
  3
TXT
  4
BIGFONT
  0
STYLE
  2
TextStyle03
 70
     0
 40
1.0
 41
1.0
 42
1.0
 50
0.0
 71
     0
  3
MONOTXT
  4
BIGFONT
  0
STYLE
  2
TextStyle04
 70
     0
 40
1.0
 41
1.0
 42
1.0
 50
0.0
 71
     0
  3
MONOTXT
  4
BIGFONT
  0
STYLE
  2
TextStyle05
 70
     0
 40
1.0
 41
1.0
 42
1.0
 50
0.0
 71
     0
  3
MONOTXT
  4
BIGFONT
  0
STYLE
  2
TextStyle06
 70
     0
 40
1.0
 41
1.0
 42
1.0
 50
0.0
 71
     0
  3
MONOTXT
  4
BIGFONT
  0
STYLE
  2
TextStyle07
 70
     0
 40
1.0
 41
1.0
 42
1.0
 50
0.0
 71
     0
  3
MONOTXT
  4
BIGFONT
  0
STYLE
  2
TextStyle08
 70
     0
 40
1.0
 41
1.0
 42
1.0
 50
0.0
 71
     0
  3
MONOTXT
  4
BIGFONT
  0
STYLE
  2
TextStyle09
 70
     0
 40
1.0
 41
1.0
 42
1.0
 50
0.0
 71
     0
  3
MONOTXT
  4
BIGFONT
  0
STYLE
  2
TextStyle10
 70
     0
 40
1.0
 41
1.0
 42
1.0
 50
0.0
 71
     0
  3
MONOTXT
  4
BIGFONT
  0
ENDTAB
  0
ENDSEC
  0
SECTION
  2
BLOCKS
  0
BLOCK
  2
*HAT_0001
 70
    65
 10
0.0
 20
0.0
  0
LINE
  8
ゴム等
  6
DOT
 10
-17.275
 20
-1.95
 11
-15.7
 21
-3.525
  0
LINE
  8
ゴム等
  6
DOT
 10
-14.8
 20
-4.5
 11
-13.45
 21
-5.85
  0
LINE
  8
ゴム等
  6
DOT
 10
-17.275
 20
-0.6
 11
-12.025
 21
-5.85
  0
LINE
  8
ゴム等
  6
DOT
 10
-17.275
 20
0.825
 11
-10.6
 21
-5.85
  0
LINE
  8
ゴム等
  6
DOT
 10
-16.675
 20
1.65
 11
-9.775
 21
-5.25
  0
LINE
  8
ゴム等
  6
DOT
 10
-15.55
 20
1.95
 11
-9.775
 21
-3.825
  0
LINE
  8
ゴム等
  6
DOT
 10
-14.8
 20
2.55
 11
-9.775
 21
-2.4
  0
LINE
  8
ゴム等
  6
DOT
 10
-14.8
 20
3.975
 11
-10.075
 21
-0.675
  0
LINE
  8
ゴム等
  6
DOT
 10
-13.525
 20
4.2
 11
-9.775
 21
0.375
  0
LINE
  8
ゴム等
  6
DOT
 10
-12.1
 20
4.2
 11
-9.775
 21
1.8
  0
LINE
  8
ゴム等
  6
DOT
 10
-10.675
 20
4.2
 11
-9.775
 21
3.225
  0
ENDBLK
  0
BLOCK
  2
*HAT_0002
 70
    65
 10
0.0
 20
0.0
  0
LINE
  8
ゴム等
  6
DOT
 10
4.1
 20
-98.325
 11
2.525
 21
-96.75
  0
LINE
  8
ゴム等
  6
DOT
 10
1.55
 20
-95.775
 11
0.2
 21
-94.425
  0
LINE
  8
ゴム等
  6
DOT
 10
5.45
 20
-98.325
 11
0.2
 21
-93.0
  0
LINE
  8
ゴム等
  6
DOT
 10
6.875
 20
-98.325
 11
0.2
 21
-91.65
  0
LINE
  8
ゴム等
  6
DOT
 10
7.7
 20
-97.725
 11
0.8
 21
-90.825
  0
LINE
  8
ゴム等
  6
DOT
 10
8.0
 20
-96.525
 11
2.225
 21
-90.825
  0
LINE
  8
ゴム等
  6
DOT
 10
8.6
 20
-95.775
 11
3.65
 21
-90.825
  0
LINE
  8
ゴム等
  6
DOT
 10
10.025
 20
-95.775
 11
5.375
 21
-91.125
  0
LINE
  8
ゴム等
  6
DOT
 10
10.25
 20
-94.575
 11
6.425
 21
-90.825
  0
LINE
  8
ゴム等
  6
DOT
 10
10.25
 20
-93.15
 11
7.85
 21
-90.825
  0
LINE
  8
ゴム等
  6
DOT
 10
10.25
 20
-91.725
 11
9.275
 21
-90.825
  0
ENDBLK
  0
BLOCK
  2
*HAT_0003
 70
    65
 10
0.0
 20
0.0
  0
LINE
  8
ゴム等
 10
0.5
 20
7.2
 11
1.4
 21
8.175
  0
LINE
  8
ゴム等
 10
-1.375
 20
7.2
 11
2.0
 21
10.575
  0
LINE
  8
ゴム等
 10
4.625
 20
13.2
 11
5.225
 21
13.8
  0
LINE
  8
ゴム等
 10
-3.25
 20
7.2
 11
1.25
 21
11.7
  0
LINE
  8
ゴム等
 10
2.75
 20
13.2
 11
5.225
 21
15.675
  0
LINE
  8
ゴム等
 10
-5.125
 20
7.2
 11
-3.55
 21
8.775
  0
LINE
  8
ゴム等
 10
-1.3
 20
11.025
 11
4.55
 21
16.875
  0
LINE
  8
ゴム等
 10
-6.85
 20
7.425
 11
-4.3
 21
9.975
  0
LINE
  8
ゴム等
 10
-1.45
 20
12.75
 11
3.2
 21
17.4
  0
LINE
  8
ゴム等
 10
-7.15
 20
8.925
 11
-4.3
 21
11.85
  0
LINE
  8
ゴム等
 10
-2.95
 20
13.2
 11
1.25
 21
17.4
  0
LINE
  8
ゴム等
 10
-7.525
 20
10.425
 11
-7.0
 21
11.025
  0
LINE
  8
ゴム等
 10
-6.775
 20
11.175
 11
-0.55
 21
17.4
  0
LINE
  8
ゴム等
 10
-6.775
 20
13.125
 11
-2.5
 21
17.4
  0
LINE
  8
ゴム等
 10
-8.575
 20
13.2
 11
-4.375
 21
17.4
  0
LINE
  8
ゴム等
 10
-8.8
 20
14.925
 11
-6.25
 21
17.4
  0
LINE
  8
ゴム等
 10
-9.625
 20
15.9
 11
-8.125
 21
17.4
  0
LINE
  8
ゴム等
 10
-11.275
 20
16.125
 11
-10.0
 21
17.4
  0
ENDBLK
  0
BLOCK
  2
*HAT_0004
 70
    65
 10
0.0
 20
0.0
  0
LINE
  8
ゴム等
 10
-12.175
 20
10.35
 11
-11.2
 21
11.4
  0
LINE
  8
ゴム等
 10
-9.175
 20
13.35
 11
-9.175
 21
13.425
  0
LINE
  8
ゴム等
 10
-17.575
 20
6.9
 11
-16.225
 21
8.25
  0
LINE
  8
ゴム等
 10
-14.125
 20
10.35
 11
-11.2
 21
13.275
  0
LINE
  8
ゴム等
 10
-11.125
 20
13.35
 11
-9.175
 21
15.3
  0
LINE
  8
ゴム等
 10
-19.525
 20
6.9
 11
-17.2
 21
9.15
  0
LINE
  8
ゴム等
 10
-16.0
 20
10.35
 11
-10.525
 21
15.9
  0
LINE
  8
ゴム等
 10
-21.325
 20
6.9
 11
-12.325
 21
15.9
  0
LINE
  8
ゴム等
 10
-22.675
 20
7.5
 11
-14.275
 21
15.9
  0
LINE
  8
ゴム等
 10
-22.225
 20
9.825
 11
-15.475
 21
16.5
  0
LINE
  8
ゴム等
 10
-23.5
 20
10.35
 11
-16.975
 21
16.95
  0
LINE
  8
ゴム等
 10
-25.375
 20
10.35
 11
-18.475
 21
17.25
  0
LINE
  8
ゴム等
 10
-26.2
 20
11.475
 11
-20.275
 21
17.4
  0
LINE
  8
ゴム等
 10
-26.2
 20
13.35
 11
-22.375
 21
17.175
  0
LINE
  8
ゴム等
 10
-26.2
 20
15.3
 11
-25.0
 21
16.425
  0
ENDBLK
  0
BLOCK
  2
*HAT_0005
 70
    65
 10
0.0
 20
0.0
  0
LINE
  8
別途部材
  6
DOT
 10
-31.225
 20
-111.3
 11
-31.45
 21
-111.075
  0
LINE
  8
別途部材
  6
DOT
 10
-28.75
 20
-111.3
 11
-31.45
 21
-108.525
  0
LINE
  8
別途部材
  6
DOT
 10
-26.2
 20
-111.3
 11
-31.45
 21
-105.975
  0
LINE
  8
別途部材
  6
DOT
 10
-23.65
 20
-111.3
 11
-31.45
 21
-103.425
  0
LINE
  8
別途部材
  6
DOT
 10
-21.475
 20
-110.925
 11
-31.075
 21
-101.25
  0
LINE
  8
別途部材
  6
DOT
 10
-21.475
 20
-108.375
 11
-28.525
 21
-101.25
  0
LINE
  8
別途部材
  6
DOT
 10
-21.475
 20
-105.825
 11
-26.05
 21
-101.25
  0
LINE
  8
別途部材
  6
DOT
 10
-21.475
 20
-103.275
 11
-23.5
 21
-101.25
  0
ENDBLK
  0
BLOCK
  2
*HAT_0006
 70
    65
 10
0.0
 20
0.0
  0
LINE
  8
別途部材
  6
DOT
 10
-58.375
 20
24.9
 11
-58.6
 21
25.125
  0
LINE
  8
別途部材
  6
DOT
 10
-55.9
 20
24.9
 11
-58.6
 21
27.675
  0
LINE
  8
別途部材
  6
DOT
 10
-53.35
 20
24.9
 11
-58.6
 21
30.225
  0
LINE
  8
別途部材
  6
DOT
 10
-50.8
 20
24.9
 11
-58.6
 21
32.775
  0
LINE
  8
別途部材
  6
DOT
 10
-48.625
 20
25.275
 11
-58.225
 21
34.95
  0
LINE
  8
別途部材
  6
DOT
 10
-48.625
 20
27.825
 11
-55.675
 21
34.95
  0
LINE
  8
別途部材
  6
DOT
 10
-48.625
 20
30.375
 11
-53.2
 21
34.95
  0
LINE
  8
別途部材
  6
DOT
 10
-48.625
 20
32.925
 11
-50.65
 21
34.95
  0
ENDBLK
  0
BLOCK
  2
*HAT_0007
 70
    65
 10
0.0
 20
0.0
  0
LINE
  8
ﾊｯﾁﾝｸﾞ
 10
-35.6
 20
102.05
 11
-19.25
 21
118.4
  0
LINE
  8
ﾊｯﾁﾝｸﾞ
 10
-36.65
 20
103.175
 11
-21.425
 21
118.4
  0
LINE
  8
ﾊｯﾁﾝｸﾞ
 10
-37.7
 20
104.225
 11
-23.525
 21
118.4
  0
LINE
  8
ﾊｯﾁﾝｸﾞ
 10
-38.825
 20
105.275
 11
-25.625
 21
118.4
  0
LINE
  8
ﾊｯﾁﾝｸﾞ
 10
-39.875
 20
106.325
 11
-27.725
 21
118.4
  0
LINE
  8
ﾊｯﾁﾝｸﾞ
 10
-40.925
 20
107.375
 11
-29.825
 21
118.4
  0
LINE
  8
ﾊｯﾁﾝｸﾞ
 10
-41.975
 20
108.425
 11
-32.0
 21
118.4
  0
LINE
  8
ﾊｯﾁﾝｸﾞ
 10
-43.025
 20
109.475
 11
-39.5
 21
113.0
  0
LINE
  8
ﾊｯﾁﾝｸﾞ
 10
-35.975
 20
116.6
 11
-34.1
 21
118.4
  0
LINE
  8
ﾊｯﾁﾝｸﾞ
 10
-37.025
 20
117.65
 11
-36.2
 21
118.4
  0
LINE
  8
ﾊｯﾁﾝｸﾞ
 10
-43.025
 20
110.375
 11
-34.175
 21
101.6
  0
LINE
  8
ﾊｯﾁﾝｸﾞ
 10
-41.975
 20
111.5
 11
-33.125
 21
102.65
  0
LINE
  8
ﾊｯﾁﾝｸﾞ
 10
-40.925
 20
112.55
 11
-32.075
 21
103.7
  0
LINE
  8
ﾊｯﾁﾝｸﾞ
 10
-38.975
 20
112.7
 11
-31.025
 21
104.75
  0
LINE
  8
ﾊｯﾁﾝｸﾞ
 10
-37.925
 20
113.825
 11
-29.975
 21
105.8
  0
LINE
  8
ﾊｯﾁﾝｸﾞ
 10
-36.875
 20
114.875
 11
-28.925
 21
106.85
  0
LINE
  8
ﾊｯﾁﾝｸﾞ
 10
-35.825
 20
115.925
 11
-27.8
 21
107.9
  0
LINE
  8
ﾊｯﾁﾝｸﾞ
 10
-36.2
 20
118.4
 11
-26.75
 21
108.95
  0
LINE
  8
ﾊｯﾁﾝｸﾞ
 10
-34.1
 20
118.4
 11
-25.7
 21
110.075
  0
LINE
  8
ﾊｯﾁﾝｸﾞ
 10
-32.0
 20
118.4
 11
-24.65
 21
111.125
  0
LINE
  8
ﾊｯﾁﾝｸﾞ
 10
-29.9
 20
118.4
 11
-23.6
 21
112.175
  0
LINE
  8
ﾊｯﾁﾝｸﾞ
 10
-27.725
 20
118.4
 11
-22.55
 21
113.225
  0
LINE
  8
ﾊｯﾁﾝｸﾞ
 10
-25.625
 20
118.4
 11
-21.5
 21
114.275
  0
LINE
  8
ﾊｯﾁﾝｸﾞ
 10
-23.525
 20
118.4
 11
-20.45
 21
115.325
  0
LINE
  8
ﾊｯﾁﾝｸﾞ
 10
-21.425
 20
118.4
 11
-19.325
 21
116.375
  0
LINE
  8
ﾊｯﾁﾝｸﾞ
 10
-19.25
 20
118.4
 11
-18.275
 21
117.425
  0
ENDBLK
  0
BLOCK
  2
*GRP_0001
 70
    65
 10
0.0
 20
0.0
  0
LINE
  8
型材断面
  6
CONTINUOUS
 10
195.0
 20
133.5
 11
195.0
 21
-133.5
  0
LINE
  8
型材断面
  6
CONTINUOUS
 10
195.0
 20
-133.5
 11
-185.0
 21
-133.5
  0
LINE
  8
型材断面
  6
CONTINUOUS
 10
-185.0
 20
-133.5
 11
-185.0
 21
133.5
  0
LINE
  8
型材断面
  6
CONTINUOUS
 10
195.0
 20
133.5
 11
-185.0
 21
133.5
  0
LINE
  8
型材断面
  6
CONTINUOUS
 10
145.0
 20
-133.5
 11
145.0
 21
-118.5
  0
LINE
  8
型材断面
  6
CONTINUOUS
 10
195.0
 20
-118.5
 11
145.0
 21
-118.5
  0
ENDBLK
  0
BLOCK
  2
*GRP_0002
 70
    65
 10
0.0
 20
0.0
  0
ARC
  8
通り芯
  6
CONTINUOUS
 10
-56.3105
 20
27.080974
 40
2.0
 50
180.0
 51
270.0
  0
INSERT
  2
*GRP_0032
  8
通り芯
  6
DOT
 10
0.0
 20
0.0
  0
INSERT
  2
*GRP_0033
  8
通り芯
  6
DOT
 10
0.0
 20
0.0
  0
INSERT
  2
*GRP_0034
  8
通り芯
  6
DOT
 10
0.0
 20
0.0
  0
ARC
  8
通り芯
  6
CONTINUOUS
 10
-24.310602
 20
27.080974
 40
2.0
 50
270.0
 51
360.0
  0
LINE
  8
通り芯
  6
CONTINUOUS
 10
-56.3105
 20
27.080972
 11
-24.3106
 21
27.080972
  0
LINE
  8
通り芯
  6
CONTINUOUS
 10
-58.310502
 20
25.08097
 11
-22.310605
 21
25.08097
  0
LINE
  8
通り芯
  6
CONTINUOUS
 10
-22.310605
 20
25.08097
 11
-22.310605
 21
33.580965
  0
LINE
  8
通り芯
  6
CONTINUOUS
 10
-24.3106
 20
27.080972
 11
-24.3106
 21
33.580965
  0
LINE
  8
通り芯
  6
CONTINUOUS
 10
-22.310605
 20
33.580965
 11
-24.3106
 21
33.580965
  0
LINE
  8
通り芯
  6
CONTINUOUS
 10
-56.3105
 20
27.080972
 11
-56.3105
 21
72.080875
  0
LINE
  8
通り芯
  6
CONTINUOUS
 10
-58.310502
 20
25.08097
 11
-58.310502
 21
72.08093
  0
LINE
  8
通り芯
  6
CONTINUOUS
 10
-56.3105
 20
72.080875
 11
-58.310502
 21
72.08093
  0
ENDBLK
  0
BLOCK
  2
*GRP_0003
 70
    65
 10
0.0
 20
0.0
  0
LINE
  8
通り芯
  6
CONTINUOUS
 10
-31.206088
 20
3.12718
 11
-29.206085
 21
3.12718
  0
LINE
  8
通り芯
  6
CONTINUOUS
 10
-29.206085
 20
3.12718
 11
-29.206085
 21
-109.17281
  0
LINE
  8
通り芯
  6
CONTINUOUS
 10
-31.206088
 20
3.12718
 11
-31.206088
 21
-109.17281
  0
ARC
  8
通り芯
  6
CONTINUOUS
 10
-29.206087
 20
-109.172815
 40
2.0
 50
180.0
 51
270.0
  0
INSERT
  2
*GRP_0035
  8
通り芯
  6
DOT
 10
0.0
 20
0.0
  0
INSERT
  2
*GRP_0036
  8
通り芯
  6
DOT
 10
0.0
 20
0.0
  0
LINE
  8
通り芯
  6
CONTINUOUS
 10
-29.206085
 20
-111.172812
 11
-1.706095
 21
-111.172812
  0
LINE
  8
通り芯
  6
CONTINUOUS
 10
-29.206085
 20
-109.17281
 11
-1.706095
 21
-109.17281
  0
LINE
  8
通り芯
  6
CONTINUOUS
 10
-1.706095
 20
-111.172812
 11
-1.706095
 21
-109.17281
  0
ENDBLK
  0
BLOCK
  2
*GRP_0004
 70
    65
 10
0.0
 20
0.0
  0
LINE
  8
02
  6
CONTINUOUS
 62
    47
 10
13.193958
 20
42.52516
 11
16.193958
 21
42.52516
  0
LINE
  8
02
  6
CONTINUOUS
 62
    47
 10
14.693958
 20
44.02516
 11
14.693958
 21
41.02516
  0
ENDBLK
  0
BLOCK
  2
*GRP_0005
 70
    65
 10
0.0
 20
0.0
  0
LINE
  8
ボルト／ビス
  6
CONTINUOUS
 62
    64
 10
73.193943
 20
-94.176387
 11
73.10224
 21
-95.22455
  0
ARC
  8
ボルト／ビス
  6
CONTINUOUS
 62
    64
 10
71.408716
 20
-95.076381
 40
1.7
 50
270.0
 51
355.000011
  0
LINE
  8
ボルト／ビス
  6
CONTINUOUS
 62
    64
 10
71.40871
 20
-96.77639
 11
69.69394
 21
-96.77639
  0
LINE
  8
ボルト／ビス
  6
CONTINUOUS
 62
    64
 10
66.193945
 20
-94.176387
 11
66.285648
 21
-95.22455
  0
ARC
  8
ボルト／ビス
  6
CONTINUOUS
 62
    64
 10
67.979183
 20
-95.076381
 40
1.7
 50
184.999989
 51
270.0
  0
LINE
  8
ボルト／ビス
  6
CONTINUOUS
 62
    64
 10
67.979177
 20
-96.77639
 11
69.69394
 21
-96.77639
  0
LINE
  8
ボルト／ビス
  6
CONTINUOUS
 62
    64
 10
72.09058
 20
-96.391482
 11
72.09058
 21
-96.633643
  0
LINE
  8
ボルト／ビス
  6
CONTINUOUS
 62
    64
 10
70.393945
 20
-95.741398
 11
69.69394
 21
-95.741398
  0
LINE
  8
ボルト／ビス
  6
CONTINUOUS
 62
    64
 10
70.793943
 20
-96.391482
 11
72.09058
 21
-96.391482
  0
LINE
  8
ボルト／ビス
  6
CONTINUOUS
 62
    64
 10
70.393945
 20
-95.741398
 11
70.393945
 21
-95.991485
  0
ARC
  8
ボルト／ビス
  6
CONTINUOUS
 62
    64
 10
70.79395
 20
-95.991476
 40
0.4
 50
180.0
 51
270.0
  0
LINE
  8
ボルト／ビス
  6
CONTINUOUS
 62
    64
 10
67.2973
 20
-96.391482
 11
67.2973
 21
-96.633643
  0
LINE
  8
ボルト／ビス
  6
CONTINUOUS
 62
    64
 10
68.993943
 20
-95.741398
 11
69.69394
 21
-95.741398
  0
LINE
  8
ボルト／ビス
  6
CONTINUOUS
 62
    64
 10
68.593945
 20
-96.391482
 11
67.2973
 21
-96.391482
  0
LINE
  8
ボルト／ビス
  6
CONTINUOUS
 62
    64
 10
68.993943
 20
-95.741398
 11
68.993943
 21
-95.991485
  0
ARC
  8
ボルト／ビス
  6
CONTINUOUS
 62
    64
 10
68.59395
 20
-95.991476
 40
0.4
 50
270.0
 51
360.0
  0
LINE
  8
ボルト／ビス
  6
CONTINUOUS
 62
    64
 10
73.193943
 20
-94.176387
 11
66.193945
 21
-94.176387
  0
LINE
  8
ボルト／ビス
  6
CONTINUOUS
 62
    64
 10
71.693943
 20
-86.676387
 11
71.19394
 21
-86.176385
  0
LINE
  8
ボルト／ビス
  6
CONTINUOUS
 62
    64
 10
67.693945
 20
-86.676387
 11
68.19394
 21
-86.176385
  0
LINE
  8
ボルト／ビス
  6
CONTINUOUS
 62
    64
 10
71.19394
 20
-94.176387
 11
71.19394
 21
-86.176385
  0
LINE
  8
ボルト／ビス
  6
CONTINUOUS
 62
    64
 10
71.693943
 20
-94.176387
 11
71.693943
 21
-86.676387
  0
LINE
  8
ボルト／ビス
  6
CONTINUOUS
 62
    64
 10
68.19394
 20
-94.176387
 11
68.19394
 21
-86.176385
  0
LINE
  8
ボルト／ビス
  6
CONTINUOUS
 62
    64
 10
67.693945
 20
-94.176387
 11
67.693945
 21
-86.676387
  0
LINE
  8
ボルト／ビス
  6
CONTINUOUS
 62
    64
 10
71.693943
 20
-86.676387
 11
67.693945
 21
-86.676387
  0
LINE
  8
ボルト／ビス
  6
CONTINUOUS
 62
    64
 10
71.19394
 20
-86.176385
 11
68.19394
 21
-86.176385
  0
LINE
  8
ボルト／ビス
  6
CONTINUOUS
 62
    64
 10
69.69394
 20
-98.747772
 11
69.69394
 21
-83.92589
  0
ENDBLK
  0
BLOCK
  2
*GRP_0006
 70
    65
 10
0.0
 20
0.0
  0
LINE
  8
ボルト／ビス
  6
CONTINUOUS
 62
    64
 10
20.24395
 20
-94.176387
 11
20.152247
 21
-95.22455
  0
ARC
  8
ボルト／ビス
  6
CONTINUOUS
 62
    64
 10
18.458724
 20
-95.076386
 40
1.7
 50
270.0
 51
355.000011
  0
LINE
  8
ボルト／ビス
  6
CONTINUOUS
 62
    64
 10
18.458718
 20
-96.77639
 11
16.743947
 21
-96.77639
  0
LINE
  8
ボルト／ビス
  6
CONTINUOUS
 62
    64
 10
13.243952
 20
-94.176387
 11
13.335655
 21
-95.22455
  0
ARC
  8
ボルト／ビス
  6
CONTINUOUS
 62
    64
 10
15.029191
 20
-95.076386
 40
1.7
 50
184.999989
 51
270.0
  0
LINE
  8
ボルト／ビス
  6
CONTINUOUS
 62
    64
 10
15.029185
 20
-96.77639
 11
16.743947
 21
-96.77639
  0
LINE
  8
ボルト／ビス
  6
CONTINUOUS
 62
    64
 10
19.140588
 20
-96.391482
 11
19.140588
 21
-96.633643
  0
LINE
  8
ボルト／ビス
  6
CONTINUOUS
 62
    64
 10
17.443952
 20
-95.741398
 11
16.743947
 21
-95.741398
  0
LINE
  8
ボルト／ビス
  6
CONTINUOUS
 62
    64
 10
17.84395
 20
-96.391482
 11
19.140588
 21
-96.391482
  0
LINE
  8
ボルト／ビス
  6
CONTINUOUS
 62
    64
 10
17.443952
 20
-95.741398
 11
17.443952
 21
-95.991485
  0
ARC
  8
ボルト／ビス
  6
CONTINUOUS
 62
    64
 10
17.843957
 20
-95.991481
 40
0.4
 50
180.0
 51
270.0
  0
LINE
  8
ボルト／ビス
  6
CONTINUOUS
 62
    64
 10
14.347307
 20
-96.391482
 11
14.347307
 21
-96.633643
  0
LINE
  8
ボルト／ビス
  6
CONTINUOUS
 62
    64
 10
16.04395
 20
-95.741398
 11
16.743947
 21
-95.741398
  0
LINE
  8
ボルト／ビス
  6
CONTINUOUS
 62
    64
 10
15.643952
 20
-96.391482
 11
14.347307
 21
-96.391482
  0
LINE
  8
ボルト／ビス
  6
CONTINUOUS
 62
    64
 10
16.04395
 20
-95.741398
 11
16.04395
 21
-95.991485
  0
ARC
  8
ボルト／ビス
  6
CONTINUOUS
 62
    64
 10
15.643957
 20
-95.991481
 40
0.4
 50
270.0
 51
360.0
  0
LINE
  8
ボルト／ビス
  6
CONTINUOUS
 62
    64
 10
20.24395
 20
-94.176387
 11
13.243952
 21
-94.176387
  0
LINE
  8
ボルト／ビス
  6
CONTINUOUS
 62
    64
 10
18.74395
 20
-86.676387
 11
18.243947
 21
-86.176385
  0
LINE
  8
ボルト／ビス
  6
CONTINUOUS
 62
    64
 10
14.743952
 20
-86.676387
 11
15.243947
 21
-86.176385
  0
LINE
  8
ボルト／ビス
  6
CONTINUOUS
 62
    64
 10
18.243947
 20
-94.176387
 11
18.243947
 21
-86.176385
  0
LINE
  8
ボルト／ビス
  6
CONTINUOUS
 62
    64
 10
18.74395
 20
-94.176387
 11
18.74395
 21
-86.676387
  0
LINE
  8
ボルト／ビス
  6
CONTINUOUS
 62
    64
 10
15.243947
 20
-94.176387
 11
15.243947
 21
-86.176385
  0
LINE
  8
ボルト／ビス
  6
CONTINUOUS
 62
    64
 10
14.743952
 20
-94.176387
 11
14.743952
 21
-86.676387
  0
LINE
  8
ボルト／ビス
  6
CONTINUOUS
 62
    64
 10
18.74395
 20
-86.676387
 11
14.743952
 21
-86.676387
  0
LINE
  8
ボルト／ビス
  6
CONTINUOUS
 62
    64
 10
18.243947
 20
-86.176385
 11
15.243947
 21
-86.176385
  0
LINE
  8
ボルト／ビス
  6
CONTINUOUS
 62
    64
 10
16.743947
 20
-98.747772
 11
16.743947
 21
-83.92589
  0
ENDBLK
  0
BLOCK
  2
*GRP_0007
 70
    65
 10
0.0
 20
0.0
  0
LINE
  8
型材断面
  6
CONTINUOUS
 62
    47
 10
-39.164232
 20
112.70176
 11
-35.62871
 21
116.237283
  0
LINE
  8
型材断面
  6
CONTINUOUS
 62
    47
 10
-39.164232
 20
112.70176
 11
-40.01276
 21
113.550288
  0
LINE
  8
型材断面
  6
CONTINUOUS
 62
    47
 10
-35.62871
 20
116.237283
 11
-37.891438
 21
118.500002
  0
LINE
  8
型材断面
  6
CONTINUOUS
 62
    47
 10
-55.010427
 20
92.880693
 11
-55.01042
 21
91.380693
  0
LINE
  8
型材断面
  6
CONTINUOUS
 62
    47
 10
-54.310415
 20
91.380693
 11
-55.01042
 21
91.380693
  0
ARC
  8
型材断面
  6
CONTINUOUS
 62
    47
 10
-53.810427
 20
84.580673
 40
0.5
 50
179.999956
 51
269.999956
  0
LINE
  8
型材断面
  6
CONTINUOUS
 62
    47
 10
-53.810427
 20
84.08068
 11
-52.810423
 21
84.080673
  0
ARC
  8
型材断面
  6
CONTINUOUS
 62
    47
 10
-52.810427
 20
84.580672
 40
0.5
 50
269.999956
 51
359.999956
  0
LINE
  8
型材断面
  6
CONTINUOUS
 62
    47
 10
-54.310423
 20
84.580682
 11
-54.310415
 21
91.380693
  0
LINE
  8
型材断面
  6
CONTINUOUS
 62
    47
 10
-57.810425
 20
92.880693
 11
-57.810433
 21
84.580968
  0
LINE
  8
型材断面
  6
CONTINUOUS
 62
    47
 10
-57.310347
 20
84.580968
 11
-57.810433
 21
84.580968
  0
LINE
  8
型材断面
  6
CONTINUOUS
 62
    47
 10
-52.310337
 20
93.880983
 11
-50.810345
 21
93.880983
  0
LINE
  8
型材断面
  6
CONTINUOUS
 62
    47
 10
-50.810345
 20
93.880983
 11
-50.810345
 21
92.880985
  0
LINE
  8
型材断面
  6
CONTINUOUS
 62
    47
 10
-52.310337
 20
92.880985
 11
-50.810345
 21
92.880985
  0
LINE
  8
型材断面
  6
CONTINUOUS
 62
    47
 10
-52.310435
 20
84.580675
 11
-52.31042
 21
92.880985
  0
LINE
  8
型材断面
  6
CONTINUOUS
 62
    47
 10
-55.010427
 20
92.880693
 11
-57.81041
 21
92.880693
  0
LINE
  8
型材断面
  6
CONTINUOUS
 62
    47
 10
-37.891438
 20
118.500002
 11
-59.810458
 21
96.580983
  0
LINE
  8
型材断面
  6
CONTINUOUS
 62
    47
 10
-59.810473
 20
82.580965
 11
-59.810458
 21
96.580983
  0
LINE
  8
型材断面
  6
CONTINUOUS
 62
    47
 10
-40.012745
 20
113.550273
 11
-57.810418
 21
95.752607
  0
LINE
  8
型材断面
  6
CONTINUOUS
 62
    47
 10
-52.31042
 20
94.580665
 11
-57.810418
 21
94.580665
  0
LINE
  8
型材断面
  6
CONTINUOUS
 62
    47
 10
-57.810418
 20
95.752607
 11
-57.810418
 21
94.580665
  0
LINE
  8
型材断面
  6
CONTINUOUS
 62
    47
 10
-52.31042
 20
93.880983
 11
-52.31042
 21
94.580665
  0
LINE
  8
型材断面
  6
CONTINUOUS
 62
    47
 10
-57.310347
 20
84.580968
 11
-57.310347
 21
83.08096
  0
LINE
  8
型材断面
  6
CONTINUOUS
 62
    47
 10
-59.810443
 20
82.580965
 11
-57.81035
 21
82.580965
  0
ARC
  8
型材断面
  6
CONTINUOUS
 62
    47
 10
-57.810352
 20
83.080968
 40
0.5
 50
-90.0
 51
0.0
  0
ENDBLK
  0
BLOCK
  2
*DIM_0008
 70
    65
 10
0.0
 20
0.0
  0
LINE
  8
寸法
  6
CONTINUOUS
 10
-32.706088
 20
-26.27392
 11
-32.706088
 21
-26.222845
  0
LINE
  8
寸法
  6
CONTINUOUS
 10
-59.810502
 20
18.58097
 11
-59.810502
 21
-26.222845
  0
LINE
  8
寸法
  6
CONTINUOUS
 10
-32.706088
 20
-26.222845
 11
-59.810502
 21
-26.222845
  0
POINT
  8
寸法
 10
-32.706088
 20
-26.222845
  0
POINT
  8
寸法
 10
-59.810502
 20
-26.222845
  0
TEXT
  7
TextStyle03
  8
寸法
  6
CONTINUOUS
 10
-49.58125
 20
-25.85
  1
27.1
 40
3.0
 72
     5
 11
-43.01875
 21
-25.85
  0
ENDBLK
  0
BLOCK
  2
*DIM_0009
 70
    65
 10
0.0
 20
0.0
  0
LINE
  8
寸法
  6
CONTINUOUS
 10
-32.706088
 20
-21.247303
 11
-32.706088
 21
-17.484353
  0
LINE
  8
寸法
  6
CONTINUOUS
 10
-42.810508
 20
4.580975
 11
-42.810508
 21
-17.484353
  0
LINE
  8
寸法
  6
CONTINUOUS
 10
-32.706088
 20
-17.484353
 11
-42.810508
 21
-17.484353
  0
POINT
  8
寸法
 10
-32.706088
 20
-17.484353
  0
POINT
  8
寸法
 10
-42.810508
 20
-17.484353
  0
TEXT
  7
TextStyle03
  8
寸法
  6
CONTINUOUS
 10
-41.08125
 20
-17.125
  1
10.1
 40
3.0
 72
     5
 11
-34.51875
 21
-17.125
  0
ENDBLK
  0
BLOCK
  2
*DIM_0010
 70
    65
 10
0.0
 20
0.0
  0
LINE
  8
寸法
  6
CONTINUOUS
 10
-59.810502
 20
18.58097
 11
-59.810502
 21
-17.484353
  0
LINE
  8
寸法
  6
CONTINUOUS
 10
-42.810508
 20
-17.484353
 11
-59.810502
 21
-17.484353
  0
POINT
  8
寸法
 10
-59.810502
 20
-17.484353
  0
TEXT
  7
TextStyle03
  8
寸法
  6
CONTINUOUS
 10
-52.94375
 20
-17.125
  1
17
 40
3.0
 72
     5
 11
-49.75625
 21
-17.125
  0
ENDBLK
  0
BLOCK
  2
*DIM_0011
 70
    65
 10
0.0
 20
0.0
  0
LINE
  8
寸法
  6
CONTINUOUS
 10
-64.810458
 20
96.580983
 11
-102.485973
 21
96.580983
  0
LINE
  8
寸法
  6
CONTINUOUS
 10
-64.810473
 20
82.580965
 11
-102.485973
 21
82.580965
  0
LINE
  8
寸法
  6
CONTINUOUS
 10
-102.485973
 20
96.580983
 11
-102.485973
 21
82.580965
  0
POINT
  8
寸法
 10
-102.485973
 20
96.580983
  0
POINT
  8
寸法
 10
-102.485973
 20
82.580965
  0
TEXT
  7
TextStyle03
  8
寸法
  6
CONTINUOUS
 10
-102.9
 20
87.98125
  1
14
 40
3.0
 50
90.0
 72
     5
 11
-102.9
 21
91.16875
  0
ENDBLK
  0
BLOCK
  2
*DIM_0012
 70
    65
 10
0.0
 20
0.0
  0
LINE
  8
寸法
  6
CONTINUOUS
 10
-64.810502
 20
23.58097
 11
-102.485973
 21
23.58097
  0
LINE
  8
寸法
  6
CONTINUOUS
 10
-102.485973
 20
82.580965
 11
-102.485973
 21
23.58097
  0
POINT
  8
寸法
 10
-102.485973
 20
23.58097
  0
TEXT
  7
TextStyle03
  8
寸法
  6
CONTINUOUS
 10
-102.9
 20
51.48125
  1
59
 40
3.0
 50
90.0
 72
     5
 11
-102.9
 21
54.66875
  0
ENDBLK
  0
BLOCK
  2
*DIM_0013
 70
    65
 10
0.0
 20
0.0
  0
LINE
  8
寸法
  6
CONTINUOUS
 10
-47.810508
 20
9.580975
 11
-102.485973
 21
9.580975
  0
LINE
  8
寸法
  6
CONTINUOUS
 10
-102.485973
 20
23.58097
 11
-102.485973
 21
9.580975
  0
POINT
  8
寸法
 10
-102.485973
 20
9.580975
  0
TEXT
  7
TextStyle03
  8
寸法
  6
CONTINUOUS
 10
-102.9
 20
14.98125
  1
14
 40
3.0
 50
90.0
 72
     5
 11
-102.9
 21
18.16875
  0
ENDBLK
  0
BLOCK
  2
*DIM_0014
 70
    65
 10
0.0
 20
0.0
  0
LINE
  8
寸法
  6
CONTINUOUS
 10
-37.706088
 20
4.323618
 11
-102.485973
 21
4.323618
  0
LINE
  8
寸法
  6
CONTINUOUS
 10
-102.485973
 20
9.580975
 11
-102.485973
 21
4.323618
  0
POINT
  8
寸法
 10
-102.485973
 20
4.323618
  0
TEXT
  7
TextStyle03
  8
寸法
  6
CONTINUOUS
 10
-102.9
 20
4.5125
  1
5.3
 40
3.0
 50
90.0
 72
     5
 11
-102.9
 21
9.3875
  0
ENDBLK
  0
BLOCK
  2
*DIM_0015
 70
    65
 10
0.0
 20
0.0
  0
LINE
  8
寸法
  6
CONTINUOUS
 10
55.189545
 20
64.525165
 11
164.62355
 21
64.525165
  0
LINE
  8
寸法
  6
CONTINUOUS
 10
112.693943
 20
-84.476322
 11
164.62355
 21
-84.476322
  0
LINE
  8
寸法
  6
CONTINUOUS
 10
164.62355
 20
64.525165
 11
164.62355
 21
-84.476322
  0
POINT
  8
寸法
 10
164.62355
 20
64.525165
  0
POINT
  8
寸法
 10
164.62355
 20
-84.476322
  0
TEXT
  7
TextStyle03
  8
寸法
  6
CONTINUOUS
 10
164.225
 20
-12.4375
  1
149
 40
3.0
 50
90.0
 72
     5
 11
164.225
 21
-7.5625
  0
ENDBLK
  0
BLOCK
  2
*DIM_0016
 70
    65
 10
0.0
 20
0.0
  0
LINE
  8
寸法
  6
CONTINUOUS
 10
79.69395
 20
-90.976385
 11
164.62355
 21
-90.976385
  0
LINE
  8
寸法
  6
CONTINUOUS
 10
164.62355
 20
-84.476322
 11
164.62355
 21
-90.976385
  0
POINT
  8
寸法
 10
164.62355
 20
-90.976385
  0
TEXT
  7
TextStyle03
  8
寸法
  6
CONTINUOUS
 10
164.225
 20
-90.1875
  1
6.5
 40
3.0
 50
90.0
 72
     5
 11
164.225
 21
-85.3125
  0
ENDBLK
  0
BLOCK
  2
*DIM_0017
 70
    65
 10
0.0
 20
0.0
  0
LINE
  8
寸法
  6
CONTINUOUS
 10
55.189545
 20
64.525165
 11
154.873382
 21
64.525165
  0
LINE
  8
寸法
  6
CONTINUOUS
 10
97.593952
 20
42.525175
 11
154.873382
 21
42.525175
  0
LINE
  8
寸法
  6
CONTINUOUS
 10
154.873382
 20
64.525165
 11
154.873382
 21
42.525175
  0
POINT
  8
寸法
 10
154.873382
 20
64.525165
  0
POINT
  8
寸法
 10
154.873382
 20
42.525175
  0
TEXT
  7
TextStyle03
  8
寸法
  6
CONTINUOUS
 10
154.475
 20
51.93125
  1
22
 40
3.0
 50
90.0
 72
     5
 11
154.475
 21
55.11875
  0
ENDBLK
  0
BLOCK
  2
*DIM_0018
 70
    65
 10
0.0
 20
0.0
  0
LINE
  8
寸法
  6
CONTINUOUS
 10
97.593945
 20
-36.476322
 11
154.873382
 21
-36.476322
  0
LINE
  8
寸法
  6
CONTINUOUS
 10
154.873382
 20
42.525175
 11
154.873382
 21
-36.476322
  0
POINT
  8
寸法
 10
154.873382
 20
-36.476322
  0
TEXT
  7
TextStyle03
  8
寸法
  6
CONTINUOUS
 10
154.475
 20
1.40625
  1
79
 40
3.0
 50
90.0
 72
     5
 11
154.475
 21
4.59375
  0
ENDBLK
  0
BLOCK
  2
*DIM_0019
 70
    65
 10
0.0
 20
0.0
  0
LINE
  8
寸法
  6
CONTINUOUS
 10
112.693943
 20
-70.476328
 11
154.873382
 21
-70.476328
  0
LINE
  8
寸法
  6
CONTINUOUS
 10
154.873382
 20
-36.476322
 11
154.873382
 21
-70.476328
  0
POINT
  8
寸法
 10
154.873382
 20
-70.476328
  0
TEXT
  7
TextStyle03
  8
寸法
  6
CONTINUOUS
 10
154.475
 20
-55.09375
  1
34
 40
3.0
 50
90.0
 72
     5
 11
154.475
 21
-51.90625
  0
ENDBLK
  0
BLOCK
  2
*DIM_0020
 70
    65
 10
0.0
 20
0.0
  0
LINE
  8
寸法
  6
CONTINUOUS
 10
112.693943
 20
-84.476322
 11
154.873382
 21
-84.476322
  0
LINE
  8
寸法
  6
CONTINUOUS
 10
154.873382
 20
-70.476328
 11
154.873382
 21
-84.476322
  0
POINT
  8
寸法
 10
154.873382
 20
-84.476322
  0
TEXT
  7
TextStyle03
  8
寸法
  6
CONTINUOUS
 10
154.475
 20
-79.09375
  1
14
 40
3.0
 50
90.0
 72
     5
 11
154.475
 21
-75.90625
  0
ENDBLK
  0
BLOCK
  2
*DIM_0021
 70
    65
 10
0.0
 20
0.0
  0
LINE
  8
寸法
  6
CONTINUOUS
 10
107.693943
 20
-65.476328
 11
107.693943
 21
130.01925
  0
LINE
  8
寸法
  6
CONTINUOUS
 10
-59.810458
 20
101.580983
 11
-59.810458
 21
130.01925
  0
LINE
  8
寸法
  6
CONTINUOUS
 10
107.693943
 20
130.01925
 11
-59.810458
 21
130.01925
  0
POINT
  8
寸法
 10
107.693943
 20
130.01925
  0
POINT
  8
寸法
 10
-59.810458
 20
130.01925
  0
TEXT
  7
TextStyle03
  8
寸法
  6
CONTINUOUS
 10
19.8
 20
130.375
  1
167.5
 40
3.0
 72
     5
 11
28.05
 21
130.375
  0
ENDBLK
  0
BLOCK
  2
*DIM_0022
 70
    65
 10
0.0
 20
0.0
  0
LINE
  8
寸法
  6
CONTINUOUS
 10
50.189545
 20
113.103773
 11
107.693943
 21
113.103773
  0
POINT
  8
寸法
 10
50.189545
 20
113.103773
  0
POINT
  8
寸法
 10
107.693943
 20
113.103773
  0
TEXT
  7
TextStyle03
  8
寸法
  6
CONTINUOUS
 10
75.64375
 20
113.45
  1
57.5
 40
3.0
 72
     5
 11
82.20625
 21
113.45
  0
ENDBLK
  0
BLOCK
  2
*GRP_0023
 70
    65
 10
0.0
 20
0.0
  0
POLYLINE
  8
寸法
  6
CONTINUOUS
 66
     1
  0
VERTEX
  8
寸法
 10
3.215558
 20
15.540558
  0
VERTEX
  8
寸法
 10
10.703773
 20
9.54982
  0
VERTEX
  8
寸法
 10
18.712045
 20
9.54982
  0
SEQEND
  0
ENDBLK
  0
BLOCK
  2
*GRP_0024
 70
    65
 10
0.0
 20
0.0
  0
POLYLINE
  8
寸法
  6
CONTINUOUS
 66
     1
  0
VERTEX
  8
寸法
 10
-15.867893
 20
12.357107
  0
VERTEX
  8
寸法
 10
4.258093
 20
0.239393
  0
VERTEX
  8
寸法
 10
18.646935
 20
0.239393
  0
SEQEND
  0
ENDBLK
  0
BLOCK
  2
*GRP_0025
 70
    65
 10
0.0
 20
0.0
  0
POLYLINE
  8
寸法
  6
CONTINUOUS
 66
     1
  0
VERTEX
  8
寸法
 10
-18.44041
 20
36.95168
  0
VERTEX
  8
寸法
 10
-23.816187
 20
40.646942
  0
VERTEX
  8
寸法
 10
-31.344485
 20
40.646942
  0
SEQEND
  0
ENDBLK
  0
BLOCK
  2
*GRP_0026
 70
    65
 10
0.0
 20
0.0
  0
POLYLINE
  8
寸法
  6
CONTINUOUS
 66
     1
  0
VERTEX
  8
寸法
 10
-39.607312
 20
65.320982
  0
VERTEX
  8
寸法
 10
-34.268465
 20
56.053958
  0
VERTEX
  8
寸法
 10
-38.891125
 20
56.053958
  0
SEQEND
  0
ENDBLK
  0
BLOCK
  2
*GRP_0027
 70
    65
 10
0.0
 20
0.0
  0
POLYLINE
  8
寸法
  6
CONTINUOUS
 66
     1
  0
VERTEX
  8
寸法
 10
-12.978417
 20
-6.071583
  0
VERTEX
  8
寸法
 10
-26.316365
 20
-36.719423
  0
VERTEX
  8
寸法
 10
-38.361325
 20
-36.719423
  0
SEQEND
  0
ENDBLK
  0
BLOCK
  2
*GRP_0028
 70
    65
 10
0.0
 20
0.0
  0
POLYLINE
  8
寸法
  6
CONTINUOUS
 66
     1
  0
VERTEX
  8
寸法
 10
40.477518
 20
-92.542987
  0
VERTEX
  8
寸法
 10
51.54586
 20
-107.713125
  0
VERTEX
  8
寸法
 10
63.786145
 20
-107.713125
  0
SEQEND
  0
ENDBLK
  0
BLOCK
  2
*GRP_0029
 70
    65
 10
0.0
 20
0.0
  0
POLYLINE
  8
寸法
  6
CONTINUOUS
 66
     1
  0
VERTEX
  8
寸法
 10
-60.310502
 20
63.58097
  0
VERTEX
  8
寸法
 10
-65.766777
 20
75.530248
  0
VERTEX
  8
寸法
 10
-73.766465
 20
75.530248
  0
SEQEND
  0
ENDBLK
  0
BLOCK
  2
*GRP_0030
 70
    65
 10
0.0
 20
0.0
  0
POLYLINE
  8
寸法
  6
BYBLOCK
 62
     0
 66
     1
  0
VERTEX
  8
寸法
 10
44.153895
 20
69.245147
  0
VERTEX
  8
寸法
 10
42.653895
 20
66.647072
  0
VERTEX
  8
寸法
 10
45.25197
 20
68.147072
  0
SEQEND
  0
POLYLINE
  8
寸法
  6
BYBLOCK
 62
     0
 66
     1
  0
VERTEX
  8
寸法
 10
42.653895
 20
66.647072
  0
VERTEX
  8
寸法
 10
47.732715
 20
71.725893
  0
VERTEX
  8
寸法
 10
52.5575
 20
71.725893
  0
SEQEND
  0
ENDBLK
  0
BLOCK
  2
*GRP_0031
 70
    65
 10
0.0
 20
0.0
  0
LINE
  8
St
  6
CONTINUOUS
 10
25.893925
 20
-104.269423
 11
22.693923
 21
-107.469433
  0
LINE
  8
St
  6
CONTINUOUS
 10
25.893925
 20
-103.562308
 11
22.693923
 21
-106.762317
  0
ARC
  8
St
  6
CONTINUOUS
 62
   127
 10
25.893932
 20
-94.176389
 40
3.2
 50
90.0
 51
180.0
  0
LINE
  8
St
  6
CONTINUOUS
 10
63.12841
 20
-90.976385
 11
59.928415
 21
-94.176387
  0
LINE
  8
St
  6
CONTINUOUS
 10
62.421302
 20
-90.976385
 11
59.221307
 21
-94.176387
  0
LINE
  8
St
  6
CONTINUOUS
 10
34.486938
 20
-90.976385
 11
31.286943
 21
-94.176387
  0
LINE
  8
St
  6
CONTINUOUS
 10
33.77983
 20
-90.976385
 11
30.579835
 21
-94.176387
  0
LINE
  8
St
  6
CONTINUOUS
 10
18.493945
 20
-90.976385
 11
18.493945
 21
-94.176387
  0
LINE
  8
St
  6
CONTINUOUS
 10
14.99395
 20
-90.976385
 11
14.99395
 21
-94.176387
  0
LINE
  8
St
  6
CONTINUOUS
 10
67.943943
 20
-90.976385
 11
67.943943
 21
-94.176387
  0
LINE
  8
St
  6
CONTINUOUS
 10
71.443937
 20
-90.976385
 11
71.443937
 21
-94.176387
  0
LINE
  8
St
  6
CONTINUOUS
 10
16.743947
 20
-96.003478
 11
16.743947
 21
-89.346418
  0
LINE
  8
St
  6
CONTINUOUS
 10
69.69394
 20
-96.003478
 11
69.69394
 21
-89.346418
  0
LINE
  8
St
  6
CONTINUOUS
 10
71.443937
 20
-91.776387
 11
67.943943
 21
-91.776387
  0
LINE
  8
St
  6
CONTINUOUS
 10
71.443937
 20
-92.576382
 11
67.943943
 21
-92.576382
  0
LINE
  8
St
  6
CONTINUOUS
 10
71.443937
 20
-93.376385
 11
67.943943
 21
-93.376385
  0
LINE
  8
St
  6
CONTINUOUS
 10
18.493945
 20
-91.776387
 11
14.99395
 21
-91.776387
  0
LINE
  8
St
  6
CONTINUOUS
 10
18.493945
 20
-92.576382
 11
14.99395
 21
-92.576382
  0
LINE
  8
St
  6
CONTINUOUS
 10
18.493945
 20
-93.376385
 11
14.99395
 21
-93.376385
  0
LINE
  8
St
  6
CONTINUOUS
 10
12.8875
 20
-90.976385
 11
12.8875
 21
-94.176387
  0
LINE
  8
St
  6
CONTINUOUS
 62
   127
 10
12.8875
 20
-90.976385
 11
74.69395
 21
-90.976385
  0
LINE
  8
St
  6
CONTINUOUS
 62
   127
 10
12.8875
 20
-94.176387
 11
74.69395
 21
-94.176387
  0
LINE
  8
St
  6
CONTINUOUS
 10
74.69395
 20
-90.976385
 11
74.69395
 21
-94.176387
  0
LINE
  8
St
  6
CONTINUOUS
 10
25.893925
 20
-140.976372
 11
22.693923
 21
-140.976372
  0
LINE
  8
St
  6
CONTINUOUS
 10
25.893925
 20
-130.976368
 11
22.693923
 21
-130.976368
  0
LINE
  8
St
  6
CONTINUOUS
 62
   127
 10
25.093923
 20
-130.976368
 11
25.093923
 21
-140.976372
  0
LINE
  8
St
  6
CONTINUOUS
 62
   127
 10
24.293928
 20
-130.976368
 11
24.293928
 21
-140.976372
  0
LINE
  8
St
  6
CONTINUOUS
 62
   127
 10
23.493925
 20
-130.976368
 11
23.493925
 21
-140.976372
  0
LINE
  8
St
  6
CONTINUOUS
 10
29.022168
 20
-135.97637
 11
19.274335
 21
-135.97637
  0
LINE
  8
St
  6
CONTINUOUS
 10
25.893925
 20
-151.276385
 11
22.693923
 21
-151.276385
  0
LINE
  8
St
  6
CONTINUOUS
 62
   127
 10
25.893925
 20
-94.176387
 11
25.893925
 21
-151.276385
  0
LINE
  8
St
  6
CONTINUOUS
 62
   127
 10
22.693923
 20
-94.176387
 11
22.693923
 21
-151.276385
  0
ENDBLK
  0
BLOCK
  2
*GRP_0032
 70
    65
 10
0.0
 20
0.0
  0
LINE
  8
通り芯
  6
CONTINUOUS
 10
-54.494135
 20
63.58097
 11
-59.119002
 21
63.58097
  0
LINE
  8
通り芯
  6
CONTINUOUS
 10
-58.310502
 20
65.23097
 11
-56.3105
 21
65.23097
  0
LINE
  8
通り芯
  6
CONTINUOUS
 10
-58.310502
 20
61.93097
 11
-56.3105
 21
61.93097
  0
LINE
  8
通り芯
  6
CONTINUOUS
 10
-56.810502
 20
65.23097
 11
-56.810502
 21
61.93097
  0
LINE
  8
通り芯
  6
CONTINUOUS
 10
-57.310505
 20
65.23097
 11
-57.310505
 21
61.93097
  0
LINE
  8
通り芯
  6
CONTINUOUS
 10
-57.8105
 20
65.23097
 11
-57.8105
 21
61.93097
  0
LINE
  8
型材断面
  6
CONTINUOUS
 10
-56.81051
 20
63.58097
 11
-61.686823
 21
63.58097
  0
LINE
  8
型材断面
  6
CONTINUOUS
 10
-59.810502
 20
61.93097
 11
-57.810508
 21
61.93097
  0
LINE
  8
型材断面
  6
CONTINUOUS
 10
-59.810502
 20
65.23097
 11
-57.810508
 21
65.23097
  0
LINE
  8
型材断面
  6
CONTINUOUS
 10
-59.3105
 20
65.23097
 11
-59.3105
 21
61.93097
  0
LINE
  8
型材断面
  6
CONTINUOUS
 10
-58.810505
 20
65.23097
 11
-58.810505
 21
61.93097
  0
LINE
  8
型材断面
  6
CONTINUOUS
 10
-58.310502
 20
65.23097
 11
-58.310502
 21
61.93097
  0
LINE
  8
ボルト／ビス
  6
CONTINUOUS
 10
-59.810502
 20
66.58097
 11
-59.810502
 21
60.58097
  0
LINE
  8
ボルト／ビス
  6
CONTINUOUS
 10
-59.810502
 20
66.58097
 11
-60.310505
 21
66.080968
  0
LINE
  8
ボルト／ビス
  6
CONTINUOUS
 10
-59.810502
 20
60.58097
 11
-60.310498
 21
61.080965
  0
LINE
  8
ボルト／ビス
  6
CONTINUOUS
 10
-60.310505
 20
66.080968
 11
-60.310498
 21
61.080965
  0
LINE
  8
ボルト／ビス
  6
CONTINUOUS
 10
-55.310495
 20
66.58097
 11
-55.310495
 21
60.58097
  0
LINE
  8
ボルト／ビス
  6
CONTINUOUS
 10
-55.310495
 20
66.58097
 11
-56.3105
 21
66.58097
  0
LINE
  8
ボルト／ビス
  6
CONTINUOUS
 10
-55.310495
 20
60.58097
 11
-56.310492
 21
60.58097
  0
LINE
  8
ボルト／ビス
  6
CONTINUOUS
 10
-56.3105
 20
66.58097
 11
-56.310492
 21
60.58097
  0
LINE
  8
ボルト／ビス
  6
CONTINUOUS
 10
-55.310495
 20
65.580965
 11
-55.310495
 21
65.580965
  0
ARC
  8
ボルト／ビス
  6
CONTINUOUS
 10
-55.3105
 20
65.080973
 40
0.5
 50
0.000036
 51
90.0
  0
LINE
  8
ボルト／ビス
  6
CONTINUOUS
 10
-54.8105
 20
65.08097
 11
-54.810492
 21
62.08097
  0
LINE
  8
ボルト／ビス
  6
CONTINUOUS
 10
-55.310495
 20
61.580968
 11
-55.310495
 21
61.580968
  0
ARC
  8
ボルト／ビス
  6
CONTINUOUS
 10
-55.310498
 20
62.080973
 40
0.5
 50
-90.0
 51
0.000041
  0
LINE
  8
ボルト／ビス
  6
CONTINUOUS
 10
-59.810502
 20
65.580965
 11
-56.3105
 21
65.580965
  0
LINE
  8
ボルト／ビス
  6
CONTINUOUS
 10
-59.810502
 20
61.580968
 11
-56.3105
 21
61.580968
  0
ENDBLK
  0
BLOCK
  2
*GRP_0033
 70
    65
 10
0.0
 20
0.0
  0
LINE
  8
通り芯
  6
CONTINUOUS
 10
-54.494135
 20
38.58097
 11
-59.119002
 21
38.58097
  0
LINE
  8
通り芯
  6
CONTINUOUS
 10
-58.310502
 20
40.23097
 11
-56.3105
 21
40.23097
  0
LINE
  8
通り芯
  6
CONTINUOUS
 10
-58.310502
 20
36.93097
 11
-56.3105
 21
36.93097
  0
LINE
  8
通り芯
  6
CONTINUOUS
 10
-56.810502
 20
40.23097
 11
-56.810502
 21
36.93097
  0
LINE
  8
通り芯
  6
CONTINUOUS
 10
-57.310505
 20
40.23097
 11
-57.310505
 21
36.93097
  0
LINE
  8
通り芯
  6
CONTINUOUS
 10
-57.8105
 20
40.23097
 11
-57.8105
 21
36.93097
  0
LINE
  8
型材断面
  6
CONTINUOUS
 10
-56.81051
 20
38.58097
 11
-61.686823
 21
38.58097
  0
LINE
  8
型材断面
  6
CONTINUOUS
 10
-59.810502
 20
36.93097
 11
-57.810508
 21
36.93097
  0
LINE
  8
型材断面
  6
CONTINUOUS
 10
-59.810502
 20
40.23097
 11
-57.810508
 21
40.23097
  0
LINE
  8
型材断面
  6
CONTINUOUS
 10
-59.3105
 20
40.23097
 11
-59.3105
 21
36.93097
  0
LINE
  8
型材断面
  6
CONTINUOUS
 10
-58.810505
 20
40.23097
 11
-58.810505
 21
36.93097
  0
LINE
  8
型材断面
  6
CONTINUOUS
 10
-58.310502
 20
40.23097
 11
-58.310502
 21
36.93097
  0
LINE
  8
ボルト／ビス
  6
CONTINUOUS
 10
-59.810502
 20
41.58097
 11
-59.810502
 21
35.58097
  0
LINE
  8
ボルト／ビス
  6
CONTINUOUS
 10
-59.810502
 20
41.58097
 11
-60.310505
 21
41.080968
  0
LINE
  8
ボルト／ビス
  6
CONTINUOUS
 10
-59.810502
 20
35.58097
 11
-60.310498
 21
36.080965
  0
LINE
  8
ボルト／ビス
  6
CONTINUOUS
 10
-60.310505
 20
41.080968
 11
-60.310498
 21
36.080965
  0
LINE
  8
ボルト／ビス
  6
CONTINUOUS
 10
-55.310495
 20
41.58097
 11
-55.310495
 21
35.58097
  0
LINE
  8
ボルト／ビス
  6
CONTINUOUS
 10
-55.310495
 20
41.58097
 11
-56.3105
 21
41.58097
  0
LINE
  8
ボルト／ビス
  6
CONTINUOUS
 10
-55.310495
 20
35.58097
 11
-56.310492
 21
35.58097
  0
LINE
  8
ボルト／ビス
  6
CONTINUOUS
 10
-56.3105
 20
41.58097
 11
-56.310492
 21
35.58097
  0
LINE
  8
ボルト／ビス
  6
CONTINUOUS
 10
-55.310495
 20
40.580965
 11
-55.310495
 21
40.580965
  0
ARC
  8
ボルト／ビス
  6
CONTINUOUS
 10
-55.3105
 20
40.080973
 40
0.5
 50
0.000036
 51
90.0
  0
LINE
  8
ボルト／ビス
  6
CONTINUOUS
 10
-54.8105
 20
40.08097
 11
-54.810492
 21
37.08097
  0
LINE
  8
ボルト／ビス
  6
CONTINUOUS
 10
-55.310495
 20
36.580968
 11
-55.310495
 21
36.580968
  0
ARC
  8
ボルト／ビス
  6
CONTINUOUS
 10
-55.310498
 20
37.080973
 40
0.5
 50
-90.0
 51
0.000041
  0
LINE
  8
ボルト／ビス
  6
CONTINUOUS
 10
-59.810502
 20
40.580965
 11
-56.3105
 21
40.580965
  0
LINE
  8
ボルト／ビス
  6
CONTINUOUS
 10
-59.810502
 20
36.580968
 11
-56.3105
 21
36.580968
  0
ENDBLK
  0
BLOCK
  2
*GRP_0034
 70
    65
 10
0.0
 20
0.0
  0
LINE
  8
通り芯
  6
CONTINUOUS
 10
-30.810505
 20
28.897337
 11
-30.810505
 21
24.27247
  0
LINE
  8
通り芯
  6
CONTINUOUS
 10
-32.460505
 20
25.08097
 11
-32.460505
 21
27.080972
  0
LINE
  8
通り芯
  6
CONTINUOUS
 10
-29.160505
 20
25.08097
 11
-29.160505
 21
27.080972
  0
LINE
  8
通り芯
  6
CONTINUOUS
 10
-32.460505
 20
26.58097
 11
-29.160505
 21
26.58097
  0
LINE
  8
通り芯
  6
CONTINUOUS
 10
-32.460505
 20
26.080968
 11
-29.160505
 21
26.080968
  0
LINE
  8
通り芯
  6
CONTINUOUS
 10
-32.460505
 20
25.580972
 11
-29.160505
 21
25.580972
  0
LINE
  8
型材断面
  6
CONTINUOUS
 10
-30.810505
 20
26.580962
 11
-30.810505
 21
21.70465
  0
LINE
  8
型材断面
  6
CONTINUOUS
 10
-29.160505
 20
23.58097
 11
-29.160505
 21
25.580965
  0
LINE
  8
型材断面
  6
CONTINUOUS
 10
-32.460505
 20
23.58097
 11
-32.460505
 21
25.580965
  0
LINE
  8
型材断面
  6
CONTINUOUS
 10
-32.460505
 20
24.080972
 11
-29.160505
 21
24.080972
  0
LINE
  8
型材断面
  6
CONTINUOUS
 10
-32.460505
 20
24.580968
 11
-29.160505
 21
24.580968
  0
LINE
  8
型材断面
  6
CONTINUOUS
 10
-32.460505
 20
25.08097
 11
-29.160505
 21
25.08097
  0
LINE
  8
ボルト／ビス
  6
CONTINUOUS
 10
-33.810505
 20
23.58097
 11
-27.810505
 21
23.58097
  0
LINE
  8
ボルト／ビス
  6
CONTINUOUS
 10
-33.810505
 20
23.58097
 11
-33.310502
 21
23.080968
  0
LINE
  8
ボルト／ビス
  6
CONTINUOUS
 10
-27.810505
 20
23.58097
 11
-28.3105
 21
23.080975
  0
LINE
  8
ボルト／ビス
  6
CONTINUOUS
 10
-33.310502
 20
23.080968
 11
-28.3105
 21
23.080975
  0
LINE
  8
ボルト／ビス
  6
CONTINUOUS
 10
-33.810505
 20
28.080977
 11
-27.810505
 21
28.080977
  0
LINE
  8
ボルト／ビス
  6
CONTINUOUS
 10
-33.810505
 20
28.080977
 11
-33.810505
 21
27.080972
  0
LINE
  8
ボルト／ビス
  6
CONTINUOUS
 10
-27.810505
 20
28.080977
 11
-27.810505
 21
27.08098
  0
LINE
  8
ボルト／ビス
  6
CONTINUOUS
 10
-33.810505
 20
27.080972
 11
-27.810505
 21
27.08098
  0
LINE
  8
ボルト／ビス
  6
CONTINUOUS
 10
-32.8105
 20
28.080977
 11
-32.8105
 21
28.080977
  0
ARC
  8
ボルト／ビス
  6
CONTINUOUS
 10
-32.310508
 20
28.080972
 40
0.5
 50
90.000036
 51
180.0
  0
LINE
  8
ボルト／ビス
  6
CONTINUOUS
 10
-32.310505
 20
28.580972
 11
-29.310505
 21
28.58098
  0
LINE
  8
ボルト／ビス
  6
CONTINUOUS
 10
-28.810502
 20
28.080977
 11
-28.810502
 21
28.080977
  0
ARC
  8
ボルト／ビス
  6
CONTINUOUS
 10
-29.310508
 20
28.080973
 40
0.5
 50
0.0
 51
90.000041
  0
LINE
  8
ボルト／ビス
  6
CONTINUOUS
 10
-32.8105
 20
23.58097
 11
-32.8105
 21
27.080972
  0
LINE
  8
ボルト／ビス
  6
CONTINUOUS
 10
-28.810502
 20
23.58097
 11
-28.810502
 21
27.080972
  0
ENDBLK
  0
BLOCK
  2
*GRP_0035
 70
    65
 10
0.0
 20
0.0
  0
LINE
  8
通り芯
  6
CONTINUOUS
 10
-27.389728
 20
-21.872825
 11
-32.014595
 21
-21.872825
  0
LINE
  8
通り芯
  6
CONTINUOUS
 10
-31.206095
 20
-20.222825
 11
-29.206092
 21
-20.222825
  0
LINE
  8
通り芯
  6
CONTINUOUS
 10
-31.206095
 20
-23.522825
 11
-29.206092
 21
-23.522825
  0
LINE
  8
通り芯
  6
CONTINUOUS
 10
-29.706095
 20
-20.222825
 11
-29.706095
 21
-23.522825
  0
LINE
  8
通り芯
  6
CONTINUOUS
 10
-30.206098
 20
-20.222825
 11
-30.206098
 21
-23.522825
  0
LINE
  8
通り芯
  6
CONTINUOUS
 10
-30.706092
 20
-20.222825
 11
-30.706092
 21
-23.522825
  0
LINE
  8
型材断面
  6
CONTINUOUS
 10
-29.706102
 20
-21.872825
 11
-34.582415
 21
-21.872825
  0
LINE
  8
型材断面
  6
CONTINUOUS
 10
-32.706095
 20
-23.522825
 11
-30.7061
 21
-23.522825
  0
LINE
  8
型材断面
  6
CONTINUOUS
 10
-32.706095
 20
-20.222825
 11
-30.7061
 21
-20.222825
  0
LINE
  8
型材断面
  6
CONTINUOUS
 10
-32.206092
 20
-20.222825
 11
-32.206092
 21
-23.522825
  0
LINE
  8
型材断面
  6
CONTINUOUS
 10
-31.706098
 20
-20.222825
 11
-31.706098
 21
-23.522825
  0
LINE
  8
型材断面
  6
CONTINUOUS
 10
-31.206095
 20
-20.222825
 11
-31.206095
 21
-23.522825
  0
LINE
  8
ボルト／ビス
  6
CONTINUOUS
 10
-32.706095
 20
-18.872825
 11
-32.706095
 21
-24.872825
  0
LINE
  8
ボルト／ビス
  6
CONTINUOUS
 10
-32.706095
 20
-18.872825
 11
-33.206098
 21
-19.372828
  0
LINE
  8
ボルト／ビス
  6
CONTINUOUS
 10
-32.706095
 20
-24.872825
 11
-33.20609
 21
-24.37283
  0
LINE
  8
ボルト／ビス
  6
CONTINUOUS
 10
-33.206098
 20
-19.372828
 11
-33.20609
 21
-24.37283
  0
LINE
  8
ボルト／ビス
  6
CONTINUOUS
 10
-28.206088
 20
-18.872825
 11
-28.206088
 21
-24.872825
  0
LINE
  8
ボルト／ビス
  6
CONTINUOUS
 10
-28.206088
 20
-18.872825
 11
-29.206092
 21
-18.872825
  0
LINE
  8
ボルト／ビス
  6
CONTINUOUS
 10
-28.206088
 20
-24.872825
 11
-29.206085
 21
-24.872825
  0
LINE
  8
ボルト／ビス
  6
CONTINUOUS
 10
-29.206092
 20
-18.872825
 11
-29.206085
 21
-24.872825
  0
LINE
  8
ボルト／ビス
  6
CONTINUOUS
 10
-28.206088
 20
-19.87283
 11
-28.206088
 21
-19.87283
  0
ARC
  8
ボルト／ビス
  6
CONTINUOUS
 10
-28.206093
 20
-20.372822
 40
0.5
 50
0.000036
 51
90.0
  0
LINE
  8
ボルト／ビス
  6
CONTINUOUS
 10
-27.706092
 20
-20.372825
 11
-27.706085
 21
-23.372825
  0
LINE
  8
ボルト／ビス
  6
CONTINUOUS
 10
-28.206088
 20
-23.872828
 11
-28.206088
 21
-23.872828
  0
ARC
  8
ボルト／ビス
  6
CONTINUOUS
 10
-28.206091
 20
-23.372822
 40
0.5
 50
-90.0
 51
0.000041
  0
LINE
  8
ボルト／ビス
  6
CONTINUOUS
 10
-32.706095
 20
-19.87283
 11
-29.206092
 21
-19.87283
  0
LINE
  8
ボルト／ビス
  6
CONTINUOUS
 10
-32.706095
 20
-23.872828
 11
-29.206092
 21
-23.872828
  0
ENDBLK
  0
BLOCK
  2
*GRP_0036
 70
    65
 10
0.0
 20
0.0
  0
LINE
  8
通り芯
  6
CONTINUOUS
 10
-27.389728
 20
-86.172808
 11
-32.014595
 21
-86.172808
  0
LINE
  8
通り芯
  6
CONTINUOUS
 10
-31.206095
 20
-84.522807
 11
-29.206092
 21
-84.522807
  0
LINE
  8
通り芯
  6
CONTINUOUS
 10
-31.206095
 20
-87.822807
 11
-29.206092
 21
-87.822807
  0
LINE
  8
通り芯
  6
CONTINUOUS
 10
-29.706095
 20
-84.522807
 11
-29.706095
 21
-87.822807
  0
LINE
  8
通り芯
  6
CONTINUOUS
 10
-30.206098
 20
-84.522807
 11
-30.206098
 21
-87.822807
  0
LINE
  8
通り芯
  6
CONTINUOUS
 10
-30.706092
 20
-84.522807
 11
-30.706092
 21
-87.822807
  0
LINE
  8
型材断面
  6
CONTINUOUS
 10
-29.706102
 20
-86.172808
 11
-34.582415
 21
-86.172808
  0
LINE
  8
型材断面
  6
CONTINUOUS
 10
-32.706095
 20
-87.822807
 11
-30.7061
 21
-87.822807
  0
LINE
  8
型材断面
  6
CONTINUOUS
 10
-32.706095
 20
-84.522807
 11
-30.7061
 21
-84.522807
  0
LINE
  8
型材断面
  6
CONTINUOUS
 10
-32.206092
 20
-84.522807
 11
-32.206092
 21
-87.822807
  0
LINE
  8
型材断面
  6
CONTINUOUS
 10
-31.706098
 20
-84.522807
 11
-31.706098
 21
-87.822807
  0
LINE
  8
型材断面
  6
CONTINUOUS
 10
-31.206095
 20
-84.522807
 11
-31.206095
 21
-87.822807
  0
LINE
  8
ボルト／ビス
  6
CONTINUOUS
 10
-32.706095
 20
-83.172808
 11
-32.706095
 21
-89.172808
  0
LINE
  8
ボルト／ビス
  6
CONTINUOUS
 10
-32.706095
 20
-83.172808
 11
-33.206098
 21
-83.67281
  0
LINE
  8
ボルト／ビス
  6
CONTINUOUS
 10
-32.706095
 20
-89.172808
 11
-33.20609
 21
-88.672812
  0
LINE
  8
ボルト／ビス
  6
CONTINUOUS
 10
-33.206098
 20
-83.67281
 11
-33.20609
 21
-88.672812
  0
LINE
  8
ボルト／ビス
  6
CONTINUOUS
 10
-28.206088
 20
-83.172808
 11
-28.206088
 21
-89.172808
  0
LINE
  8
ボルト／ビス
  6
CONTINUOUS
 10
-28.206088
 20
-83.172808
 11
-29.206092
 21
-83.172808
  0
LINE
  8
ボルト／ビス
  6
CONTINUOUS
 10
-28.206088
 20
-89.172808
 11
-29.206085
 21
-89.172808
  0
LINE
  8
ボルト／ビス
  6
CONTINUOUS
 10
-29.206092
 20
-83.172808
 11
-29.206085
 21
-89.172808
  0
LINE
  8
ボルト／ビス
  6
CONTINUOUS
 10
-28.206088
 20
-84.172812
 11
-28.206088
 21
-84.172812
  0
ARC
  8
ボルト／ビス
  6
CONTINUOUS
 10
-28.206093
 20
-84.672804
 40
0.5
 50
0.000036
 51
90.0
  0
LINE
  8
ボルト／ビス
  6
CONTINUOUS
 10
-27.706092
 20
-84.672808
 11
-27.706085
 21
-87.672808
  0
LINE
  8
ボルト／ビス
  6
CONTINUOUS
 10
-28.206088
 20
-88.17281
 11
-28.206088
 21
-88.17281
  0
ARC
  8
ボルト／ビス
  6
CONTINUOUS
 10
-28.206091
 20
-87.672804
 40
0.5
 50
-90.0
 51
0.000041
  0
LINE
  8
ボルト／ビス
  6
CONTINUOUS
 10
-32.706095
 20
-84.172812
 11
-29.206092
 21
-84.172812
  0
LINE
  8
ボルト／ビス
  6
CONTINUOUS
 10
-32.706095
 20
-88.17281
 11
-29.206092
 21
-88.17281
  0
ENDBLK
  0
BLOCK
  2
*GRP_0037
 70
    65
 10
0.0
 20
0.0
  0
LINE
  8
型材断面
  6
DOT
 10
50.439552
 20
32.025175
 11
52.439552
 21
32.025175
  0
LINE
  8
型材断面
  6
DOT
 10
50.439552
 20
53.025175
 11
52.439552
 21
53.025175
  0
LINE
  8
型材断面
  6
DOT
 10
50.939552
 20
53.025175
 11
50.939552
 21
32.025175
  0
LINE
  8
型材断面
  6
DOT
 10
51.439552
 20
53.025175
 11
51.439552
 21
32.025175
  0
LINE
  8
型材断面
  6
DOT
 10
51.939552
 20
53.025175
 11
51.939552
 21
32.025175
  0
INSERT
  2
*GRP_0038
  8
型材断面
  6
CONTINUOUS
 62
    47
 10
0.0
 20
0.0
  0
ENDBLK
  0
BLOCK
  2
*GRP_0038
 70
    65
 10
0.0
 20
0.0
  0
ARC
  8
型材断面
  6
CONTINUOUS
 62
    47
 10
34.239552
 20
19.975178
 40
0.3
 50
90.0
 51
180.0
  0
LINE
  8
型材断面
  6
CONTINUOUS
 62
    47
 10
33.939552
 20
19.975175
 11
33.939552
 21
18.575173
  0
LINE
  8
型材断面
  6
CONTINUOUS
 62
    47
 10
34.239552
 20
18.275173
 11
51.43955
 21
18.275173
  0
ARC
  8
型材断面
  6
CONTINUOUS
 62
    47
 10
34.239552
 20
18.575178
 40
0.3
 50
180.0
 51
270.0
  0
ARC
  8
型材断面
  6
CONTINUOUS
 62
    47
 10
51.439552
 20
65.775178
 40
1.0
 50
0.0
 51
90.0
  0
ARC
  8
型材断面
  6
CONTINUOUS
 62
    47
 10
34.239552
 20
65.075178
 40
0.3
 50
180.0
 51
270.0
  0
LINE
  8
型材断面
  6
CONTINUOUS
 62
    47
 10
33.939552
 20
65.075173
 11
33.939552
 21
66.475175
  0
LINE
  8
型材断面
  6
CONTINUOUS
 62
    47
 10
34.239552
 20
66.775175
 11
51.43955
 21
66.775175
  0
ARC
  8
型材断面
  6
CONTINUOUS
 62
    47
 10
34.239552
 20
66.475178
 40
0.3
 50
90.0
 51
180.0
  0
LINE
  8
型材断面
  6
CONTINUOUS
 62
    47
 10
50.439552
 20
20.275175
 11
50.439552
 21
64.775173
  0
LINE
  8
型材断面
  6
CONTINUOUS
 62
    47
 10
52.439547
 20
19.275178
 11
52.439547
 21
65.775178
  0
ARC
  8
型材断面
  6
CONTINUOUS
 62
    47
 10
51.439552
 20
19.275178
 40
1.0
 50
270.0
 51
360.0
  0
LINE
  8
型材断面
  6
CONTINUOUS
 62
    47
 10
43.439547
 20
20.275175
 11
50.439552
 21
20.275175
  0
LINE
  8
型材断面
  6
CONTINUOUS
 62
    47
 10
43.439547
 20
20.975173
 11
43.439547
 21
20.275175
  0
ARC
  8
型材断面
  6
CONTINUOUS
 62
    47
 10
43.239552
 20
20.975178
 40
0.2
 50
0.0
 51
126.085808
  0
LINE
  8
型材断面
  6
CONTINUOUS
 62
    47
 10
43.12175
 20
21.136797
 11
41.939547
 21
20.275175
  0
LINE
  8
型材断面
  6
CONTINUOUS
 62
    47
 10
34.239552
 20
20.275175
 11
41.939547
 21
20.275175
  0
ARC
  8
型材断面
  6
CONTINUOUS
 62
    47
 10
43.239552
 20
64.075178
 40
0.2
 50
233.914192
 51
360.0
  0
LINE
  8
型材断面
  6
CONTINUOUS
 62
    47
 10
43.439547
 20
64.775173
 11
50.439552
 21
64.775173
  0
LINE
  8
型材断面
  6
CONTINUOUS
 62
    47
 10
43.439547
 20
64.075175
 11
43.439547
 21
64.775173
  0
LINE
  8
型材断面
  6
CONTINUOUS
 62
    47
 10
43.12175
 20
63.91355
 11
41.939547
 21
64.775173
  0
LINE
  8
型材断面
  6
CONTINUOUS
 62
    47
 10
34.239552
 20
64.775173
 11
41.939547
 21
64.775173
  0
ENDBLK
  0
BLOCK
  2
*GRP_0039
 70
    65
 10
0.0
 20
0.0
  0
LINE
  8
型材断面
  6
DOT
 10
50.439552
 20
-46.976278
 11
52.439552
 21
-46.976278
  0
LINE
  8
型材断面
  6
DOT
 10
50.439552
 20
-25.976278
 11
52.439552
 21
-25.976278
  0
LINE
  8
型材断面
  6
DOT
 10
50.939552
 20
-25.976278
 11
50.939552
 21
-46.976278
  0
LINE
  8
型材断面
  6
DOT
 10
51.439552
 20
-25.976278
 11
51.439552
 21
-46.976278
  0
LINE
  8
型材断面
  6
DOT
 10
51.939552
 20
-25.976278
 11
51.939552
 21
-46.976278
  0
INSERT
  2
*GRP_0040
  8
型材断面
  6
CONTINUOUS
 62
    47
 10
0.0
 20
0.0
  0
ENDBLK
  0
BLOCK
  2
*GRP_0040
 70
    65
 10
0.0
 20
0.0
  0
ARC
  8
型材断面
  6
CONTINUOUS
 62
    47
 10
34.239552
 20
-59.026274
 40
0.3
 50
90.0
 51
180.0
  0
LINE
  8
型材断面
  6
CONTINUOUS
 62
    47
 10
33.939552
 20
-59.026278
 11
33.939552
 21
-60.42628
  0
LINE
  8
型材断面
  6
CONTINUOUS
 62
    47
 10
34.239552
 20
-60.72628
 11
51.43955
 21
-60.72628
  0
ARC
  8
型材断面
  6
CONTINUOUS
 62
    47
 10
34.239552
 20
-60.426274
 40
0.3
 50
180.0
 51
270.0
  0
ARC
  8
型材断面
  6
CONTINUOUS
 62
    47
 10
51.439552
 20
-13.226274
 40
1.0
 50
0.0
 51
90.0
  0
ARC
  8
型材断面
  6
CONTINUOUS
 62
    47
 10
34.239552
 20
-13.926274
 40
0.3
 50
180.0
 51
270.0
  0
LINE
  8
型材断面
  6
CONTINUOUS
 62
    47
 10
33.939552
 20
-13.92628
 11
33.939552
 21
-12.526278
  0
LINE
  8
型材断面
  6
CONTINUOUS
 62
    47
 10
34.239552
 20
-12.226278
 11
51.43955
 21
-12.226278
  0
ARC
  8
型材断面
  6
CONTINUOUS
 62
    47
 10
34.239552
 20
-12.526274
 40
0.3
 50
90.0
 51
180.0
  0
LINE
  8
型材断面
  6
CONTINUOUS
 62
    47
 10
50.439552
 20
-58.726278
 11
50.439552
 21
-14.22628
  0
LINE
  8
型材断面
  6
CONTINUOUS
 62
    47
 10
52.439547
 20
-59.726275
 11
52.439547
 21
-13.226275
  0
ARC
  8
型材断面
  6
CONTINUOUS
 62
    47
 10
51.439552
 20
-59.726274
 40
1.0
 50
270.0
 51
360.0
  0
LINE
  8
型材断面
  6
CONTINUOUS
 62
    47
 10
43.439547
 20
-58.726278
 11
50.439552
 21
-58.726278
  0
LINE
  8
型材断面
  6
CONTINUOUS
 62
    47
 10
43.439547
 20
-58.02628
 11
43.439547
 21
-58.726278
  0
ARC
  8
型材断面
  6
CONTINUOUS
 62
    47
 10
43.239552
 20
-58.026274
 40
0.2
 50
0.0
 51
126.085808
  0
LINE
  8
型材断面
  6
CONTINUOUS
 62
    47
 10
43.12175
 20
-57.864655
 11
41.939547
 21
-58.726278
  0
LINE
  8
型材断面
  6
CONTINUOUS
 62
    47
 10
34.239552
 20
-58.726278
 11
41.939547
 21
-58.726278
  0
ARC
  8
型材断面
  6
CONTINUOUS
 62
    47
 10
43.239552
 20
-14.926274
 40
0.2
 50
233.914192
 51
360.0
  0
LINE
  8
型材断面
  6
CONTINUOUS
 62
    47
 10
43.439547
 20
-14.22628
 11
50.439552
 21
-14.22628
  0
LINE
  8
型材断面
  6
CONTINUOUS
 62
    47
 10
43.439547
 20
-14.926278
 11
43.439547
 21
-14.22628
  0
LINE
  8
型材断面
  6
CONTINUOUS
 62
    47
 10
43.12175
 20
-15.087903
 11
41.939547
 21
-14.22628
  0
LINE
  8
型材断面
  6
CONTINUOUS
 62
    47
 10
34.239552
 20
-14.22628
 11
41.939547
 21
-14.22628
  0
ENDBLK
  0
BLOCK
  2
*GRP_0041
 70
    65
 10
0.0
 20
0.0
  0
LINE
  8
寸法
  6
CONTINUOUS
 10
146.526535
 20
8.57356
 11
133.651165
 21
27.838487
  0
ENDBLK
  0
BLOCK
  2
*GRP_0042
 70
    65
 10
0.0
 20
0.0
  0
LINE
  8
ボルト／ビス
  6
CONTINUOUS
 62
    64
 10
108.293975
 20
-41.726322
 11
108.293975
 21
-31.226322
  0
LINE
  8
ボルト／ビス
  6
CONTINUOUS
 62
    64
 10
117.214795
 20
-36.476322
 11
93.724883
 21
-36.476322
  0
LINE
  8
ボルト／ビス
  6
CONTINUOUS
 62
    64
 10
108.293975
 20
-31.226322
 11
109.693975
 21
-31.226322
  0
ARC
  8
ボルト／ビス
  6
CONTINUOUS
 62
    64
 10
109.693971
 20
-33.726323
 40
2.5
 50
0.0
 51
90.0
  0
LINE
  8
ボルト／ビス
  6
CONTINUOUS
 62
    64
 10
112.193975
 20
-33.726322
 11
112.193975
 21
-39.226322
  0
LINE
  8
ボルト／ビス
  6
CONTINUOUS
 62
    64
 10
108.293975
 20
-41.726322
 11
109.693975
 21
-41.726322
  0
ARC
  8
ボルト／ビス
  6
CONTINUOUS
 62
    64
 10
109.693971
 20
-39.226323
 40
2.5
 50
-90.0
 51
0.0
  0
LINE
  8
ボルト／ビス
  6
CONTINUOUS
 62
    64
 10
98.793975
 20
-39.476322
 11
98.293975
 21
-38.976322
  0
LINE
  8
ボルト／ビス
  6
CONTINUOUS
 62
    64
 10
98.793975
 20
-33.476322
 11
98.293975
 21
-33.976322
  0
LINE
  8
ボルト／ビス
  6
CONTINUOUS
 62
    64
 10
108.293975
 20
-33.476322
 11
98.793975
 21
-33.476322
  0
LINE
  8
ボルト／ビス
  6
CONTINUOUS
 62
    64
 10
108.293975
 20
-33.976322
 11
98.293975
 21
-33.976322
  0
LINE
  8
ボルト／ビス
  6
CONTINUOUS
 62
    64
 10
108.293975
 20
-39.476322
 11
98.793975
 21
-39.476322
  0
LINE
  8
ボルト／ビス
  6
CONTINUOUS
 62
    64
 10
98.793975
 20
-33.476322
 11
98.793975
 21
-39.476322
  0
LINE
  8
ボルト／ビス
  6
CONTINUOUS
 62
    64
 10
108.293975
 20
-38.976322
 11
98.293975
 21
-38.976322
  0
LINE
  8
ボルト／ビス
  6
CONTINUOUS
 62
    64
 10
98.293975
 20
-33.976322
 11
98.293975
 21
-38.976322
  0
ENDBLK
  0
BLOCK
  2
*GRP_0043
 70
    65
 10
0.0
 20
0.0
  0
LINE
  8
ボルト／ビス
  6
CONTINUOUS
 62
    64
 10
83.293963
 20
37.274857
 11
83.293963
 21
47.774857
  0
LINE
  8
ボルト／ビス
  6
CONTINUOUS
 62
    64
 10
92.214782
 20
42.524857
 11
68.72487
 21
42.524857
  0
LINE
  8
ボルト／ビス
  6
CONTINUOUS
 62
    64
 10
83.293963
 20
47.774857
 11
84.693963
 21
47.774857
  0
ARC
  8
ボルト／ビス
  6
CONTINUOUS
 62
    64
 10
84.693959
 20
45.274857
 40
2.5
 50
0.0
 51
90.0
  0
LINE
  8
ボルト／ビス
  6
CONTINUOUS
 62
    64
 10
87.193963
 20
45.274857
 11
87.193963
 21
39.774857
  0
LINE
  8
ボルト／ビス
  6
CONTINUOUS
 62
    64
 10
83.293963
 20
37.274857
 11
84.693963
 21
37.274857
  0
ARC
  8
ボルト／ビス
  6
CONTINUOUS
 62
    64
 10
84.693959
 20
39.774857
 40
2.5
 50
-90.0
 51
0.0
  0
LINE
  8
ボルト／ビス
  6
CONTINUOUS
 62
    64
 10
73.793963
 20
39.524857
 11
73.293963
 21
40.024857
  0
LINE
  8
ボルト／ビス
  6
CONTINUOUS
 62
    64
 10
73.793963
 20
45.524857
 11
73.293963
 21
45.024857
  0
LINE
  8
ボルト／ビス
  6
CONTINUOUS
 62
    64
 10
83.293963
 20
45.524857
 11
73.793963
 21
45.524857
  0
LINE
  8
ボルト／ビス
  6
CONTINUOUS
 62
    64
 10
83.293963
 20
45.024857
 11
73.293963
 21
45.024857
  0
LINE
  8
ボルト／ビス
  6
CONTINUOUS
 62
    64
 10
83.293963
 20
39.524857
 11
73.793963
 21
39.524857
  0
LINE
  8
ボルト／ビス
  6
CONTINUOUS
 62
    64
 10
73.793963
 20
45.524857
 11
73.793963
 21
39.524857
  0
LINE
  8
ボルト／ビス
  6
CONTINUOUS
 62
    64
 10
83.293963
 20
40.024857
 11
73.293963
 21
40.024857
  0
LINE
  8
ボルト／ビス
  6
CONTINUOUS
 62
    64
 10
73.293963
 20
45.024857
 11
73.293963
 21
40.024857
  0
ENDBLK
  0
BLOCK
  2
*GRP_0044
 70
    65
 10
0.0
 20
0.0
  0
LINE
  8
St
  6
DOT
 10
83.293963
 20
42.524857
 11
81.693963
 21
42.524857
  0
LINE
  8
St
  6
DOT
 10
83.293963
 20
47.524857
 11
81.693963
 21
47.524857
  0
LINE
  8
St
  6
DOT
 10
83.293963
 20
37.524857
 11
81.693963
 21
37.524857
  0
LINE
  8
St
  6
DOT
 10
82.973963
 20
47.524857
 11
82.973963
 21
37.524857
  0
LINE
  8
St
  6
DOT
 10
82.653962
 20
47.524857
 11
82.653962
 21
37.524857
  0
LINE
  8
St
  6
DOT
 10
82.333963
 20
47.524857
 11
82.333963
 21
37.524857
  0
LINE
  8
St
  6
DOT
 10
82.013962
 20
47.524857
 11
82.013962
 21
37.524857
  0
LINE
  8
St
  6
CONTINUOUS
 10
83.293963
 20
57.524857
 11
81.693963
 21
57.524857
  0
LINE
  8
St
  6
CONTINUOUS
 10
81.693963
 20
53.439255
 11
83.293963
 21
51.839255
  0
LINE
  8
St
  6
CONTINUOUS
 10
81.693963
 20
52.73215
 11
83.293963
 21
51.13215
  0
LINE
  8
St
  6
DOT
 10
106.693975
 20
-31.476322
 11
108.293975
 21
-31.476322
  0
LINE
  8
St
  6
DOT
 10
108.293975
 20
-41.476322
 11
106.693975
 21
-41.476322
  0
LINE
  8
St
  6
DOT
 10
108.293975
 20
-36.476322
 11
106.693975
 21
-36.476322
  0
LINE
  8
St
  6
DOT
 10
107.973975
 20
-41.476322
 11
107.973975
 21
-31.476322
  0
LINE
  8
St
  6
DOT
 10
107.653975
 20
-41.476322
 11
107.653975
 21
-31.476322
  0
LINE
  8
St
  6
DOT
 10
107.333975
 20
-41.476322
 11
107.333975
 21
-31.476322
  0
LINE
  8
St
  6
DOT
 10
107.013975
 20
-41.476322
 11
107.013975
 21
-31.476322
  0
LINE
  8
St
  6
CONTINUOUS
 10
106.693975
 20
-51.476322
 11
108.293975
 21
-51.476322
  0
LINE
  8
St
  6
CONTINUOUS
 10
106.693975
 20
-45.748015
 11
108.293975
 21
-47.348015
  0
LINE
  8
St
  6
CONTINUOUS
 10
106.693975
 20
-46.45512
 11
108.293975
 21
-48.05512
  0
LINE
  8
St
  6
CONTINUOUS
 10
106.693975
 20
-14.34877
 11
108.293975
 21
-15.94877
  0
LINE
  8
St
  6
CONTINUOUS
 10
106.693975
 20
-15.055875
 11
108.293975
 21
-16.655875
  0
LINE
  8
St
  6
CONTINUOUS
 10
106.693975
 20
-51.476322
 11
106.693975
 21
-7.476322
  0
LINE
  8
St
  6
CONTINUOUS
 10
83.293963
 20
57.524857
 11
83.293963
 21
34.965
  0
ARC
  8
St
  6
CONTINUOUS
 10
83.293961
 20
34.965
 40
1.6
 50
180.0
 51
210.762025
  0
ARC
  8
St
  6
CONTINUOUS
 10
106.693973
 20
-7.476323
 40
1.6
 50
0.0
 51
30.762025
  0
LINE
  8
St
  6
CONTINUOUS
 10
83.293963
 20
34.965
 11
108.293975
 21
-7.03618
  0
LINE
  8
St
  6
CONTINUOUS
 10
108.293975
 20
-51.476322
 11
108.293975
 21
-7.03618
  0
LINE
  8
St
  6
CONTINUOUS
 10
81.693963
 20
57.524857
 11
81.693963
 21
34.524857
  0
LINE
  8
St
  6
CONTINUOUS
 10
106.693975
 20
-7.476322
 11
81.693963
 21
34.524857
  0
LINE
  8
St
  6
CONTINUOUS
 10
86.267055
 20
26.84185
 11
88.46029
 21
26.285327
  0
LINE
  8
St
  6
CONTINUOUS
 10
86.62872
 20
26.234235
 11
88.821957
 21
25.677713
  0
LINE
  8
St
  6
CONTINUOUS
 10
102.236188
 20
0.01297
 11
104.429422
 21
-0.543552
  0
LINE
  8
St
  6
CONTINUOUS
 10
102.597853
 20
-0.594645
 11
104.79109
 21
-1.151167
  0
ENDBLK
  0
BLOCK
  2
*GRP_0045
 70
    65
 10
0.0
 20
0.0
  0
POLYLINE
  8
寸法
  6
CONTINUOUS
 66
     1
  0
VERTEX
  8
寸法
 10
99.92586
 20
5.676722
  0
VERTEX
  8
寸法
 10
102.824385
 20
11.400737
  0
VERTEX
  8
寸法
 10
110.637173
 20
11.400737
  0
SEQEND
  0
ENDBLK
  0
BLOCK
  2
*GRP_0046
 70
    65
 10
0.0
 20
0.0
  0
LINE
  8
ボルト／ビス
  6
CONTINUOUS
 62
    64
 10
-41.073057
 20
75.013218
 11
-40.267047
 21
75.689538
  0
ARC
  8
ボルト／ビス
  6
CONTINUOUS
 62
    64
 10
-39.1743
 20
74.387273
 40
1.7
 50
45.0
 51
130.000011
  0
LINE
  8
ボルト／ビス
  6
CONTINUOUS
 62
    64
 10
-37.972228
 20
75.589352
 11
-36.759703
 21
74.376828
  0
LINE
  8
ボルト／ビス
  6
CONTINUOUS
 62
    64
 10
-36.123305
 20
70.063472
 11
-35.446985
 21
70.869475
  0
ARC
  8
ボルト／ビス
  6
CONTINUOUS
 62
    64
 10
-36.749254
 20
71.962227
 40
1.7
 50
319.999989
 51
405.0
  0
LINE
  8
ボルト／ビス
  6
CONTINUOUS
 62
    64
 10
-35.547177
 20
73.164302
 11
-36.759703
 21
74.376828
  0
LINE
  8
ボルト／ビス
  6
CONTINUOUS
 62
    64
 10
-38.726555
 20
75.799338
 11
-38.555322
 21
75.97057
  0
LINE
  8
ボルト／ビス
  6
CONTINUOUS
 62
    64
 10
-37.986522
 20
74.139948
 11
-37.491553
 21
73.644977
  0
LINE
  8
ボルト／ビス
  6
CONTINUOUS
 62
    64
 10
-37.809695
 20
74.88247
 11
-38.726555
 21
75.799338
  0
LINE
  8
ボルト／ビス
  6
CONTINUOUS
 62
    64
 10
-37.986522
 20
74.139948
 11
-37.809688
 21
74.316783
  0
ARC
  8
ボルト／ビス
  6
CONTINUOUS
 62
    64
 10
-38.092524
 20
74.599637
 40
0.4
 50
315.0
 51
405.0
  0
LINE
  8
ボルト／ビス
  6
CONTINUOUS
 62
    64
 10
-35.337193
 20
72.409975
 11
-35.16596
 21
72.581207
  0
LINE
  8
ボルト／ビス
  6
CONTINUOUS
 62
    64
 10
-36.996583
 20
73.15
 11
-37.491553
 21
73.644977
  0
LINE
  8
ボルト／ビス
  6
CONTINUOUS
 62
    64
 10
-36.254053
 20
73.326835
 11
-35.337193
 21
72.409975
  0
LINE
  8
ボルト／ビス
  6
CONTINUOUS
 62
    64
 10
-36.996583
 20
73.15
 11
-36.81974
 21
73.326843
  0
ARC
  8
ボルト／ビス
  6
CONTINUOUS
 62
    64
 10
-36.536889
 20
73.044002
 40
0.4
 50
45.0
 51
135.0
  0
LINE
  8
ボルト／ビス
  6
CONTINUOUS
 62
    64
 10
-41.073057
 20
75.013218
 11
-36.123305
 21
70.063472
  0
LINE
  8
ボルト／ビス
  6
CONTINUOUS
 62
    64
 10
-50.972555
 20
62.992405
 11
-50.972548
 21
62.285297
  0
LINE
  8
ボルト／ビス
  6
CONTINUOUS
 62
    64
 10
-48.144125
 20
60.163975
 11
-48.851225
 21
60.163975
  0
LINE
  8
ボルト／ビス
  6
CONTINUOUS
 62
    64
 10
-50.972555
 20
62.992405
 11
-48.144125
 21
60.163975
  0
LINE
  8
ボルト／ビス
  6
CONTINUOUS
 62
    64
 10
-50.972548
 20
62.285297
 11
-48.851225
 21
60.163975
  0
LINE
  8
ボルト／ビス
  6
CONTINUOUS
 62
    64
 10
-37.183962
 20
71.12413
 11
-48.144125
 21
60.163975
  0
LINE
  8
ボルト／ビス
  6
CONTINUOUS
 62
    64
 10
-40.0124
 20
73.95256
 11
-50.972555
 21
62.992405
  0
LINE
  8
ボルト／ビス
  6
CONTINUOUS
 62
    64
 10
-39.658842
 20
73.599002
 11
-50.972548
 21
62.285297
  0
LINE
  8
ボルト／ビス
  6
CONTINUOUS
 62
    64
 10
-37.53752
 20
71.477687
 11
-48.851225
 21
60.163975
  0
LINE
  8
ボルト／ビス
  6
DASHDOT
 62
    64
 10
-34.63838
 20
76.498143
 11
-52.033205
 21
59.103318
  0
ENDBLK
  0
BLOCK
  2
*GRP_0047
 70
    65
 10
0.0
 20
0.0
  0
LINE
  8
ボルト／ビス
  6
CONTINUOUS
 62
    64
 10
-11.410603
 20
32.980968
 11
-11.502305
 21
31.932805
  0
ARC
  8
ボルト／ビス
  6
CONTINUOUS
 62
    64
 10
-13.195824
 20
32.080975
 40
1.7
 50
270.0
 51
355.000011
  0
LINE
  8
ボルト／ビス
  6
CONTINUOUS
 62
    64
 10
-13.195835
 20
30.380972
 11
-14.910605
 21
30.380972
  0
LINE
  8
ボルト／ビス
  6
CONTINUOUS
 62
    64
 10
-18.4106
 20
32.980968
 11
-18.318898
 21
31.932805
  0
ARC
  8
ボルト／ビス
  6
CONTINUOUS
 62
    64
 10
-16.625358
 20
32.080975
 40
1.7
 50
184.999989
 51
270.0
  0
LINE
  8
ボルト／ビス
  6
CONTINUOUS
 62
    64
 10
-16.625367
 20
30.380972
 11
-14.910605
 21
30.380972
  0
LINE
  8
ボルト／ビス
  6
CONTINUOUS
 62
    64
 10
-12.513965
 20
30.765872
 11
-12.513965
 21
30.523712
  0
LINE
  8
ボルト／ビス
  6
CONTINUOUS
 62
    64
 10
-14.2106
 20
31.415957
 11
-14.910605
 21
31.415957
  0
LINE
  8
ボルト／ビス
  6
CONTINUOUS
 62
    64
 10
-13.810603
 20
30.765872
 11
-12.513965
 21
30.765872
  0
LINE
  8
ボルト／ビス
  6
CONTINUOUS
 62
    64
 10
-14.2106
 20
31.415957
 11
-14.2106
 21
31.165877
  0
ARC
  8
ボルト／ビス
  6
CONTINUOUS
 62
    64
 10
-13.810591
 20
31.16588
 40
0.4
 50
180.0
 51
270.0
  0
LINE
  8
ボルト／ビス
  6
CONTINUOUS
 62
    64
 10
-17.307245
 20
30.765872
 11
-17.307245
 21
30.523712
  0
LINE
  8
ボルト／ビス
  6
CONTINUOUS
 62
    64
 10
-15.610603
 20
31.415957
 11
-14.910605
 21
31.415957
  0
LINE
  8
ボルト／ビス
  6
CONTINUOUS
 62
    64
 10
-16.0106
 20
30.765872
 11
-17.307245
 21
30.765872
  0
LINE
  8
ボルト／ビス
  6
CONTINUOUS
 62
    64
 10
-15.610603
 20
31.415957
 11
-15.610603
 21
31.165877
  0
ARC
  8
ボルト／ビス
  6
CONTINUOUS
 62
    64
 10
-16.010591
 20
31.16588
 40
0.4
 50
270.0
 51
360.0
  0
LINE
  8
ボルト／ビス
  6
CONTINUOUS
 62
    64
 10
-11.410603
 20
32.980968
 11
-18.4106
 21
32.980968
  0
LINE
  8
ボルト／ビス
  6
CONTINUOUS
 62
    64
 10
-12.910603
 20
44.480972
 11
-13.410605
 21
44.980968
  0
LINE
  8
ボルト／ビス
  6
CONTINUOUS
 62
    64
 10
-16.9106
 20
44.480972
 11
-16.410605
 21
44.980968
  0
LINE
  8
ボルト／ビス
  6
CONTINUOUS
 62
    64
 10
-12.910603
 20
44.480972
 11
-16.9106
 21
44.480972
  0
LINE
  8
ボルト／ビス
  6
CONTINUOUS
 62
    64
 10
-13.410605
 20
44.980968
 11
-16.410605
 21
44.980968
  0
LINE
  8
ボルト／ビス
  6
CONTINUOUS
 62
    64
 10
-13.410605
 20
32.980968
 11
-13.410605
 21
44.980968
  0
LINE
  8
ボルト／ビス
  6
CONTINUOUS
 62
    64
 10
-16.410605
 20
32.980968
 11
-16.410605
 21
44.980968
  0
LINE
  8
ボルト／ビス
  6
CONTINUOUS
 62
    64
 10
-16.9106
 20
32.980968
 11
-16.9106
 21
44.480972
  0
LINE
  8
ボルト／ビス
  6
CONTINUOUS
 62
    64
 10
-12.910603
 20
32.980968
 11
-12.910603
 21
44.480972
  0
LINE
  8
ボルト／ビス
  6
DASHDOT
 62
    64
 10
-14.910605
 20
27.380972
 11
-14.910605
 21
47.980968
  0
ENDBLK
  0
BLOCK
  2
*GRP_0048
 70
    65
 10
0.0
 20
0.0
  0
INSERT
  2
*GRP_0095
  8
型材断面
  6
CONTINUOUS
 10
0.0
 20
0.0
  0
LINE
  8
型材断面
  6
DOT
 10
14.693958
 20
-41.47595
 11
14.693958
 21
-31.475945
  0
LINE
  8
型材断面
  6
DOT
 10
9.693955
 20
-36.475947
 11
19.69396
 21
-36.475947
  0
ENDBLK
  0
BLOCK
  2
*GRP_0049
 70
    65
 10
0.0
 20
0.0
  0
LINE
  8
型材断面
  6
CONTINUOUS
 62
    47
 10
8.293908
 20
-95.976005
 11
10.29391
 21
-95.976005
  0
LINE
  8
型材断面
  6
CONTINUOUS
 62
    47
 10
10.29391
 20
-95.976005
 11
10.29391
 21
-97.476005
  0
LINE
  8
型材断面
  6
CONTINUOUS
 62
    47
 10
5.293908
 20
-99.974555
 11
5.593908
 21
-100.274555
  0
LINE
  8
型材断面
  6
CONTINUOUS
 62
    47
 10
5.293908
 20
-99.974555
 11
4.993908
 21
-100.274555
  0
LINE
  8
型材断面
  6
CONTINUOUS
 62
    47
 10
8.293908
 20
-95.976005
 11
7.734205
 21
-98.774555
  0
LINE
  8
型材断面
  6
CONTINUOUS
 62
    47
 10
10.29391
 20
-97.476005
 11
9.293905
 21
-97.476005
  0
LINE
  8
型材断面
  6
CONTINUOUS
 62
    47
 10
9.293905
 20
-97.476005
 11
9.293905
 21
-100.274555
  0
LINE
  8
型材断面
  6
CONTINUOUS
 62
    47
 10
5.593908
 20
-100.274555
 11
9.293905
 21
-100.274555
  0
LINE
  8
型材断面
  6
CONTINUOUS
 62
    47
 10
-17.11094
 20
9.623995
 11
-16.51094
 21
10.223995
  0
LINE
  8
型材断面
  6
CONTINUOUS
 62
    47
 10
-14.80604
 20
10.223995
 11
-16.51094
 21
10.223995
  0
LINE
  8
型材断面
  6
CONTINUOUS
 62
    47
 10
-17.11094
 20
9.623995
 11
-17.11094
 21
9.023995
  0
LINE
  8
型材断面
  6
CONTINUOUS
 62
    47
 10
-22.21094
 20
9.623995
 11
-22.21094
 21
9.023995
  0
LINE
  8
型材断面
  6
CONTINUOUS
 62
    47
 10
-22.21094
 20
9.623995
 11
-22.81094
 21
10.223995
  0
LINE
  8
型材断面
  6
CONTINUOUS
 62
    47
 10
-17.11094
 20
9.023995
 11
-16.00604
 21
9.023995
  0
LINE
  8
型材断面
  6
CONTINUOUS
 62
    47
 10
-16.00604
 20
9.023995
 11
-16.00604
 21
6.52399
  0
LINE
  8
型材断面
  6
CONTINUOUS
 62
    47
 10
-22.21094
 20
9.023995
 11
-23.310942
 21
9.023995
  0
LINE
  8
型材断面
  6
CONTINUOUS
 62
    47
 10
-23.310942
 20
9.023995
 11
-23.310942
 21
6.52399
  0
LINE
  8
型材断面
  6
CONTINUOUS
 62
    47
 10
-16.00604
 20
6.52399
 11
-23.310942
 21
6.52399
  0
LINE
  8
型材断面
  6
CONTINUOUS
 62
    47
 10
-16.806042
 20
5.02399
 11
-24.810942
 21
5.02399
  0
LINE
  8
型材断面
  6
CONTINUOUS
 62
    47
 10
-24.810942
 20
5.02399
 11
-24.810942
 21
8.723995
  0
LINE
  8
型材断面
  6
CONTINUOUS
 62
    47
 10
-22.81094
 20
10.223995
 11
-26.80604
 21
10.223995
  0
LINE
  8
型材断面
  6
CONTINUOUS
 62
    47
 10
-24.810942
 20
8.723995
 11
-26.18474
 21
8.723995
  0
LINE
  8
型材断面
  6
CONTINUOUS
 62
    47
 10
-26.80604
 20
10.223995
 11
-32.706095
 21
4.323992
  0
LINE
  8
型材断面
  6
CONTINUOUS
 62
    47
 10
-14.80604
 20
-3.97451
 11
-14.80604
 21
-5.974505
  0
LINE
  8
型材断面
  6
CONTINUOUS
 62
    47
 10
-16.30604
 20
-5.974505
 11
-16.30604
 21
-5.204255
  0
LINE
  8
型材断面
  6
CONTINUOUS
 62
    47
 10
-14.80604
 20
-5.974505
 11
-16.30604
 21
-5.974505
  0
LINE
  8
型材断面
  6
CONTINUOUS
 62
    47
 10
-19.60604
 20
1.42549
 11
-19.60604
 21
-3.37451
  0
LINE
  8
型材断面
  6
CONTINUOUS
 62
    47
 10
-19.106045
 20
1.925492
 11
-19.60604
 21
1.42549
  0
LINE
  8
型材断面
  6
CONTINUOUS
 62
    47
 10
-19.106045
 20
-3.874505
 11
-19.60604
 21
-3.37451
  0
LINE
  8
型材断面
  6
CONTINUOUS
 62
    47
 10
-19.106045
 20
1.925492
 11
-19.106045
 21
2.695195
  0
LINE
  8
型材断面
  6
CONTINUOUS
 62
    47
 10
-14.80604
 20
-3.97451
 11
-17.606045
 21
-3.414508
  0
LINE
  8
型材断面
  6
CONTINUOUS
 62
    47
 10
-19.106045
 20
-3.874505
 11
-19.106045
 21
-4.644207
  0
LINE
  8
型材断面
  6
CONTINUOUS
 62
    47
 10
-16.30604
 20
-5.204255
 11
-19.106045
 21
-4.644207
  0
LINE
  8
型材断面
  6
CONTINUOUS
 62
    47
 10
-17.906045
 20
-0.97451
 11
-17.606045
 21
-0.67451
  0
LINE
  8
型材断面
  6
CONTINUOUS
 62
    47
 10
-17.906045
 20
-0.97451
 11
-17.606045
 21
-1.27451
  0
LINE
  8
型材断面
  6
CONTINUOUS
 62
    47
 10
-17.606045
 20
1.465495
 11
-17.606045
 21
-0.67451
  0
LINE
  8
型材断面
  6
CONTINUOUS
 62
    47
 10
-17.606045
 20
-1.27451
 11
-17.606045
 21
-3.414508
  0
LINE
  8
型材断面
  6
CONTINUOUS
 62
    47
 10
-16.806042
 20
5.02399
 11
-16.806042
 21
3.155192
  0
LINE
  8
型材断面
  6
CONTINUOUS
 62
    47
 10
-19.106045
 20
2.695195
 11
-16.806042
 21
3.155192
  0
LINE
  8
型材断面
  6
CONTINUOUS
 62
    47
 10
-14.80604
 20
10.223995
 11
-14.80604
 21
2.02549
  0
LINE
  8
型材断面
  6
CONTINUOUS
 62
    47
 10
-17.606045
 20
1.465495
 11
-14.80604
 21
2.02549
  0
LINE
  8
型材断面
  6
CONTINUOUS
 62
    47
 10
-26.18474
 20
8.723995
 11
-27.20609
 21
7.702645
  0
LINE
  8
型材断面
  6
CONTINUOUS
 62
    47
 10
-28.70609
 20
6.20269
 11
-31.206095
 21
3.702693
  0
LINE
  8
型材断面
  6
CONTINUOUS
 62
    47
 10
-27.20609
 20
7.702645
 11
-27.20609
 21
1.525495
  0
LINE
  8
型材断面
  6
CONTINUOUS
 62
    47
 10
-27.20609
 20
1.525495
 11
-28.70609
 21
1.525495
  0
LINE
  8
型材断面
  6
CONTINUOUS
 62
    47
 10
-28.70609
 20
6.20269
 11
-28.70609
 21
1.525495
  0
LINE
  8
型材断面
  6
CONTINUOUS
 62
    47
 10
1.244208
 20
-97.476005
 11
1.244208
 21
-98.774555
  0
LINE
  8
型材断面
  6
CONTINUOUS
 62
    47
 10
2.85361
 20
-98.774555
 11
2.293908
 21
-95.976005
  0
LINE
  8
型材断面
  6
CONTINUOUS
 62
    47
 10
7.734205
 20
-98.774555
 11
2.85361
 21
-98.774555
  0
LINE
  8
型材断面
  6
CONTINUOUS
 62
    47
 10
-32.406095
 20
-107.276008
 11
-32.706095
 21
-107.576008
  0
LINE
  8
型材断面
  6
CONTINUOUS
 62
    47
 10
-32.706095
 20
-112.776005
 11
-32.706095
 21
-107.576008
  0
LINE
  8
型材断面
  6
CONTINUOUS
 62
    47
 10
-32.406095
 20
-107.276008
 11
-32.706095
 21
-106.976008
  0
LINE
  8
型材断面
  6
CONTINUOUS
 62
    47
 10
-32.706095
 20
4.323992
 11
-32.706095
 21
-106.976008
  0
LINE
  8
型材断面
  6
CONTINUOUS
 62
    47
 10
-31.206095
 20
3.702693
 11
-31.206095
 21
-111.276005
  0
LINE
  8
型材断面
  6
CONTINUOUS
 62
    47
 10
-31.206095
 20
-111.276005
 11
-1.206095
 21
-111.276005
  0
LINE
  8
型材断面
  6
CONTINUOUS
 62
    47
 10
0.293905
 20
-100.274555
 11
0.293905
 21
-112.776005
  0
LINE
  8
型材断面
  6
CONTINUOUS
 62
    47
 10
-5.706095
 20
-122.876008
 11
-7.70609
 21
-122.876008
  0
LINE
  8
型材断面
  6
CONTINUOUS
 62
    47
 10
-5.706095
 20
-122.876008
 11
-5.706095
 21
-112.776005
  0
LINE
  8
型材断面
  6
CONTINUOUS
 62
    47
 10
0.293905
 20
-112.776005
 11
-5.706095
 21
-112.776005
  0
LINE
  8
型材断面
  6
CONTINUOUS
 62
    47
 10
-7.70609
 20
-122.876008
 11
-7.70609
 21
-112.776005
  0
LINE
  8
型材断面
  6
CONTINUOUS
 62
    47
 10
-32.706095
 20
-112.776005
 11
-7.70609
 21
-112.776005
  0
LINE
  8
型材断面
  6
CONTINUOUS
 62
    47
 10
2.293908
 20
-95.976005
 11
0.293905
 21
-95.976005
  0
LINE
  8
型材断面
  6
CONTINUOUS
 62
    47
 10
0.293905
 20
-95.976005
 11
0.293905
 21
-97.476005
  0
LINE
  8
型材断面
  6
CONTINUOUS
 62
    47
 10
1.244208
 20
-97.476005
 11
0.293905
 21
-97.476005
  0
LINE
  8
型材断面
  6
CONTINUOUS
 62
    47
 10
-5.206092
 20
-102.274557
 11
-3.706092
 21
-102.274557
  0
LINE
  8
型材断面
  6
CONTINUOUS
 62
    47
 10
-5.206092
 20
-102.274557
 11
-5.206092
 21
-98.774555
  0
LINE
  8
型材断面
  6
CONTINUOUS
 62
    47
 10
1.244208
 20
-98.774555
 11
-5.206092
 21
-98.774555
  0
LINE
  8
型材断面
  6
CONTINUOUS
 62
    47
 10
-1.206095
 20
-111.276005
 11
-1.206095
 21
-100.274555
  0
LINE
  8
型材断面
  6
CONTINUOUS
 62
    47
 10
4.993908
 20
-100.274555
 11
0.293905
 21
-100.274555
  0
LINE
  8
型材断面
  6
CONTINUOUS
 62
    47
 10
-1.206095
 20
-100.274555
 11
-3.706092
 21
-100.274555
  0
LINE
  8
型材断面
  6
CONTINUOUS
 62
    47
 10
-3.706092
 20
-102.274557
 11
-3.706092
 21
-100.274555
  0
ENDBLK
  0
BLOCK
  2
*GRP_0050
 70
    65
 10
0.0
 20
0.0
  0
LINE
  8
型材断面
  6
CONTINUOUS
 62
    47
 10
-4.806042
 20
50.225155
 11
-4.806042
 21
64.52515
  0
ARC
  8
型材断面
  6
DOT
 62
    47
 10
-4.306039
 20
17.725147
 40
0.5
 50
180.0
 51
270.0
  0
LINE
  8
型材断面
  6
CONTINUOUS
 62
    47
 10
-3.306042
 20
17.225155
 11
-4.30604
 21
17.225155
  0
LINE
  8
型材断面
  6
CONTINUOUS
 62
    47
 10
-2.80604
 20
20.525147
 11
-2.80604
 21
17.725158
  0
ARC
  8
型材断面
  6
DOT
 62
    47
 10
-3.306036
 20
17.725147
 40
0.5
 50
270.0
 51
360.0
  0
LINE
  8
型材断面
  6
CONTINUOUS
 62
    47
 10
-2.80604
 20
64.52515
 11
-2.80604
 21
83.415393
  0
LINE
  8
型材断面
  6
CONTINUOUS
 62
    47
 10
-4.806042
 20
17.725158
 11
-4.806042
 21
45.525152
  0
LINE
  8
型材断面
  6
CONTINUOUS
 62
    47
 10
-17.4101
 20
40.025147
 11
-16.5101
 21
41.225147
  0
LINE
  8
型材断面
  6
CONTINUOUS
 62
    47
 10
-12.410105
 20
40.025147
 11
-13.310105
 21
41.225147
  0
LINE
  8
型材断面
  6
CONTINUOUS
 62
    47
 10
-12.410105
 20
40.025147
 11
-11.4101
 21
40.025147
  0
LINE
  8
型材断面
  6
CONTINUOUS
 62
    47
 10
-17.4101
 20
40.025147
 11
-18.410105
 21
40.025147
  0
LINE
  8
型材断面
  6
CONTINUOUS
 62
    47
 10
-11.4101
 20
41.525147
 11
-11.810105
 21
41.525147
  0
LINE
  8
型材断面
  6
CONTINUOUS
 62
    47
 10
-11.4101
 20
40.025147
 11
-11.4101
 21
41.525147
  0
LINE
  8
型材断面
  6
CONTINUOUS
 62
    47
 10
-18.0101
 20
41.525147
 11
-18.410105
 21
41.525147
  0
LINE
  8
型材断面
  6
CONTINUOUS
 62
    47
 10
-18.410105
 20
40.025147
 11
-18.410105
 21
41.525147
  0
LINE
  8
型材断面
  6
CONTINUOUS
 62
    47
 10
-11.810105
 20
41.525147
 11
-11.810105
 21
45.525152
  0
LINE
  8
型材断面
  6
CONTINUOUS
 62
    47
 10
-4.806042
 20
45.525152
 11
-11.810105
 21
45.525152
  0
LINE
  8
型材断面
  6
CONTINUOUS
 62
    47
 10
-18.0101
 20
41.525147
 11
-18.0101
 21
45.525152
  0
LINE
  8
型材断面
  6
CONTINUOUS
 62
    47
 10
-32.306045
 20
45.525152
 11
-18.0101
 21
45.525152
  0
LINE
  8
型材断面
  6
CONTINUOUS
 62
    47
 10
-16.5101
 20
41.225147
 11
-16.5101
 21
45.525152
  0
LINE
  8
型材断面
  6
CONTINUOUS
 62
    47
 10
-13.310105
 20
41.225147
 11
-13.310105
 21
45.525152
  0
LINE
  8
型材断面
  6
CONTINUOUS
 62
    47
 10
-31.17362
 20
72.184765
 11
-31.880713
 21
72.184787
  0
LINE
  8
型材断面
  6
CONTINUOUS
 62
    47
 10
-31.17362
 20
72.184765
 11
-31.173605
 21
72.891865
  0
LINE
  8
型材断面
  6
CONTINUOUS
 62
    47
 10
-31.880713
 20
72.184787
 11
-35.062738
 21
69.002845
  0
LINE
  8
型材断面
  6
CONTINUOUS
 62
    47
 10
-42.84083
 20
75.36691
 11
-42.133715
 21
76.074002
  0
LINE
  8
型材断面
  6
CONTINUOUS
 62
    47
 10
-42.84083
 20
75.36691
 11
-42.840845
 21
73.952695
  0
LINE
  8
型材断面
  6
CONTINUOUS
 62
    47
 10
-42.840845
 20
73.952695
 11
-36.123425
 21
67.235088
  0
LINE
  8
型材断面
  6
CONTINUOUS
 62
    47
 10
-36.123425
 20
67.235088
 11
-34.002102
 21
67.235065
  0
LINE
  8
型材断面
  6
CONTINUOUS
 62
    47
 10
-31.173605
 20
72.891872
 11
-27.991572
 21
76.073822
  0
LINE
  8
型材断面
  6
CONTINUOUS
 62
    47
 10
-2.80604
 20
83.415393
 11
-11.516053
 21
92.125217
  0
LINE
  8
型材断面
  6
CONTINUOUS
 62
    47
 10
-16.11233
 20
80.458113
 11
-18.587225
 21
82.932963
  0
LINE
  8
型材断面
  6
CONTINUOUS
 62
    47
 10
-17.173002
 20
79.39747
 11
-20.708577
 21
82.93297
  0
LINE
  8
型材断面
  6
CONTINUOUS
 62
    47
 10
-18.587225
 20
82.932963
 11
-16.819438
 21
84.700705
  0
LINE
  8
型材断面
  6
CONTINUOUS
 62
    47
 10
-13.283847
 20
88.236182
 11
-11.516053
 21
90.003925
  0
LINE
  8
型材断面
  6
CONTINUOUS
 62
    47
 10
-9.041158
 20
87.529075
 11
-11.516053
 21
90.003925
  0
LINE
  8
型材断面
  6
CONTINUOUS
 62
    47
 10
-16.11233
 20
80.458113
 11
-9.041158
 21
87.529075
  0
LINE
  8
型材断面
  6
CONTINUOUS
 62
    47
 10
-13.920252
 20
89.721092
 11
-11.515963
 21
92.125308
  0
LINE
  8
型材断面
  6
CONTINUOUS
 62
    47
 10
-13.920252
 20
88.872573
 11
-13.283847
 21
88.236182
  0
LINE
  8
型材断面
  6
CONTINUOUS
 62
    47
 10
-13.920252
 20
89.721092
 11
-13.920252
 21
88.872573
  0
LINE
  8
型材断面
  6
CONTINUOUS
 62
    47
 10
-18.304378
 20
85.337095
 11
-20.708577
 21
82.93297
  0
LINE
  8
型材断面
  6
CONTINUOUS
 62
    47
 10
-17.455843
 20
85.337095
 11
-16.819438
 21
84.700705
  0
LINE
  8
型材断面
  6
CONTINUOUS
 62
    47
 10
-18.304378
 20
85.337095
 11
-17.455843
 21
85.337095
  0
LINE
  8
型材断面
  6
CONTINUOUS
 62
    47
 10
-38.810285
 20
72.326223
 11
-38.810285
 21
72.75049
  0
LINE
  8
型材断面
  6
CONTINUOUS
 62
    47
 10
-38.810285
 20
72.326223
 11
-38.386025
 21
72.326223
  0
LINE
  8
型材断面
  6
CONTINUOUS
 62
    47
 10
-35.062738
 20
69.002845
 11
-38.386025
 21
72.326223
  0
LINE
  8
型材断面
  6
CONTINUOUS
 62
    47
 10
-38.810285
 20
72.75049
 11
-42.133715
 21
76.074002
  0
LINE
  8
型材断面
  6
CONTINUOUS
 62
    47
 10
21.18955
 20
64.52515
 11
28.693952
 21
64.52515
  0
LINE
  8
型材断面
  6
CONTINUOUS
 62
    47
 10
30.193832
 20
50.5252
 11
30.193832
 21
55.52521
  0
LINE
  8
型材断面
  6
CONTINUOUS
 62
    47
 10
30.193832
 20
55.52521
 11
33.69391
 21
59.025108
  0
LINE
  8
型材断面
  6
CONTINUOUS
 62
    47
 10
33.69391
 20
60.52522
 11
33.69391
 21
59.025108
  0
LINE
  8
型材断面
  6
CONTINUOUS
 62
    47
 10
30.189543
 20
34.525158
 11
30.189543
 21
29.525163
  0
LINE
  8
型材断面
  6
CONTINUOUS
 62
    47
 10
30.189543
 20
34.525158
 11
27.96988
 21
34.525158
  0
LINE
  8
型材断面
  6
CONTINUOUS
 62
    47
 10
27.96985
 20
50.5252
 11
30.193832
 21
50.5252
  0
ARC
  8
型材断面
  6
CONTINUOUS
 62
    47
 10
42.689553
 20
24.525149
 40
2.2
 50
0.0
 51
180.0
  0
LINE
  8
型材断面
  6
CONTINUOUS
 62
    47
 10
43.689543
 20
63.378325
 11
43.689543
 21
64.525158
  0
LINE
  8
型材断面
  6
CONTINUOUS
 62
    47
 10
43.689543
 20
63.378325
 11
42.189543
 21
64.525158
  0
LINE
  8
型材断面
  6
CONTINUOUS
 62
    47
 10
43.689543
 20
20.525155
 11
43.689543
 21
21.671995
  0
LINE
  8
型材断面
  6
CONTINUOUS
 62
    47
 10
43.689543
 20
21.671995
 11
42.189543
 21
20.525155
  0
LINE
  8
型材断面
  6
CONTINUOUS
 62
    47
 10
43.689543
 20
20.525155
 11
50.189545
 21
20.525155
  0
LINE
  8
型材断面
  6
CONTINUOUS
 62
    47
 10
50.189545
 20
20.525155
 11
50.189545
 21
24.52516
  0
LINE
  8
型材断面
  6
CONTINUOUS
 62
    47
 10
44.889543
 20
24.52516
 11
50.189545
 21
24.52516
  0
LINE
  8
型材断面
  6
CONTINUOUS
 62
    47
 10
50.189545
 20
60.52516
 11
50.189545
 21
64.525158
  0
LINE
  8
型材断面
  6
CONTINUOUS
 62
    47
 10
43.689543
 20
64.525158
 11
50.189545
 21
64.525158
  0
ARC
  8
型材断面
  6
CONTINUOUS
 62
    47
 10
42.693962
 20
60.525141
 40
2.5
 50
210.705753
 51
329.293349
  0
LINE
  8
型材断面
  6
CONTINUOUS
 62
    47
 10
30.193832
 20
64.525158
 11
42.189543
 21
64.525158
  0
LINE
  8
型材断面
  6
CONTINUOUS
 62
    47
 10
33.69391
 20
60.52522
 11
40.544448
 21
60.52522
  0
LINE
  8
型材断面
  6
CONTINUOUS
 62
    47
 10
40.544448
 20
59.248577
 11
40.544448
 21
60.52522
  0
LINE
  8
型材断面
  6
CONTINUOUS
 62
    47
 10
44.843433
 20
59.248547
 11
44.843433
 21
60.52516
  0
LINE
  8
型材断面
  6
CONTINUOUS
 62
    47
 10
50.189545
 20
60.52516
 11
44.843433
 21
60.52516
  0
LINE
  8
型材断面
  6
CONTINUOUS
 62
    47
 10
30.189543
 20
29.525163
 11
33.69391
 21
26.020795
  0
LINE
  8
型材断面
  6
CONTINUOUS
 62
    47
 10
40.489547
 20
24.52516
 11
33.69391
 21
24.52516
  0
LINE
  8
型材断面
  6
CONTINUOUS
 62
    47
 10
33.69391
 20
26.020795
 11
33.69391
 21
24.52516
  0
LINE
  8
型材断面
  6
CONTINUOUS
 62
    47
 10
18.956627
 20
58.433635
 11
19.51705
 21
60.52516
  0
ARC
  8
型材断面
  6
CONTINUOUS
 62
    47
 10
17.990703
 20
58.692445
 40
1.0
 50
258.4746
 51
344.999996
  0
ARC
  8
型材断面
  6
CONTINUOUS
 62
    47
 10
17.990703
 20
26.357846
 40
1.0
 50
15.000004
 51
101.5254
  0
ARC
  8
型材断面
  6
CONTINUOUS
 62
    47
 10
14.693964
 20
42.525145
 40
15.500003
 50
78.4746
 51
281.5254
  0
LINE
  8
型材断面
  6
CONTINUOUS
 62
    47
 10
18.956627
 20
26.616677
 11
19.51705
 21
24.525145
  0
ARC
  8
型材断面
  6
CONTINUOUS
 62
    47
 10
23.191843
 20
26.417949
 40
0.75
 50
2.457576
 51
182.457232
  0
ARC
  8
型材断面
  6
CONTINUOUS
 62
    47
 10
25.796744
 20
29.02285
 40
0.75
 50
87.542364
 51
267.542397
  0
ARC
  8
型材断面
  6
CONTINUOUS
 62
    47
 10
25.689543
 20
26.52515
 40
1.75
 50
182.457615
 51
447.542407
  0
LINE
  8
型材断面
  6
CONTINUOUS
 62
    47
 10
22.252615
 20
24.525145
 11
19.51705
 21
24.525145
  0
ARC
  8
型材断面
  6
CONTINUOUS
 62
    47
 10
25.689543
 20
26.52515
 40
3.25
 50
182.457518
 51
203.578437
  0
ARC
  8
型材断面
  6
CONTINUOUS
 62
    47
 10
22.252618
 20
25.025134
 40
0.5
 50
270.000053
 51
383.578437
  0
ARC
  8
型材断面
  6
CONTINUOUS
 62
    47
 10
25.689543
 20
26.52515
 40
3.25
 50
66.421789
 51
87.542389
  0
ARC
  8
型材断面
  6
CONTINUOUS
 62
    47
 10
27.189545
 20
29.962081
 40
0.5
 50
-113.578211
 51
0.0
  0
LINE
  8
型材断面
  6
CONTINUOUS
 62
    47
 10
26.64064
 20
53.862123
 11
27.689545
 21
54.8575
  0
ARC
  8
型材断面
  6
CONTINUOUS
 62
    47
 10
14.693964
 20
42.525145
 40
15.500003
 50
31.072924
 51
40.025403
  0
ARC
  8
型材断面
  6
CONTINUOUS
 62
    47
 10
27.328996
 20
53.136745
 40
1.0
 50
133.500014
 51
220.025403
  0
ARC
  8
型材断面
  6
CONTINUOUS
 62
    47
 10
27.328996
 20
31.913547
 40
1.0
 50
139.974597
 51
226.499986
  0
ARC
  8
型材断面
  6
CONTINUOUS
 62
    47
 10
14.693964
 20
42.525145
 40
15.500003
 50
319.974601
 51
328.927076
  0
LINE
  8
型材断面
  6
CONTINUOUS
 62
    47
 10
26.64064
 20
31.188175
 11
27.689545
 21
30.192805
  0
LINE
  8
型材断面
  6
CONTINUOUS
 62
    47
 10
27.689545
 20
29.962097
 11
27.689545
 21
30.192805
  0
ARC
  8
型材断面
  6
CONTINUOUS
 62
    47
 10
23.191843
 20
58.632346
 40
0.75
 50
177.542768
 51
357.542424
  0
ARC
  8
型材断面
  6
CONTINUOUS
 62
    47
 10
25.796744
 20
56.027445
 40
0.75
 50
92.457603
 51
272.457636
  0
ARC
  8
型材断面
  6
CONTINUOUS
 62
    47
 10
25.689543
 20
58.525146
 40
1.75
 50
272.457593
 51
537.542385
  0
ARC
  8
型材断面
  6
CONTINUOUS
 62
    47
 10
25.689543
 20
58.525146
 40
3.25
 50
156.421563
 51
177.542482
  0
ARC
  8
型材断面
  6
CONTINUOUS
 62
    47
 10
22.252618
 20
60.025162
 40
0.5
 50
336.421563
 51
449.999947
  0
ARC
  8
型材断面
  6
CONTINUOUS
 62
    47
 10
25.689543
 20
58.525146
 40
3.25
 50
272.457611
 51
293.578211
  0
ARC
  8
型材断面
  6
CONTINUOUS
 62
    47
 10
27.189545
 20
55.088215
 40
0.5
 50
0.0
 51
113.578211
  0
LINE
  8
型材断面
  6
CONTINUOUS
 62
    47
 10
27.689545
 20
55.088207
 11
27.689545
 21
54.8575
  0
LINE
  8
型材断面
  6
CONTINUOUS
 62
    47
 10
19.51705
 20
60.52516
 11
22.252615
 21
60.52516
  0
LINE
  8
型材断面
  6
CONTINUOUS
 62
    47
 10
27.689545
 20
54.8575
 11
27.689545
 21
55.088222
  0
LINE
  8
型材断面
  6
CONTINUOUS
 62
    47
 10
21.18955
 20
64.52515
 11
-2.80604
 21
64.52515
  0
LINE
  8
型材断面
  6
CONTINUOUS
 62
    47
 10
42.189543
 20
20.525155
 11
-2.80604
 21
20.525132
  0
LINE
  8
型材断面
  6
CONTINUOUS
 62
    47
 10
28.693952
 20
64.52515
 11
28.693952
 21
69.525152
  0
LINE
  8
型材断面
  6
CONTINUOUS
 62
    47
 10
28.693952
 20
69.525152
 11
30.193952
 21
69.525152
  0
LINE
  8
型材断面
  6
CONTINUOUS
 62
    47
 10
30.193952
 20
64.52515
 11
30.193952
 21
69.525152
  0
LINE
  8
型材断面
  6
DOT
 62
    47
 10
14.693958
 20
42.525152
 11
18.956627
 21
58.433635
  0
LINE
  8
型材断面
  6
DOT
 62
    47
 10
14.693958
 20
42.525152
 11
26.64064
 21
53.862123
  0
LINE
  8
型材断面
  6
DOT
 62
    47
 10
14.693958
 20
42.525152
 11
18.956627
 21
26.61667
  0
LINE
  8
型材断面
  6
DOT
 62
    47
 10
14.693958
 20
42.525152
 11
26.64064
 21
31.188183
  0
LINE
  8
型材断面
  6
CONTINUOUS
 62
    47
 10
-14.910102
 20
45.825152
 11
-15.210102
 21
45.525152
  0
LINE
  8
型材断面
  6
CONTINUOUS
 62
    47
 10
-14.910102
 20
45.825152
 11
-14.610102
 21
45.525152
  0
LINE
  8
型材断面
  6
CONTINUOUS
 62
    47
 10
-16.5101
 20
45.525152
 11
-15.210102
 21
45.525152
  0
LINE
  8
型材断面
  6
CONTINUOUS
 62
    47
 10
-14.610102
 20
45.525152
 11
-13.310105
 21
45.525152
  0
ARC
  8
型材断面
  6
CONTINUOUS
 62
    47
 10
1.906217
 20
56.181154
 40
0.75
 50
27.542364
 51
207.542397
  0
ARC
  8
型材断面
  6
CONTINUOUS
 62
    47
 10
-0.310455
 20
55.025142
 40
1.75
 50
122.457615
 51
387.542407
  0
ARC
  8
型材断面
  6
CONTINUOUS
 62
    47
 10
-1.652144
 20
57.134614
 40
0.75
 50
302.457576
 51
482.984723
  0
ARC
  8
型材断面
  6
CONTINUOUS
 62
    47
 10
-0.310457
 20
55.025142
 40
3.25
 50
122.457757
 51
140.163011
  0
ARC
  8
型材断面
  6
CONTINUOUS
 62
    47
 10
1.906217
 20
28.869136
 40
0.75
 50
152.457603
 51
332.457636
  0
ARC
  8
型材断面
  6
CONTINUOUS
 62
    47
 10
-0.310455
 20
30.025148
 40
1.75
 50
332.457593
 51
597.542385
  0
ARC
  8
型材断面
  6
CONTINUOUS
 62
    47
 10
-1.652144
 20
27.915676
 40
0.75
 50
237.015277
 51
417.542424
  0
ARC
  8
型材断面
  6
CONTINUOUS
 62
    47
 10
-0.310457
 20
30.025147
 40
3.25
 50
219.836989
 51
237.542243
  0
LINE
  8
型材断面
  6
DASHDOT
 62
    47
 10
-0.31046
 20
30.025158
 11
1.533048
 21
23.145077
  0
LINE
  8
型材断面
  6
DASHDOT
 62
    47
 10
-0.31046
 20
55.025147
 11
1.533048
 21
61.905228
  0
LINE
  8
型材断面
  6
CONTINUOUS
 62
    47
 10
-7.980485
 20
86.751265
 11
-4.806042
 21
83.57689
  0
LINE
  8
型材断面
  6
CONTINUOUS
 62
    47
 10
-27.991572
 20
76.073822
 11
-27.072343
 21
75.15457
  0
LINE
  8
型材断面
  6
CONTINUOUS
 62
    47
 10
-32.306045
 20
45.525152
 11
-32.306045
 21
66.526937
  0
LINE
  8
型材断面
  6
CONTINUOUS
 62
    47
 10
-17.173002
 20
79.39747
 11
-24.244272
 21
72.326418
  0
LINE
  8
型材断面
  6
CONTINUOUS
 62
    47
 10
-7.980485
 20
86.751265
 11
-24.244302
 21
70.487942
  0
LINE
  8
型材断面
  6
CONTINUOUS
 62
    47
 10
-31.006048
 20
65.988452
 11
-25.37534
 21
71.61901
  0
LINE
  8
型材断面
  6
CONTINUOUS
 62
    47
 10
-24.244302
 20
70.487942
 11
-25.37534
 21
71.61901
  0
LINE
  8
型材断面
  6
CONTINUOUS
 62
    47
 10
-24.244272
 20
72.326418
 11
-25.37531
 21
73.457493
  0
LINE
  8
型材断面
  6
CONTINUOUS
 62
    47
 10
-31.006048
 20
65.988452
 11
-31.006048
 21
46.82515
  0
LINE
  8
型材断面
  6
CONTINUOUS
 62
    47
 10
-4.806042
 20
83.57689
 11
-4.806042
 21
46.82515
  0
LINE
  8
型材断面
  6
CONTINUOUS
 62
    47
 10
-2.80604
 20
27.943188
 11
-2.80604
 21
21.82513
  0
ARC
  8
型材断面
  6
CONTINUOUS
 62
    47
 10
-0.310455
 20
30.025148
 40
3.25
 50
332.457611
 51
359.006122
  0
LINE
  8
型材断面
  6
CONTINUOUS
 62
    47
 10
-2.80604
 20
57.107117
 11
-2.80604
 21
63.225152
  0
ARC
  8
型材断面
  6
CONTINUOUS
 62
    47
 10
-0.310455
 20
55.025142
 40
3.25
 50
0.993878
 51
27.542389
  0
ARC
  8
型材断面
  6
CONTINUOUS
 62
    47
 10
14.693964
 20
42.525145
 40
17.200009
 50
226.888167
 51
271.665796
  0
LINE
  8
型材断面
  6
CONTINUOUS
 62
    47
 10
15.193952
 20
25.332415
 11
15.193952
 21
21.825145
  0
LINE
  8
型材断面
  6
CONTINUOUS
 62
    47
 10
-2.80604
 20
21.82513
 11
15.193952
 21
21.825145
  0
LINE
  8
型材断面
  6
CONTINUOUS
 62
    47
 10
-2.80604
 20
63.225152
 11
15.193952
 21
63.225152
  0
ARC
  8
型材断面
  6
CONTINUOUS
 62
    47
 10
14.693964
 20
42.525145
 40
17.200009
 50
88.334204
 51
133.111833
  0
LINE
  8
型材断面
  6
CONTINUOUS
 62
    47
 10
15.193952
 20
59.71789
 11
15.193952
 21
63.225152
  0
LINE
  8
型材断面
  6
CONTINUOUS
 62
    47
 10
-27.072343
 20
75.15457
 11
-27.991595
 21
74.23534
  0
LINE
  8
型材断面
  6
CONTINUOUS
 62
    47
 10
-27.991595
 20
74.23534
 11
-26.294563
 21
72.538263
  0
LINE
  8
型材断面
  6
CONTINUOUS
 62
    47
 10
-25.37531
 20
73.457493
 11
-26.294563
 21
72.538263
  0
LINE
  8
型材断面
  6
CONTINUOUS
 62
    47
 10
-34.002102
 20
67.235065
 11
-32.729307
 21
68.507807
  0
LINE
  8
型材断面
  6
CONTINUOUS
 62
    47
 10
-32.729307
 20
68.507807
 11
-31.527253
 21
67.305715
  0
LINE
  8
型材断面
  6
CONTINUOUS
 62
    47
 10
-32.306045
 20
66.526937
 11
-31.527253
 21
67.305715
  0
LINE
  8
型材断面
  6
CONTINUOUS
 62
    47
 10
-16.910105
 20
47.325152
 11
-17.4101
 21
46.82515
  0
LINE
  8
型材断面
  6
CONTINUOUS
 62
    47
 10
-16.910105
 20
47.325152
 11
-12.9101
 21
47.325152
  0
LINE
  8
型材断面
  6
CONTINUOUS
 62
    47
 10
-12.410105
 20
46.82515
 11
-12.9101
 21
47.325152
  0
LINE
  8
型材断面
  6
CONTINUOUS
 62
    47
 10
-31.006048
 20
46.82515
 11
-17.4101
 21
46.82515
  0
LINE
  8
型材断面
  6
CONTINUOUS
 62
    47
 10
-12.410105
 20
46.82515
 11
-4.806042
 21
46.82515
  0
LINE
  8
型材断面
  6
CONTINUOUS
 62
    47
 10
25.93954
 20
58.525158
 11
25.439538
 21
58.525158
  0
LINE
  8
型材断面
  6
CONTINUOUS
 62
    47
 10
25.689535
 20
58.775155
 11
25.689535
 21
58.275152
  0
LINE
  8
型材断面
  6
CONTINUOUS
 62
    47
 10
25.93954
 20
26.525155
 11
25.439538
 21
26.525155
  0
LINE
  8
型材断面
  6
CONTINUOUS
 62
    47
 10
25.689535
 20
26.77516
 11
25.689535
 21
26.275158
  0
LINE
  8
型材断面
  6
CONTINUOUS
 62
    47
 10
-0.060462
 20
55.025147
 11
-0.560465
 21
55.025147
  0
LINE
  8
型材断面
  6
CONTINUOUS
 62
    47
 10
-0.31046
 20
55.275152
 11
-0.31046
 21
54.77515
  0
LINE
  8
型材断面
  6
CONTINUOUS
 62
    47
 10
-0.060462
 20
30.025158
 11
-0.560465
 21
30.025158
  0
LINE
  8
型材断面
  6
CONTINUOUS
 62
    47
 10
-0.31046
 20
29.775152
 11
-0.31046
 21
30.275155
  0
ENDBLK
  0
BLOCK
  2
*GRP_0051
 70
    65
 10
0.0
 20
0.0
  0
LINE
  8
型材断面
  6
DOT
 10
-31.206095
 20
-111.276005
 11
-32.706095
 21
-111.276005
  0
LINE
  8
型材断面
  6
DOT
 10
-31.206095
 20
-103.276002
 11
-32.706095
 21
-103.276002
  0
LINE
  8
型材断面
  6
DOT
 10
-32.331095
 20
-103.276002
 11
-32.331095
 21
-111.276005
  0
LINE
  8
型材断面
  6
DOT
 10
-31.956095
 20
-103.276002
 11
-31.956095
 21
-111.276005
  0
LINE
  8
型材断面
  6
DOT
 10
-31.581095
 20
-103.276002
 11
-31.581095
 21
-111.276005
  0
ENDBLK
  0
BLOCK
  2
*GRP_0052
 70
    65
 10
0.0
 20
0.0
  0
LINE
  8
型材断面
  6
DOT
 10
-2.806048
 20
72.52516
 11
-4.806042
 21
72.52516
  0
LINE
  8
型材断面
  6
DOT
 10
-2.806048
 20
64.525158
 11
-4.806042
 21
64.525158
  0
LINE
  8
型材断面
  6
DOT
 10
-3.206038
 20
64.525158
 11
-3.206038
 21
72.52516
  0
LINE
  8
型材断面
  6
DOT
 10
-3.606042
 20
64.525158
 11
-3.606042
 21
72.52516
  0
LINE
  8
型材断面
  6
DOT
 10
-4.00604
 20
64.525158
 11
-4.00604
 21
72.52516
  0
LINE
  8
型材断面
  6
DOT
 10
-4.406045
 20
64.525158
 11
-4.406045
 21
72.52516
  0
ENDBLK
  0
BLOCK
  2
*GRP_0053
 70
    65
 10
0.0
 20
0.0
  0
LINE
  8
型材断面
  6
DOT
 10
-32.306045
 20
46.825158
 11
-31.00604
 21
46.825158
  0
LINE
  8
型材断面
  6
DOT
 10
-32.306045
 20
54.82516
 11
-31.00604
 21
54.82516
  0
LINE
  8
型材断面
  6
DOT
 10
-31.981048
 20
46.825158
 11
-31.981048
 21
54.82516
  0
LINE
  8
型材断面
  6
DOT
 10
-31.656042
 20
46.825158
 11
-31.656042
 21
54.82516
  0
LINE
  8
型材断面
  6
DOT
 10
-31.331045
 20
46.825158
 11
-31.331045
 21
54.82516
  0
ENDBLK
  0
BLOCK
  2
*GRP_0054
 70
    65
 10
0.0
 20
0.0
  0
LINE
  8
型材断面
  6
DOT
 10
-24.244265
 20
72.326433
 11
-23.325035
 21
71.407172
  0
LINE
  8
型材断面
  6
DOT
 10
-18.587308
 20
77.983187
 11
-17.6681
 21
77.063942
  0
LINE
  8
型材断面
  6
DOT
 10
-24.014458
 20
72.096617
 11
-18.357515
 21
77.753387
  0
LINE
  8
型材断面
  6
DOT
 10
-23.784657
 20
71.86681
 11
-18.127715
 21
77.52358
  0
LINE
  8
型材断面
  6
DOT
 10
-23.554842
 20
71.636988
 11
-17.897908
 21
77.293757
  0
ENDBLK
  0
BLOCK
  2
*GRP_0055
 70
    65
 10
0.0
 20
0.0
  0
LINE
  8
型材断面
  6
CONTINUOUS
 62
    47
 10
-55.310345
 20
85.080835
 11
-54.610347
 21
85.080782
  0
LINE
  8
型材断面
  6
CONTINUOUS
 62
    47
 10
-54.610347
 20
84.080838
 11
-54.610347
 21
85.080782
  0
LINE
  8
型材断面
  6
CONTINUOUS
 62
    47
 10
-52.310345
 20
84.080785
 11
-54.610347
 21
84.080838
  0
LINE
  8
型材断面
  6
CONTINUOUS
 62
    47
 10
-57.010385
 20
88.880792
 11
-57.310333
 21
89.180785
  0
LINE
  8
型材断面
  6
CONTINUOUS
 62
    47
 10
-57.010385
 20
88.880792
 11
-57.31034
 21
88.580838
  0
ARC
  8
型材断面
  6
CONTINUOUS
 62
    47
 10
-56.81041
 20
92.380757
 40
0.5
 50
90.000009
 51
180.000009
  0
LINE
  8
型材断面
  6
CONTINUOUS
 62
    47
 10
-56.810337
 20
92.88067
 11
-55.81034
 21
92.880723
  0
ARC
  8
型材断面
  6
CONTINUOUS
 62
    47
 10
-55.81041
 20
92.380757
 40
0.5
 50
0.000009
 51
90.000009
  0
LINE
  8
型材断面
  6
CONTINUOUS
 62
    47
 10
-57.310333
 20
89.180785
 11
-57.310333
 21
92.38078
  0
LINE
  8
型材断面
  6
CONTINUOUS
 62
    47
 10
-55.310345
 20
85.080835
 11
-55.310337
 21
92.38078
  0
LINE
  8
型材断面
  6
CONTINUOUS
 62
    47
 10
-57.31034
 20
88.580838
 11
-57.310347
 21
82.580897
  0
LINE
  8
型材断面
  6
CONTINUOUS
 62
    47
 10
-59.810473
 20
82.580965
 11
-57.310347
 21
82.580897
  0
ARC
  8
型材断面
  6
CONTINUOUS
 62
    47
 10
-51.810328
 20
92.380979
 40
0.5
 50
90.0
 51
179.999951
  0
LINE
  8
型材断面
  6
CONTINUOUS
 62
    47
 10
-50.310335
 20
90.880795
 11
-50.810345
 21
91.380805
  0
LINE
  8
型材断面
  6
CONTINUOUS
 62
    47
 10
-50.310335
 20
86.88079
 11
-50.810345
 21
86.38078
  0
LINE
  8
型材断面
  6
CONTINUOUS
 62
    47
 10
-50.310335
 20
90.880795
 11
-50.310343
 21
86.880782
  0
LINE
  8
型材断面
  6
CONTINUOUS
 62
    47
 10
-51.810335
 20
92.880985
 11
-51.310347
 21
92.880985
  0
LINE
  8
型材断面
  6
CONTINUOUS
 62
    47
 10
-50.810345
 20
91.380805
 11
-50.810345
 21
92.380983
  0
ARC
  8
型材断面
  6
CONTINUOUS
 62
    47
 10
-51.310333
 20
92.380979
 40
0.5
 50
0.0
 51
90.0
  0
LINE
  8
型材断面
  6
CONTINUOUS
 62
    47
 10
-56.110347
 20
82.880868
 11
-56.110347
 21
81.380868
  0
LINE
  8
型材断面
  6
CONTINUOUS
 62
    47
 10
-56.110347
 20
81.380868
 11
-58.310502
 21
81.380927
  0
LINE
  8
型材断面
  6
CONTINUOUS
 62
    47
 10
-50.810345
 20
86.38078
 11
-50.810345
 21
84.080747
  0
LINE
  8
型材断面
  6
CONTINUOUS
 62
    47
 10
-48.5105
 20
73.78066
 11
-58.310502
 21
73.78093
  0
LINE
  8
型材断面
  6
CONTINUOUS
 62
    47
 10
-58.310502
 20
81.380927
 11
-58.310502
 21
73.78093
  0
LINE
  8
型材断面
  6
CONTINUOUS
 62
    47
 10
-21.810605
 20
21.080965
 11
-21.810605
 21
23.58097
  0
ARC
  8
型材断面
  6
CONTINUOUS
 62
    47
 10
-19.310602
 20
16.180965
 40
0.5
 50
270.0
 51
360.0
  0
LINE
  8
型材断面
  6
CONTINUOUS
 62
    47
 10
-18.810605
 20
16.180968
 11
-18.810605
 21
16.68097
  0
ARC
  8
型材断面
  6
CONTINUOUS
 62
    47
 10
-19.310602
 20
16.680965
 40
0.5
 50
0.0
 51
90.0
  0
LINE
  8
型材断面
  6
CONTINUOUS
 62
    47
 10
-21.810605
 20
16.180968
 11
-21.810605
 21
19.580965
  0
LINE
  8
型材断面
  6
CONTINUOUS
 62
    47
 10
-21.31061
 20
15.680965
 11
-19.310607
 21
15.680965
  0
ARC
  8
型材断面
  6
CONTINUOUS
 62
    47
 10
-21.310602
 20
16.180965
 40
0.5
 50
180.0
 51
270.0
  0
LINE
  8
型材断面
  6
CONTINUOUS
 62
    47
 10
-19.310607
 20
17.180965
 11
-20.310605
 21
17.180965
  0
LINE
  8
型材断面
  6
CONTINUOUS
 62
    47
 10
-21.810605
 20
21.080965
 11
-24.31061
 21
21.080965
  0
LINE
  8
型材断面
  6
CONTINUOUS
 62
    47
 10
-24.31061
 20
21.080965
 11
-24.31061
 21
19.580965
  0
LINE
  8
型材断面
  6
CONTINUOUS
 62
    47
 10
-21.810605
 20
19.580965
 11
-24.31061
 21
19.580965
  0
LINE
  8
型材断面
  6
CONTINUOUS
 62
    47
 10
-55.810498
 20
72.58093
 11
-55.810498
 21
71.080855
  0
LINE
  8
型材断面
  6
CONTINUOUS
 62
    47
 10
-55.810498
 20
71.080855
 11
-54.8105
 21
71.080833
  0
LINE
  8
型材断面
  6
CONTINUOUS
 62
    47
 10
-54.8105
 20
72.58093
 11
-54.8105
 21
71.080833
  0
LINE
  8
型材断面
  6
CONTINUOUS
 62
    47
 10
-58.310502
 20
72.58093
 11
-55.810498
 21
72.580855
  0
LINE
  8
型材断面
  6
CONTINUOUS
 62
    47
 10
-52.01048
 20
88.880792
 11
-52.310427
 21
89.180785
  0
LINE
  8
型材断面
  6
CONTINUOUS
 62
    47
 10
-52.01048
 20
88.880792
 11
-52.310435
 21
88.580838
  0
LINE
  8
型材断面
  6
CONTINUOUS
 62
    47
 10
-52.310337
 20
92.380983
 11
-52.310337
 21
89.180695
  0
LINE
  8
型材断面
  6
CONTINUOUS
 62
    47
 10
-52.310337
 20
88.580927
 11
-52.310345
 21
84.080785
  0
LINE
  8
型材断面
  6
CONTINUOUS
 62
    47
 10
-41.426667
 20
65.46739
 11
-43.54799
 21
64.053175
  0
LINE
  8
型材断面
  6
CONTINUOUS
 62
    47
 10
-47.08352
 20
67.588712
 11
-45.669327
 21
69.709997
  0
LINE
  8
型材断面
  6
CONTINUOUS
 62
    47
 10
-44.379717
 20
62.056473
 11
-41.57957
 21
63.923237
  0
LINE
  8
型材断面
  6
CONTINUOUS
 62
    47
 10
-41.57957
 20
63.923237
 11
-40.86098
 21
63.204647
  0
LINE
  8
型材断面
  6
CONTINUOUS
 62
    47
 10
-40.86098
 20
63.204647
 11
-40.012453
 21
64.053175
  0
LINE
  8
型材断面
  6
CONTINUOUS
 62
    47
 10
-41.426667
 20
65.46739
 11
-40.012453
 21
64.053175
  0
LINE
  8
型材断面
  6
CONTINUOUS
 62
    47
 10
-44.379717
 20
62.056473
 11
-49.080223
 21
66.756985
  0
LINE
  8
型材断面
  6
CONTINUOUS
 62
    47
 10
-49.080223
 20
66.756985
 11
-47.383183
 21
69.302552
  0
LINE
  8
型材断面
  6
CONTINUOUS
 62
    47
 10
-45.527892
 20
65.60881
 11
-45.527892
 21
66.033078
  0
LINE
  8
型材断面
  6
CONTINUOUS
 62
    47
 10
-45.527892
 20
65.60881
 11
-45.103625
 21
65.60881
  0
LINE
  8
型材断面
  6
CONTINUOUS
 62
    47
 10
-47.08352
 20
67.588712
 11
-45.527892
 21
66.033078
  0
LINE
  8
型材断面
  6
CONTINUOUS
 62
    47
 10
-45.103625
 20
65.60881
 11
-43.54799
 21
64.053175
  0
LINE
  8
型材断面
  6
CONTINUOUS
 62
    47
 10
-45.669327
 20
69.709997
 11
-47.3105
 21
71.351223
  0
LINE
  8
型材断面
  6
CONTINUOUS
 62
    47
 10
-47.383183
 20
69.302552
 11
-48.8105
 21
70.729923
  0
LINE
  8
型材断面
  6
CONTINUOUS
 62
    47
 10
-48.8105
 20
70.729923
 11
-48.8105
 21
72.580667
  0
LINE
  8
型材断面
  6
CONTINUOUS
 62
    47
 10
-54.8105
 20
72.580833
 11
-48.8105
 21
72.580667
  0
LINE
  8
型材断面
  6
CONTINUOUS
 62
    47
 10
-56.110347
 20
82.880868
 11
-50.63765
 21
82.880755
  0
LINE
  8
型材断面
  6
CONTINUOUS
 62
    47
 10
-50.810345
 20
84.080747
 11
-50.14058
 21
84.080732
  0
LINE
  8
型材断面
  6
CONTINUOUS
 62
    47
 10
-50.63765
 20
82.880755
 11
-48.5105
 21
80.753598
  0
LINE
  8
型材断面
  6
CONTINUOUS
 62
    47
 10
-48.5105
 20
73.78066
 11
-48.5105
 21
80.753598
  0
LINE
  8
型材断面
  6
CONTINUOUS
 62
    47
 10
-47.3105
 20
71.351223
 11
-47.3105
 21
80.122585
  0
LINE
  8
型材断面
  6
CONTINUOUS
 62
    47
 10
-47.3105
 20
80.122585
 11
-46.746462
 21
80.686622
  0
LINE
  8
型材断面
  6
CONTINUOUS
 62
    47
 10
-50.14058
 20
84.080732
 11
-46.746462
 21
80.686622
  0
LINE
  8
型材断面
  6
CONTINUOUS
 62
    47
 10
-14.610605
 20
32.980968
 11
-14.910605
 21
33.280968
  0
LINE
  8
型材断面
  6
CONTINUOUS
 62
    47
 10
-14.910605
 20
33.280968
 11
-15.210605
 21
32.980968
  0
LINE
  8
型材断面
  6
CONTINUOUS
 62
    47
 10
-11.41061
 20
34.480968
 11
-11.41061
 21
32.980968
  0
LINE
  8
型材断面
  6
CONTINUOUS
 62
    47
 10
-14.610605
 20
32.980968
 11
-11.41061
 21
32.980968
  0
LINE
  8
型材断面
  6
CONTINUOUS
 62
    47
 10
-25.310607
 20
32.480965
 11
-25.310607
 21
35.480965
  0
LINE
  8
型材断面
  6
CONTINUOUS
 62
    47
 10
-24.31061
 20
33.980965
 11
-24.31061
 21
32.480965
  0
LINE
  8
型材断面
  6
CONTINUOUS
 62
    47
 10
-25.310607
 20
32.480965
 11
-24.31061
 21
32.480965
  0
LINE
  8
型材断面
  6
CONTINUOUS
 62
    47
 10
-20.310605
 20
17.180965
 11
-20.310605
 21
32.980968
  0
LINE
  8
型材断面
  6
CONTINUOUS
 62
    47
 10
-15.210605
 20
32.980968
 11
-20.310605
 21
32.980968
  0
LINE
  8
型材断面
  6
CONTINUOUS
 62
    47
 10
-21.810605
 20
25.08097
 11
-21.810605
 21
33.980965
  0
LINE
  8
型材断面
  6
CONTINUOUS
 62
    47
 10
-24.31061
 20
33.980965
 11
-21.810605
 21
33.980965
  0
LINE
  8
型材断面
  6
CONTINUOUS
 62
    47
 10
-11.41061
 20
34.480968
 11
-20.610605
 21
34.480968
  0
LINE
  8
型材断面
  6
CONTINUOUS
 62
    47
 10
-20.610605
 20
34.480968
 11
-20.610605
 21
35.480965
  0
LINE
  8
型材断面
  6
CONTINUOUS
 62
    47
 10
-25.310607
 20
35.480965
 11
-20.610605
 21
35.480965
  0
LINE
  8
型材断面
  6
CONTINUOUS
 62
    47
 10
-59.810502
 20
82.580965
 11
-59.810502
 21
23.58097
  0
LINE
  8
型材断面
  6
CONTINUOUS
 62
    47
 10
-42.810508
 20
23.58097
 11
-59.810502
 21
23.58097
  0
LINE
  8
型材断面
  6
CONTINUOUS
 62
    47
 10
-58.310502
 20
72.58093
 11
-58.310502
 21
25.08097
  0
LINE
  8
型材断面
  6
CONTINUOUS
 62
    47
 10
-21.810605
 20
25.08097
 11
-58.310502
 21
25.08097
  0
LINE
  8
型材断面
  6
CONTINUOUS
 62
    47
 10
-40.810505
 20
9.580968
 11
-42.810508
 21
9.580968
  0
LINE
  8
型材断面
  6
CONTINUOUS
 62
    47
 10
-42.810508
 20
23.58097
 11
-42.810508
 21
9.580968
  0
LINE
  8
型材断面
  6
CONTINUOUS
 62
    47
 10
-40.810505
 20
9.580968
 11
-40.810505
 21
23.58097
  0
LINE
  8
型材断面
  6
CONTINUOUS
 62
    47
 10
-21.810605
 20
23.58097
 11
-40.810505
 21
23.58097
  0
ENDBLK
  0
BLOCK
  2
*GRP_0056
 70
    65
 10
0.0
 20
0.0
  0
LINE
  8
型材断面
  6
DOT
 10
-58.310495
 20
25.08097
 11
-59.810495
 21
25.08097
  0
LINE
  8
型材断面
  6
DOT
 10
-58.310495
 20
33.080972
 11
-59.810495
 21
33.080972
  0
LINE
  8
型材断面
  6
DOT
 10
-59.435495
 20
33.080972
 11
-59.435495
 21
25.08097
  0
LINE
  8
型材断面
  6
DOT
 10
-59.060495
 20
33.080972
 11
-59.060495
 21
25.08097
  0
LINE
  8
型材断面
  6
DOT
 10
-58.685495
 20
33.080972
 11
-58.685495
 21
25.08097
  0
ENDBLK
  0
BLOCK
  2
*GRP_0057
 70
    65
 10
0.0
 20
0.0
  0
ARC
  8
型材断面
  6
CONTINUOUS
 62
    47
 10
34.243965
 20
-59.025961
 40
0.3
 50
90.0
 51
180.0
  0
LINE
  8
型材断面
  6
CONTINUOUS
 62
    47
 10
33.94396
 20
-59.025958
 11
33.94396
 21
-60.42596
  0
LINE
  8
型材断面
  6
CONTINUOUS
 62
    47
 10
34.24396
 20
-60.72596
 11
51.443965
 21
-60.72596
  0
ARC
  8
型材断面
  6
CONTINUOUS
 62
    47
 10
34.243965
 20
-60.425961
 40
0.3
 50
180.0
 51
270.0
  0
ARC
  8
型材断面
  6
CONTINUOUS
 62
    47
 10
51.443965
 20
-13.225961
 40
1.0
 50
0.0
 51
90.0
  0
ARC
  8
型材断面
  6
CONTINUOUS
 62
    47
 10
34.243965
 20
-13.925961
 40
0.3
 50
180.0
 51
270.0
  0
LINE
  8
型材断面
  6
CONTINUOUS
 62
    47
 10
33.94396
 20
-13.92596
 11
33.94396
 21
-12.525958
  0
LINE
  8
型材断面
  6
CONTINUOUS
 62
    47
 10
34.24396
 20
-12.225958
 11
51.443965
 21
-12.225958
  0
ARC
  8
型材断面
  6
CONTINUOUS
 62
    47
 10
34.243965
 20
-12.525961
 40
0.3
 50
90.0
 51
180.0
  0
LINE
  8
型材断面
  6
CONTINUOUS
 62
    47
 10
50.44396
 20
-58.725958
 11
50.44396
 21
-14.22596
  0
LINE
  8
型材断面
  6
CONTINUOUS
 62
    47
 10
52.443963
 20
-59.725962
 11
52.443963
 21
-13.225962
  0
ARC
  8
型材断面
  6
CONTINUOUS
 62
    47
 10
51.443965
 20
-59.725961
 40
1.0
 50
270.0
 51
360.0
  0
LINE
  8
型材断面
  6
CONTINUOUS
 62
    47
 10
43.443963
 20
-58.725958
 11
50.44396
 21
-58.725958
  0
LINE
  8
型材断面
  6
CONTINUOUS
 62
    47
 10
43.443963
 20
-58.02596
 11
43.443963
 21
-58.725958
  0
ARC
  8
型材断面
  6
CONTINUOUS
 62
    47
 10
43.243965
 20
-58.025961
 40
0.2
 50
0.0
 51
126.085808
  0
LINE
  8
型材断面
  6
CONTINUOUS
 62
    47
 10
43.126165
 20
-57.864335
 11
41.943963
 21
-58.725958
  0
LINE
  8
型材断面
  6
CONTINUOUS
 62
    47
 10
34.24396
 20
-58.725958
 11
41.943963
 21
-58.725958
  0
ARC
  8
型材断面
  6
CONTINUOUS
 62
    47
 10
43.243965
 20
-14.925961
 40
0.2
 50
233.914192
 51
360.0
  0
LINE
  8
型材断面
  6
CONTINUOUS
 62
    47
 10
43.443963
 20
-14.22596
 11
50.44396
 21
-14.22596
  0
LINE
  8
型材断面
  6
CONTINUOUS
 62
    47
 10
43.443963
 20
-14.925958
 11
43.443963
 21
-14.22596
  0
LINE
  8
型材断面
  6
CONTINUOUS
 62
    47
 10
43.126165
 20
-15.08759
 11
41.943963
 21
-14.22596
  0
LINE
  8
型材断面
  6
CONTINUOUS
 62
    47
 10
34.24396
 20
-14.22596
 11
41.943963
 21
-14.22596
  0
ENDBLK
  0
BLOCK
  2
*GRP_0058
 70
    65
 10
0.0
 20
0.0
  0
ARC
  8
型材断面
  6
CONTINUOUS
 62
    47
 10
34.243965
 20
19.975492
 40
0.3
 50
90.0
 51
180.0
  0
LINE
  8
型材断面
  6
CONTINUOUS
 62
    47
 10
33.94396
 20
19.975495
 11
33.94396
 21
18.575492
  0
LINE
  8
型材断面
  6
CONTINUOUS
 62
    47
 10
34.24396
 20
18.275492
 11
51.443965
 21
18.275492
  0
ARC
  8
型材断面
  6
CONTINUOUS
 62
    47
 10
34.243965
 20
18.575492
 40
0.3
 50
180.0
 51
270.0
  0
ARC
  8
型材断面
  6
CONTINUOUS
 62
    47
 10
51.443965
 20
65.775492
 40
1.0
 50
0.0
 51
90.0
  0
ARC
  8
型材断面
  6
CONTINUOUS
 62
    47
 10
34.243965
 20
65.075492
 40
0.3
 50
180.0
 51
270.0
  0
LINE
  8
型材断面
  6
CONTINUOUS
 62
    47
 10
33.94396
 20
65.075492
 11
33.94396
 21
66.475495
  0
LINE
  8
型材断面
  6
CONTINUOUS
 62
    47
 10
34.24396
 20
66.775495
 11
51.443965
 21
66.775495
  0
ARC
  8
型材断面
  6
CONTINUOUS
 62
    47
 10
34.243965
 20
66.475492
 40
0.3
 50
90.0
 51
180.0
  0
LINE
  8
型材断面
  6
CONTINUOUS
 62
    47
 10
50.44396
 20
20.275495
 11
50.44396
 21
64.775492
  0
LINE
  8
型材断面
  6
CONTINUOUS
 62
    47
 10
52.443963
 20
19.27549
 11
52.443963
 21
65.77549
  0
ARC
  8
型材断面
  6
CONTINUOUS
 62
    47
 10
51.443965
 20
19.275492
 40
1.0
 50
270.0
 51
360.0
  0
LINE
  8
型材断面
  6
CONTINUOUS
 62
    47
 10
43.443963
 20
20.275495
 11
50.44396
 21
20.275495
  0
LINE
  8
型材断面
  6
CONTINUOUS
 62
    47
 10
43.443963
 20
20.975492
 11
43.443963
 21
20.275495
  0
ARC
  8
型材断面
  6
CONTINUOUS
 62
    47
 10
43.243965
 20
20.975492
 40
0.2
 50
0.0
 51
126.085808
  0
LINE
  8
型材断面
  6
CONTINUOUS
 62
    47
 10
43.126165
 20
21.137118
 11
41.943963
 21
20.275495
  0
LINE
  8
型材断面
  6
CONTINUOUS
 62
    47
 10
34.24396
 20
20.275495
 11
41.943963
 21
20.275495
  0
ARC
  8
型材断面
  6
CONTINUOUS
 62
    47
 10
43.243965
 20
64.075492
 40
0.2
 50
233.914192
 51
360.0
  0
LINE
  8
型材断面
  6
CONTINUOUS
 62
    47
 10
43.443963
 20
64.775492
 11
50.44396
 21
64.775492
  0
LINE
  8
型材断面
  6
CONTINUOUS
 62
    47
 10
43.443963
 20
64.075495
 11
43.443963
 21
64.775492
  0
LINE
  8
型材断面
  6
CONTINUOUS
 62
    47
 10
43.126165
 20
63.913862
 11
41.943963
 21
64.775492
  0
LINE
  8
型材断面
  6
CONTINUOUS
 62
    47
 10
34.24396
 20
64.775492
 11
41.943963
 21
64.775492
  0
ENDBLK
  0
BLOCK
  2
*GRP_0059
 70
    65
 10
0.0
 20
0.0
  0
SPLINE
  5
1400000
100
AcDbEntity
  8
ガラス
100
AcDbSpline
  6
CONTINUOUS
 70
     0
 71
     3
 74
     3
 44
0.0
 11
-63.853565
 21
23.788367
 11
-62.906653
 21
25.342825
 11
-61.328007
 21
25.917677
  0
SPLINE
  5
1400001
100
AcDbEntity
  8
ガラス
100
AcDbSpline
  6
CONTINUOUS
 70
     0
 71
     3
 74
     3
 44
0.0
 11
-61.328007
 21
25.917677
 11
-61.779432
 21
24.678528
 11
-61.957055
 21
23.559445
  0
ARC
  8
ガラス
  6
CONTINUOUS
 10
-62.905306
 20
23.673905
 40
0.955135
 50
173.117443
 51
353.117443
  0
ENDBLK
  0
BLOCK
  2
*GRP_0060
 70
    65
 10
0.0
 20
0.0
  0
SPLINE
  5
1400002
100
AcDbEntity
  8
ガラス
100
AcDbSpline
  6
CONTINUOUS
 70
     0
 71
     3
 74
     3
 44
0.0
 11
-65.770078
 21
11.271122
 11
-64.823165
 21
12.82558
 11
-63.24452
 21
13.400432
  0
SPLINE
  5
1400003
100
AcDbEntity
  8
ガラス
100
AcDbSpline
  6
CONTINUOUS
 70
     0
 71
     3
 74
     3
 44
0.0
 11
-63.24452
 21
13.400432
 11
-63.695945
 21
12.161283
 11
-63.873567
 21
11.0422
  0
ARC
  8
ガラス
  6
CONTINUOUS
 10
-64.821821
 20
11.156664
 40
0.955135
 50
173.117443
 51
353.117443
  0
ENDBLK
  0
BLOCK
  2
*GRP_0061
 70
    65
 10
0.0
 20
0.0
  0
SPLINE
  5
1400004
100
AcDbEntity
  8
ガラス
100
AcDbSpline
  6
CONTINUOUS
 70
     0
 71
     3
 74
     3
 44
0.0
 11
-35.82221
 21
46.070493
 11
-34.875298
 21
47.62495
 11
-33.29666
 21
48.19981
  0
SPLINE
  5
1400005
100
AcDbEntity
  8
ガラス
100
AcDbSpline
  6
CONTINUOUS
 70
     0
 71
     3
 74
     3
 44
0.0
 11
-33.29666
 21
48.19981
 11
-33.748078
 21
46.960652
 11
-33.925708
 21
45.841577
  0
ARC
  8
ガラス
  6
CONTINUOUS
 10
-34.873957
 20
45.956032
 40
0.955135
 50
173.117443
 51
353.117443
  0
ENDBLK
  0
BLOCK
  2
*GRP_0062
 70
    65
 10
0.0
 20
0.0
  0
SPLINE
  5
1400006
100
AcDbEntity
  8
ガラス
100
AcDbSpline
  6
CONTINUOUS
 70
     0
 71
     3
 74
     3
 44
0.0
 11
-40.036895
 21
27.324198
 11
-38.218077
 21
27.254298
 11
-36.947127
 21
26.15554
  0
SPLINE
  5
1400007
100
AcDbEntity
  8
ガラス
100
AcDbSpline
  6
CONTINUOUS
 70
     0
 71
     3
 74
     3
 44
0.0
 11
-36.947127
 21
26.15554
 11
-38.24924
 21
25.94626
 11
-39.313123
 21
25.556343
  0
ARC
  8
ガラス
  6
CONTINUOUS
 10
-39.675005
 20
26.440269
 40
0.955135
 50
112.264588
 51
292.264588
  0
ENDBLK
  0
BLOCK
  2
*GRP_0063
 70
    65
 10
0.0
 20
0.0
  0
SPLINE
  5
1400008
100
AcDbEntity
  8
ガラス
100
AcDbSpline
  6
CONTINUOUS
 70
     0
 71
     3
 74
     3
 44
0.0
 11
-52.456895
 21
27.324198
 11
-50.638077
 21
27.254298
 11
-49.367127
 21
26.15554
  0
SPLINE
  5
1400009
100
AcDbEntity
  8
ガラス
100
AcDbSpline
  6
CONTINUOUS
 70
     0
 71
     3
 74
     3
 44
0.0
 11
-49.367127
 21
26.15554
 11
-50.66924
 21
25.94626
 11
-51.733122
 21
25.556343
  0
ARC
  8
ガラス
  6
CONTINUOUS
 10
-52.095005
 20
26.440269
 40
0.955135
 50
112.264588
 51
292.264588
  0
ENDBLK
  0
BLOCK
  2
*GRP_0064
 70
    65
 10
0.0
 20
0.0
  0
SPLINE
  5
1400010
100
AcDbEntity
  8
ガラス
100
AcDbSpline
  6
CONTINUOUS
 70
     0
 71
     3
 74
     3
 44
0.0
 11
-35.82221
 21
33.758492
 11
-34.875298
 21
35.31295
 11
-33.29666
 21
35.88781
  0
SPLINE
  5
1400011
100
AcDbEntity
  8
ガラス
100
AcDbSpline
  6
CONTINUOUS
 70
     0
 71
     3
 74
     3
 44
0.0
 11
-33.29666
 21
35.88781
 11
-33.748078
 21
34.648653
 11
-33.925708
 21
33.529578
  0
ARC
  8
ガラス
  6
CONTINUOUS
 10
-34.873957
 20
33.644032
 40
0.955135
 50
173.117443
 51
353.117443
  0
ENDBLK
  0
BLOCK
  2
*GRP_0065
 70
    65
 10
0.0
 20
0.0
  0
SPLINE
  5
1400012
100
AcDbEntity
  8
ガラス
100
AcDbSpline
  6
CONTINUOUS
 70
     0
 71
     3
 74
     3
 44
0.0
 11
-25.40321
 21
67.478492
 11
-24.456297
 21
69.03295
 11
-22.87766
 21
69.60781
  0
SPLINE
  5
1400013
100
AcDbEntity
  8
ガラス
100
AcDbSpline
  6
CONTINUOUS
 70
     0
 71
     3
 74
     3
 44
0.0
 11
-22.87766
 21
69.60781
 11
-23.329078
 21
68.368652
 11
-23.506707
 21
67.249577
  0
ARC
  8
ガラス
  6
CONTINUOUS
 10
-24.454957
 20
67.364032
 40
0.955135
 50
173.117443
 51
353.117443
  0
ENDBLK
  0
BLOCK
  2
*GRP_0066
 70
    65
 10
0.0
 20
0.0
  0
SPLINE
  5
1400014
100
AcDbEntity
  8
ガラス
100
AcDbSpline
  6
CONTINUOUS
 70
     0
 71
     3
 74
     3
 44
0.0
 11
-25.40321
 21
55.814493
 11
-24.456297
 21
57.36895
 11
-22.87766
 21
57.94381
  0
SPLINE
  5
1400015
100
AcDbEntity
  8
ガラス
100
AcDbSpline
  6
CONTINUOUS
 70
     0
 71
     3
 74
     3
 44
0.0
 11
-22.87766
 21
57.94381
 11
-23.329078
 21
56.704652
 11
-23.506707
 21
55.585577
  0
ARC
  8
ガラス
  6
CONTINUOUS
 10
-24.454957
 20
55.700032
 40
0.955135
 50
173.117443
 51
353.117443
  0
ENDBLK
  0
BLOCK
  2
*GRP_0067
 70
    65
 10
0.0
 20
0.0
  0
SPLINE
  5
1400016
100
AcDbEntity
  8
ガラス
100
AcDbSpline
  6
CONTINUOUS
 70
     0
 71
     3
 74
     3
 44
0.0
 11
-29.386032
 21
49.384728
 11
-27.567215
 21
49.314827
 11
-26.296265
 21
48.21607
  0
SPLINE
  5
1400017
100
AcDbEntity
  8
ガラス
100
AcDbSpline
  6
CONTINUOUS
 70
     0
 71
     3
 74
     3
 44
0.0
 11
-26.296265
 21
48.21607
 11
-27.598377
 21
48.00679
 11
-28.66226
 21
47.616872
  0
ARC
  8
ガラス
  6
CONTINUOUS
 10
-29.024141
 20
48.500798
 40
0.955135
 50
112.264588
 51
292.264588
  0
ENDBLK
  0
BLOCK
  2
*GRP_0068
 70
    65
 10
0.0
 20
0.0
  0
SPLINE
  5
1400018
100
AcDbEntity
  8
ガラス
100
AcDbSpline
  6
CONTINUOUS
 70
     0
 71
     3
 74
     3
 44
0.0
 11
-25.40321
 21
74.444492
 11
-24.456297
 21
75.99895
 11
-22.87766
 21
76.57381
  0
SPLINE
  5
1400019
100
AcDbEntity
  8
ガラス
100
AcDbSpline
  6
CONTINUOUS
 70
     0
 71
     3
 74
     3
 44
0.0
 11
-22.87766
 21
76.57381
 11
-23.329078
 21
75.334653
 11
-23.506707
 21
74.215577
  0
ARC
  8
ガラス
  6
CONTINUOUS
 10
-24.454957
 20
74.330032
 40
0.955135
 50
173.117443
 51
353.117443
  0
ENDBLK
  0
BLOCK
  2
*GRP_0069
 70
    65
 10
0.0
 20
0.0
  0
SPLINE
  5
1400020
100
AcDbEntity
  8
ガラス
100
AcDbSpline
  6
CONTINUOUS
 70
     0
 71
     3
 74
     3
 44
0.0
 11
-7.554995
 21
63.280645
 11
-6.608083
 21
64.835102
 11
-5.029445
 21
65.409963
  0
SPLINE
  5
1400021
100
AcDbEntity
  8
ガラス
100
AcDbSpline
  6
CONTINUOUS
 70
     0
 71
     3
 74
     3
 44
0.0
 11
-5.029445
 21
65.409963
 11
-5.480862
 21
64.170805
 11
-5.658493
 21
63.05173
  0
ARC
  8
ガラス
  6
CONTINUOUS
 10
-6.606743
 20
63.166191
 40
0.955135
 50
173.117443
 51
353.117443
  0
ENDBLK
  0
BLOCK
  2
*GRP_0070
 70
    65
 10
0.0
 20
0.0
  0
SPLINE
  5
1400022
100
AcDbEntity
  8
ガラス
100
AcDbSpline
  6
CONTINUOUS
 70
     0
 71
     3
 74
     3
 44
0.0
 11
-1.118818
 21
66.59488
 11
0.7
 21
66.52498
 11
1.97095
 21
65.426223
  0
SPLINE
  5
1400023
100
AcDbEntity
  8
ガラス
100
AcDbSpline
  6
CONTINUOUS
 70
     0
 71
     3
 74
     3
 44
0.0
 11
1.97095
 21
65.426223
 11
0.668837
 21
65.216943
 11
-0.395045
 21
64.827025
  0
ARC
  8
ガラス
  6
CONTINUOUS
 10
-0.756927
 20
65.710957
 40
0.955135
 50
112.264588
 51
292.264588
  0
ENDBLK
  0
BLOCK
  2
*GRP_0071
 70
    65
 10
0.0
 20
0.0
  0
SPLINE
  5
1400024
100
AcDbEntity
  8
ガラス
100
AcDbSpline
  6
CONTINUOUS
 70
     0
 71
     3
 74
     3
 44
0.0
 11
-7.554995
 21
52.393082
 11
-6.608083
 21
53.94754
 11
-5.029445
 21
54.5224
  0
SPLINE
  5
1400025
100
AcDbEntity
  8
ガラス
100
AcDbSpline
  6
CONTINUOUS
 70
     0
 71
     3
 74
     3
 44
0.0
 11
-5.029445
 21
54.5224
 11
-5.480862
 21
53.283243
 11
-5.658493
 21
52.164168
  0
ARC
  8
ガラス
  6
CONTINUOUS
 10
-6.606743
 20
52.278629
 40
0.955135
 50
173.117443
 51
353.117443
  0
ENDBLK
  0
BLOCK
  2
*GRP_0072
 70
    65
 10
0.0
 20
0.0
  0
SPLINE
  5
1400026
100
AcDbEntity
  8
ガラス
100
AcDbSpline
  6
CONTINUOUS
 70
     0
 71
     3
 74
     3
 44
0.0
 11
-14.482032
 21
49.384728
 11
-12.663215
 21
49.314827
 11
-11.392265
 21
48.21607
  0
SPLINE
  5
1400027
100
AcDbEntity
  8
ガラス
100
AcDbSpline
  6
CONTINUOUS
 70
     0
 71
     3
 74
     3
 44
0.0
 11
-11.392265
 21
48.21607
 11
-12.694377
 21
48.00679
 11
-13.75826
 21
47.616872
  0
ARC
  8
ガラス
  6
CONTINUOUS
 10
-14.120141
 20
48.500798
 40
0.955135
 50
112.264588
 51
292.264588
  0
ENDBLK
  0
BLOCK
  2
*GRP_0073
 70
    65
 10
0.0
 20
0.0
  0
SPLINE
  5
1400028
100
AcDbEntity
  8
ガラス
100
AcDbSpline
  6
CONTINUOUS
 70
     0
 71
     3
 74
     3
 44
0.0
 11
-35.764565
 21
-112.985038
 11
-34.817652
 21
-111.430573
 11
-33.239
 21
-110.85572
  0
SPLINE
  5
1400029
100
AcDbEntity
  8
ガラス
100
AcDbSpline
  6
CONTINUOUS
 70
     0
 71
     3
 74
     3
 44
0.0
 11
-33.239
 21
-110.85572
 11
-33.690425
 21
-112.094877
 11
-33.868062
 21
-113.213952
  0
ARC
  8
ガラス
  6
CONTINUOUS
 10
-34.816314
 20
-113.099487
 40
0.955135
 50
173.117442
 51
353.117442
  0
ENDBLK
  0
BLOCK
  2
*GRP_0074
 70
    65
 10
0.0
 20
0.0
  0
SPLINE
  5
1400030
100
AcDbEntity
  8
ガラス
100
AcDbSpline
  6
CONTINUOUS
 70
     0
 71
     3
 74
     3
 44
0.0
 11
-22.833553
 21
-108.580288
 11
-21.014735
 21
-108.650187
 11
-19.743793
 21
-109.748953
  0
SPLINE
  5
1400031
100
AcDbEntity
  8
ガラス
100
AcDbSpline
  6
CONTINUOUS
 70
     0
 71
     3
 74
     3
 44
0.0
 11
-19.743793
 21
-109.748953
 11
-21.045897
 21
-109.958217
 11
-22.10978
 21
-110.348135
  0
ARC
  8
ガラス
  6
CONTINUOUS
 10
-22.471668
 20
-109.464206
 40
0.955135
 50
112.264587
 51
292.264587
  0
ENDBLK
  0
BLOCK
  2
*GRP_0075
 70
    65
 10
0.0
 20
0.0
  0
SPLINE
  5
1400032
100
AcDbEntity
  8
ガラス
100
AcDbSpline
  6
CONTINUOUS
 70
     0
 71
     3
 74
     3
 44
0.0
 11
-18.015582
 21
-100.043458
 11
-17.068663
 21
-98.489
 11
-15.490017
 21
-97.914148
  0
SPLINE
  5
1400033
100
AcDbEntity
  8
ガラス
100
AcDbSpline
  6
CONTINUOUS
 70
     0
 71
     3
 74
     3
 44
0.0
 11
-15.490017
 21
-97.914148
 11
-15.94145
 21
-99.153305
 11
-16.11908
 21
-100.272372
  0
ARC
  8
ガラス
  6
CONTINUOUS
 10
-17.067331
 20
-100.157914
 40
0.955135
 50
173.117442
 51
353.117442
  0
ENDBLK
  0
BLOCK
  2
*GRP_0076
 70
    65
 10
0.0
 20
0.0
  0
SPLINE
  5
1400034
100
AcDbEntity
  8
ガラス
100
AcDbSpline
  6
CONTINUOUS
 70
     0
 71
     3
 74
     3
 44
0.0
 11
24.077028
 21
-77.623175
 11
25.895845
 21
-77.693083
 11
27.166787
 21
-78.79184
  0
SPLINE
  5
1400035
100
AcDbEntity
  8
ガラス
100
AcDbSpline
  6
CONTINUOUS
 70
     0
 71
     3
 74
     3
 44
0.0
 11
27.166787
 21
-78.79184
 11
25.86469
 21
-79.001113
 11
24.8008
 21
-79.39103
  0
ARC
  8
ガラス
  6
CONTINUOUS
 10
24.438914
 20
-78.507097
 40
0.955135
 50
112.264587
 51
292.264587
  0
ENDBLK
  0
BLOCK
  2
*GRP_0077
 70
    65
 10
0.0
 20
0.0
  0
SPLINE
  5
1400036
100
AcDbEntity
  8
ガラス
100
AcDbSpline
  6
CONTINUOUS
 70
     0
 71
     3
 74
     3
 44
0.0
 11
9.235758
 21
-77.623182
 11
11.054575
 21
-77.693075
 11
12.325525
 21
-78.79184
  0
SPLINE
  5
1400037
100
AcDbEntity
  8
ガラス
100
AcDbSpline
  6
CONTINUOUS
 70
     0
 71
     3
 74
     3
 44
0.0
 11
12.325525
 21
-78.79184
 11
11.023413
 21
-79.001113
 11
9.95953
 21
-79.391038
  0
ARC
  8
ガラス
  6
CONTINUOUS
 10
9.597645
 20
-78.507097
 40
0.955135
 50
112.264587
 51
292.264587
  0
ENDBLK
  0
BLOCK
  2
*GRP_0078
 70
    65
 10
0.0
 20
0.0
  0
SPLINE
  5
1400038
100
AcDbEntity
  8
ガラス
100
AcDbSpline
  6
CONTINUOUS
 70
     0
 71
     3
 74
     3
 44
0.0
 11
-4.150482
 21
-77.623182
 11
-2.331665
 21
-77.693083
 11
-1.060722
 21
-78.79184
  0
SPLINE
  5
1400039
100
AcDbEntity
  8
ガラス
100
AcDbSpline
  6
CONTINUOUS
 70
     0
 71
     3
 74
     3
 44
0.0
 11
-1.060722
 21
-78.79184
 11
-2.362828
 21
-79.001113
 11
-3.426717
 21
-79.39103
  0
ARC
  8
ガラス
  6
CONTINUOUS
 10
-3.788599
 20
-78.507097
 40
0.955135
 50
112.264587
 51
292.264587
  0
ENDBLK
  0
BLOCK
  2
*GRP_0079
 70
    65
 10
0.0
 20
0.0
  0
SPLINE
  5
1400040
100
AcDbEntity
  8
ガラス
100
AcDbSpline
  6
CONTINUOUS
 70
     0
 71
     3
 74
     3
 44
0.0
 11
-14.067658
 21
-81.73943
 11
-13.120745
 21
-80.184965
 11
-11.5421
 21
-79.610113
  0
SPLINE
  5
1400041
100
AcDbEntity
  8
ガラス
100
AcDbSpline
  6
CONTINUOUS
 70
     0
 71
     3
 74
     3
 44
0.0
 11
-11.5421
 21
-79.610113
 11
-11.993517
 21
-80.849262
 11
-12.171148
 21
-81.968345
  0
ARC
  8
ガラス
  6
CONTINUOUS
 10
-13.119402
 20
-81.853881
 40
0.955135
 50
173.117442
 51
353.117442
  0
ENDBLK
  0
BLOCK
  2
*GRP_0080
 70
    65
 10
0.0
 20
0.0
  0
SPLINE
  5
1400042
100
AcDbEntity
  8
ガラス
100
AcDbSpline
  6
CONTINUOUS
 70
     0
 71
     3
 74
     3
 44
0.0
 11
60.494365
 21
-77.835508
 11
62.313183
 21
-77.905415
 11
63.584125
 21
-79.004173
  0
SPLINE
  5
1400043
100
AcDbEntity
  8
ガラス
100
AcDbSpline
  6
CONTINUOUS
 70
     0
 71
     3
 74
     3
 44
0.0
 11
63.584125
 21
-79.004173
 11
62.282013
 21
-79.213445
 11
61.218123
 21
-79.603363
  0
ARC
  8
ガラス
  6
CONTINUOUS
 10
60.856242
 20
-78.719431
 40
0.955135
 50
112.264587
 51
292.264587
  0
ENDBLK
  0
BLOCK
  2
*GRP_0081
 70
    65
 10
0.0
 20
0.0
  0
SPLINE
  5
1400044
100
AcDbEntity
  8
ガラス
100
AcDbSpline
  6
CONTINUOUS
 70
     0
 71
     3
 74
     3
 44
0.0
 11
39.774775
 21
-77.835515
 11
41.5936
 21
-77.905415
 11
42.86455
 21
-79.004173
  0
SPLINE
  5
1400045
100
AcDbEntity
  8
ガラス
100
AcDbSpline
  6
CONTINUOUS
 70
     0
 71
     3
 74
     3
 44
0.0
 11
42.86455
 21
-79.004173
 11
41.56243
 21
-79.213445
 11
40.498547
 21
-79.603363
  0
ARC
  8
ガラス
  6
CONTINUOUS
 10
40.136666
 20
-78.719431
 40
0.955135
 50
112.264587
 51
292.264587
  0
ENDBLK
  0
BLOCK
  2
*GRP_0082
 70
    65
 10
0.0
 20
0.0
  0
LINE
  8
ゴム等
  6
DOT
 10
-17.306038
 20
-3.37451
 11
-14.80604
 21
-3.874513
  0
LINE
  8
ゴム等
  6
DOT
 10
-14.80604
 20
1.925492
 11
-17.306038
 21
1.42549
  0
LINE
  8
ゴム等
  6
DOT
 10
-9.806038
 20
4.025492
 11
-14.80604
 21
4.025492
  0
LINE
  8
ゴム等
  6
DOT
 10
-9.806038
 20
-5.974513
 11
-14.80604
 21
-5.974513
  0
LINE
  8
ゴム等
  6
DOT
 10
-17.306038
 20
-3.37451
 11
-17.306038
 21
1.42549
  0
LINE
  8
ゴム等
  6
DOT
 10
-14.80604
 20
4.025492
 11
-14.80604
 21
1.925492
  0
LINE
  8
ゴム等
  6
DOT
 10
-14.80604
 20
-3.874513
 11
-14.80604
 21
-5.974513
  0
LINE
  8
ゴム等
  6
DOT
 10
-10.30604
 20
-0.97451
 11
-9.806038
 21
-0.474507
  0
LINE
  8
ゴム等
  6
DOT
 10
-10.30604
 20
-0.97451
 11
-9.806038
 21
-1.474513
  0
LINE
  8
ゴム等
  6
DOT
 10
-9.806038
 20
-5.974513
 11
-9.806038
 21
-1.474513
  0
LINE
  8
ゴム等
  6
DOT
 10
-9.806038
 20
-0.474507
 11
-9.806038
 21
4.025492
  0
INSERT
  2
*HAT_0001
  8
ゴム等
 10
0.0
 20
0.0
  0
ENDBLK
  0
BLOCK
  2
*GRP_0083
 70
    65
 10
0.0
 20
0.0
  0
LINE
  8
ゴム等
  6
DOT
 10
2.893908
 20
-98.47601
 11
2.393913
 21
-95.976012
  0
LINE
  8
ゴム等
  6
DOT
 10
8.19391
 20
-95.976012
 11
7.693908
 21
-98.47601
  0
LINE
  8
ゴム等
  6
DOT
 10
10.29391
 20
-90.97601
 11
10.29391
 21
-95.976012
  0
LINE
  8
ゴム等
  6
DOT
 10
0.293913
 20
-90.97601
 11
0.293913
 21
-95.976012
  0
LINE
  8
ゴム等
  6
DOT
 10
2.893908
 20
-98.47601
 11
7.693908
 21
-98.47601
  0
LINE
  8
ゴム等
  6
DOT
 10
10.29391
 20
-95.976012
 11
8.19391
 21
-95.976012
  0
LINE
  8
ゴム等
  6
DOT
 10
2.393913
 20
-95.976012
 11
0.293913
 21
-95.976012
  0
LINE
  8
ゴム等
  6
DOT
 10
5.293908
 20
-91.476012
 11
5.79391
 21
-90.97601
  0
LINE
  8
ゴム等
  6
DOT
 10
5.293908
 20
-91.476012
 11
4.793913
 21
-90.97601
  0
LINE
  8
ゴム等
  6
DOT
 10
0.293913
 20
-90.97601
 11
4.793913
 21
-90.97601
  0
LINE
  8
ゴム等
  6
DOT
 10
5.79391
 20
-90.97601
 11
10.29391
 21
-90.97601
  0
INSERT
  2
*HAT_0002
  8
ゴム等
 10
0.0
 20
0.0
  0
ENDBLK
  0
BLOCK
  2
*GRP_0084
 70
    65
 10
0.0
 20
0.0
  0
LINE
  8
ゴム等
  6
CONTINUOUS
 10
1.193973
 20
13.025523
 11
5.19397
 21
13.025523
  0
LINE
  8
ゴム等
  6
CONTINUOUS
 10
1.193973
 20
7.025523
 11
-6.80603
 21
7.025523
  0
LINE
  8
ゴム等
  6
CONTINUOUS
 10
-6.80603
 20
13.025523
 11
-6.80603
 21
10.825518
  0
LINE
  8
ゴム等
  6
CONTINUOUS
 10
1.193973
 20
13.025523
 11
1.193973
 21
10.825518
  0
LINE
  8
ゴム等
  6
CONTINUOUS
 10
-6.80603
 20
13.025523
 11
-8.806033
 21
13.025523
  0
ARC
  8
ゴム等
  6
CONTINUOUS
 10
-2.306016
 20
12.025519
 40
1.0
 50
0.0
 51
90.0
  0
LINE
  8
ゴム等
  6
CONTINUOUS
 10
-1.306033
 20
9.52552
 11
-1.306033
 21
12.025518
  0
ARC
  8
ゴム等
  6
CONTINUOUS
 10
-2.306016
 20
9.525519
 40
1.0
 50
-90.0
 51
0.0
  0
LINE
  8
ゴム等
  6
CONTINUOUS
 10
-2.30603
 20
8.525523
 11
-3.306027
 21
8.525523
  0
ARC
  8
ゴム等
  6
CONTINUOUS
 10
-3.306016
 20
9.525519
 40
1.0
 50
180.0
 51
270.0
  0
LINE
  8
ゴム等
  6
CONTINUOUS
 10
-4.306033
 20
9.52552
 11
-4.306033
 21
12.025518
  0
LINE
  8
ゴム等
  6
CONTINUOUS
 10
-2.30603
 20
13.025523
 11
-3.306027
 21
13.025523
  0
ARC
  8
ゴム等
  6
CONTINUOUS
 10
-3.306016
 20
12.025519
 40
1.0
 50
90.0
 51
180.0
  0
LINE
  8
ゴム等
  6
CONTINUOUS
 10
5.19397
 20
15.22552
 11
5.19397
 21
13.025523
  0
ARC
  8
ゴム等
  6
CONTINUOUS
 10
3.193984
 20
15.225519
 40
2.0
 50
0.0
 51
90.0
  0
LINE
  8
ゴム等
  6
CONTINUOUS
 10
3.193967
 20
17.225523
 11
-10.306033
 21
17.225523
  0
ARC
  8
ゴム等
  6
CONTINUOUS
 10
-10.306016
 20
16.225519
 40
1.0
 50
90.0
 51
180.0
  0
LINE
  8
ゴム等
  6
CONTINUOUS
 10
1.193973
 20
7.025523
 11
1.934905
 21
10.23073
  0
ARC
  8
ゴム等
  6
CONTINUOUS
 10
1.443984
 20
10.325519
 40
0.5
 50
349.071863
 51
450.0
  0
LINE
  8
ゴム等
  6
CONTINUOUS
 10
1.193973
 20
10.825518
 11
1.44397
 21
10.825518
  0
LINE
  8
ゴム等
  6
CONTINUOUS
 10
-6.80603
 20
7.025523
 11
-7.546962
 21
10.23073
  0
ARC
  8
ゴム等
  6
CONTINUOUS
 10
-7.056016
 20
10.325519
 40
0.5
 50
90.0
 51
190.928137
  0
LINE
  8
ゴム等
  6
CONTINUOUS
 10
-6.80603
 20
10.825518
 11
-7.056027
 21
10.825518
  0
LINE
  8
ゴム等
  6
CONTINUOUS
 10
-11.30603
 20
16.225518
 11
-11.30603
 21
15.52552
  0
LINE
  8
ゴム等
  6
CONTINUOUS
 10
-11.30603
 20
15.52552
 11
-8.806033
 21
15.82552
  0
LINE
  8
ゴム等
  6
CONTINUOUS
 10
-8.806033
 20
13.025523
 11
-8.806033
 21
15.82552
  0
INSERT
  2
*HAT_0003
  8
ゴム等
 10
0.0
 20
0.0
  0
ENDBLK
  0
BLOCK
  2
*GRP_0085
 70
    65
 10
0.0
 20
0.0
  0
LINE
  8
ゴム等
  6
CONTINUOUS
 10
-22.160908
 20
6.724037
 11
-17.160905
 21
6.724037
  0
LINE
  8
ゴム等
  6
CONTINUOUS
 10
-17.160905
 20
8.72404
 11
-17.160905
 21
10.22404
  0
LINE
  8
ゴム等
  6
CONTINUOUS
 10
-22.160908
 20
8.72404
 11
-22.160908
 21
10.22404
  0
LINE
  8
ゴム等
  6
CONTINUOUS
 10
-26.160905
 20
10.22404
 11
-22.160908
 21
10.22404
  0
LINE
  8
ゴム等
  6
CONTINUOUS
 10
-17.160905
 20
10.22404
 11
-11.160905
 21
10.22404
  0
LINE
  8
ゴム等
  6
CONTINUOUS
 10
-11.160905
 20
10.22404
 11
-11.160905
 21
13.22404
  0
LINE
  8
ゴム等
  6
CONTINUOUS
 10
-9.160902
 20
13.22404
 11
-11.160905
 21
13.22404
  0
LINE
  8
ゴム等
  6
CONTINUOUS
 10
-9.160902
 20
13.22404
 11
-9.160902
 21
15.724037
  0
ARC
  8
ゴム等
  6
CONTINUOUS
 10
-20.16089
 20
4.47404
 40
12.75
 50
61.927513
 51
118.072487
  0
LINE
  8
ゴム等
  6
CONTINUOUS
 10
-9.160902
 20
15.724037
 11
-14.160905
 21
15.724037
  0
LINE
  8
ゴム等
  6
CONTINUOUS
 10
-26.160905
 20
10.22404
 11
-26.160905
 21
15.724037
  0
LINE
  8
ゴム等
  6
CONTINUOUS
 10
-17.160905
 20
6.724037
 11
-16.260837
 21
7.920333
  0
ARC
  8
ゴム等
  6
CONTINUOUS
 10
-16.66089
 20
8.22404
 40
0.5
 50
322.618449
 51
450.0
  0
LINE
  8
ゴム等
  6
CONTINUOUS
 10
-17.160905
 20
8.72404
 11
-16.660902
 21
8.72404
  0
LINE
  8
ゴム等
  6
CONTINUOUS
 10
-22.160908
 20
6.724037
 11
-23.060967
 21
7.920333
  0
ARC
  8
ゴム等
  6
CONTINUOUS
 10
-22.66089
 20
8.22404
 40
0.5
 50
90.0
 51
217.381551
  0
LINE
  8
ゴム等
  6
CONTINUOUS
 10
-22.160908
 20
8.72404
 11
-22.660902
 21
8.72404
  0
INSERT
  2
*HAT_0004
  8
ゴム等
 10
0.0
 20
0.0
  0
ENDBLK
  0
BLOCK
  2
*GRP_0086
 70
    65
 10
0.0
 20
0.0
  0
LINE
  8
01
  6
CONTINUOUS
 62
    63
 10
-18.4964
 20
45.380965
 11
-19.910615
 21
43.96675
  0
LINE
  8
01
  6
CONTINUOUS
 62
    63
 10
-18.410615
 20
44.052535
 11
-19.910615
 21
42.552535
  0
LINE
  8
01
  6
CONTINUOUS
 62
    63
 10
-13.410613
 20
43.395693
 11
-19.910615
 21
36.89569
  0
LINE
  8
01
  6
CONTINUOUS
 62
    63
 10
-13.410613
 20
41.981478
 11
-19.910615
 21
35.481475
  0
LINE
  8
01
  6
CONTINUOUS
 62
    63
 10
-13.271323
 20
40.706553
 11
-19.461118
 21
34.516757
  0
LINE
  8
01
  6
CONTINUOUS
 62
    63
 10
-12.729702
 20
39.833957
 11
-18.071165
 21
34.492495
  0
LINE
  8
01
  6
CONTINUOUS
 62
    63
 10
-11.668475
 20
39.48097
 11
-16.168475
 21
34.98097
  0
LINE
  8
01
  6
CONTINUOUS
 62
    63
 10
-11.41061
 20
38.32462
 11
-14.75426
 21
34.98097
  0
LINE
  8
01
  6
CONTINUOUS
 62
    63
 10
-11.41061
 20
36.910405
 11
-13.340045
 21
34.98097
  0
LINE
  8
01
  6
CONTINUOUS
 62
    63
 10
-11.41061
 20
35.49619
 11
-12.415685
 21
34.491115
  0
LINE
  8
01
  6
CONTINUOUS
 62
    63
 10
-14.253755
 20
45.380965
 11
-16.410613
 21
43.224107
  0
LINE
  8
01
  6
CONTINUOUS
 62
    63
 10
-18.410615
 20
41.224105
 11
-19.910615
 21
39.724105
  0
LINE
  8
01
  6
CONTINUOUS
 62
    63
 10
-13.410613
 20
44.809893
 11
-16.410613
 21
41.809893
  0
LINE
  8
01
  6
CONTINUOUS
 62
    63
 10
-18.410615
 20
39.80989
 11
-19.910615
 21
38.30989
  0
LINE
  8
01
  6
CONTINUOUS
 62
    63
 10
-15.66797
 20
45.380965
 11
-16.410613
 21
44.638322
  0
LINE
  8
01
  6
CONTINUOUS
 62
    63
 10
-18.410615
 20
42.63832
 11
-19.910615
 21
41.13832
  0
LINE
  8
ゴム等
  6
CONTINUOUS
 62
    63
 10
-16.410613
 20
40.930968
 11
-17.310613
 21
39.48097
  0
LINE
  8
ゴム等
  6
CONTINUOUS
 62
    63
 10
-12.510613
 20
39.48097
 11
-13.410613
 21
40.930968
  0
LINE
  8
ゴム等
  6
CONTINUOUS
 62
    63
 10
-16.410613
 20
40.930968
 11
-16.410613
 21
45.380965
  0
LINE
  8
ゴム等
  6
CONTINUOUS
 62
    63
 10
-16.410613
 20
45.380965
 11
-13.410613
 21
45.380965
  0
LINE
  8
ゴム等
  6
CONTINUOUS
 62
    63
 10
-13.410613
 20
40.930968
 11
-13.410613
 21
45.380965
  0
LINE
  8
ゴム等
  6
CONTINUOUS
 62
    63
 10
-18.410615
 20
45.380965
 11
-19.910615
 21
45.380965
  0
LINE
  8
ゴム等
  6
CONTINUOUS
 62
    63
 10
-18.410615
 20
45.380965
 11
-18.410615
 21
39.48097
  0
LINE
  8
ゴム等
  6
CONTINUOUS
 62
    63
 10
-18.410615
 20
39.48097
 11
-17.310613
 21
39.48097
  0
LINE
  8
ゴム等
  6
CONTINUOUS
 62
    63
 10
-12.510613
 20
39.48097
 11
-11.41061
 21
39.48097
  0
LINE
  8
ゴム等
  6
CONTINUOUS
 62
    63
 10
-11.41061
 20
39.48097
 11
-11.41061
 21
34.480968
  0
LINE
  8
ゴム等
  6
CONTINUOUS
 62
    63
 10
-12.410615
 20
34.480968
 11
-12.660613
 21
34.98097
  0
LINE
  8
ゴム等
  6
CONTINUOUS
 62
    63
 10
-17.160613
 20
34.98097
 11
-17.41061
 21
34.480968
  0
LINE
  8
ゴム等
  6
CONTINUOUS
 62
    63
 10
-17.160613
 20
34.98097
 11
-12.660613
 21
34.98097
  0
LINE
  8
ゴム等
  6
CONTINUOUS
 62
    63
 10
-11.41061
 20
34.480968
 11
-12.410615
 21
34.480968
  0
LINE
  8
ゴム等
  6
CONTINUOUS
 62
    63
 10
-17.41061
 20
34.480968
 11
-19.910615
 21
34.524603
  0
LINE
  8
ゴム等
  6
CONTINUOUS
 62
    63
 10
-19.910615
 20
45.380965
 11
-19.910615
 21
34.524603
  0
ENDBLK
  0
BLOCK
  2
*GRP_0087
 70
    65
 10
0.0
 20
0.0
  0
LINE
  8
01
  6
CONTINUOUS
 62
    63
 10
-43.6187
 20
64.123885
 11
-41.497385
 21
65.5381
  0
LINE
  8
01
  6
CONTINUOUS
 62
    63
 10
-45.598603
 20
69.639317
 11
-47.012817
 21
67.517995
  0
LINE
  8
01
  6
CONTINUOUS
 62
    63
 10
-43.54799
 20
74.65978
 11
-47.083528
 21
71.124243
  0
LINE
  8
01
  6
CONTINUOUS
 62
    63
 10
-36.47693
 20
67.588712
 11
-40.01246
 21
64.053175
  0
LINE
  8
01
  6
CONTINUOUS
 62
    63
 10
-43.6187
 20
64.123885
 11
-47.012817
 21
67.517995
  0
LINE
  8
01
  6
CONTINUOUS
 62
    63
 10
-47.083528
 20
71.124243
 11
-45.598603
 21
69.639317
  0
LINE
  8
01
  6
CONTINUOUS
 62
    63
 10
-41.497385
 20
65.5381
 11
-40.01246
 21
64.053175
  0
LINE
  8
01
  6
CONTINUOUS
 62
    63
 10
-40.36601
 20
70.770685
 11
-40.36601
 21
71.4778
  0
LINE
  8
01
  6
CONTINUOUS
 62
    63
 10
-40.36601
 20
70.770685
 11
-39.65891
 21
70.770693
  0
LINE
  8
01
  6
CONTINUOUS
 62
    63
 10
-36.47693
 20
67.588712
 11
-39.65891
 21
70.770693
  0
LINE
  8
01
  6
CONTINUOUS
 62
    63
 10
-40.36601
 20
71.4778
 11
-43.54799
 21
74.65978
  0
LINE
  8
01
  6
CONTINUOUS
 62
    63
 10
-45.154595
 20
65.65978
 11
-38.405862
 21
65.65978
  0
LINE
  8
01
  6
CONTINUOUS
 62
    63
 10
-46.654595
 20
67.159772
 11
-36.905862
 21
67.159772
  0
LINE
  8
01
  6
CONTINUOUS
 62
    63
 10
-46.251627
 20
68.65978
 11
-37.547998
 21
68.65978
  0
LINE
  8
01
  6
CONTINUOUS
 62
    63
 10
-46.119065
 20
70.15978
 11
-39.04799
 21
70.15978
  0
LINE
  8
01
  6
CONTINUOUS
 62
    63
 10
-45.04799
 20
73.15978
 11
-42.047998
 21
73.15978
  0
LINE
  8
01
  6
CONTINUOUS
 62
    63
 10
-46.547998
 20
71.659772
 11
-40.54799
 21
71.659772
  0
ENDBLK
  0
BLOCK
  2
*GRP_0088
 70
    65
 10
0.0
 20
0.0
  0
LINE
  8
01
  6
DOT
 62
    63
 10
-44.254993
 20
88.094763
 11
-47.790523
 21
91.630292
  0
LINE
  8
01
  6
DOT
 62
    63
 10
-42.13367
 20
97.287145
 11
-24.456005
 21
79.609473
  0
LINE
  8
01
  6
DOT
 62
    63
 10
-44.254993
 20
88.094763
 11
-49.204745
 21
83.145017
  0
LINE
  8
01
  6
DOT
 62
    63
 10
-39.305248
 20
73.24552
 11
-30.819965
 21
73.24552
  0
LINE
  8
01
  6
DOT
 62
    63
 10
-24.456005
 20
79.609473
 11
-30.819965
 21
73.24552
  0
LINE
  8
01
  6
DOT
 62
    63
 10
-42.13367
 20
97.287145
 11
-36.123268
 21
73.24552
  0
LINE
  8
01
  6
DOT
 62
    63
 10
-42.13367
 20
97.287145
 11
-47.790523
 21
91.630292
  0
LINE
  8
01
  6
DOT
 62
    63
 10
-39.305248
 20
73.245528
 11
-49.204745
 21
83.145017
  0
ENDBLK
  0
BLOCK
  2
*GRP_0089
 70
    65
 10
0.0
 20
0.0
  0
LINE
  8
ボルト／ビス
  6
CONTINUOUS
 10
-7.806035
 20
2.525485
 11
-6.757873
 21
2.433783
  0
ARC
  8
ボルト／ビス
  6
CONTINUOUS
 10
-6.906032
 20
0.740249
 40
1.7
 50
0.0
 51
85.000011
  0
LINE
  8
ボルト／ビス
  6
CONTINUOUS
 10
-5.206033
 20
0.740252
 11
-5.206033
 21
-0.97451
  0
LINE
  8
ボルト／ビス
  6
CONTINUOUS
 10
-7.806035
 20
-4.474513
 11
-6.757873
 21
-4.38281
  0
ARC
  8
ボルト／ビス
  6
CONTINUOUS
 10
-6.906032
 20
-2.689284
 40
1.7
 50
274.999989
 51
360.0
  0
LINE
  8
ボルト／ビス
  6
CONTINUOUS
 10
-5.206033
 20
-2.68928
 11
-5.206033
 21
-0.97451
  0
LINE
  8
ボルト／ビス
  6
CONTINUOUS
 10
-5.59094
 20
1.42213
 11
-5.34878
 21
1.42213
  0
LINE
  8
ボルト／ビス
  6
CONTINUOUS
 10
-6.241025
 20
-0.274513
 11
-6.241025
 21
-0.97451
  0
LINE
  8
ボルト／ビス
  6
CONTINUOUS
 10
-5.59094
 20
0.125485
 11
-5.59094
 21
1.42213
  0
LINE
  8
ボルト／ビス
  6
CONTINUOUS
 10
-6.241025
 20
-0.274513
 11
-5.990938
 21
-0.274513
  0
ARC
  8
ボルト／ビス
  6
CONTINUOUS
 10
-5.990937
 20
0.125483
 40
0.4
 50
270.0
 51
360.0
  0
LINE
  8
ボルト／ビス
  6
CONTINUOUS
 10
-5.59094
 20
-3.37115
 11
-5.34878
 21
-3.37115
  0
LINE
  8
ボルト／ビス
  6
CONTINUOUS
 10
-6.241025
 20
-1.674515
 11
-6.241025
 21
-0.97451
  0
LINE
  8
ボルト／ビス
  6
CONTINUOUS
 10
-5.59094
 20
-2.074513
 11
-5.59094
 21
-3.37115
  0
LINE
  8
ボルト／ビス
  6
CONTINUOUS
 10
-6.241025
 20
-1.674515
 11
-5.990938
 21
-1.674515
  0
ARC
  8
ボルト／ビス
  6
CONTINUOUS
 10
-5.990937
 20
-2.074517
 40
0.4
 50
0.0
 51
90.0
  0
LINE
  8
ボルト／ビス
  6
CONTINUOUS
 10
-7.806035
 20
2.525485
 11
-7.806035
 21
-4.474513
  0
LINE
  8
ボルト／ビス
  6
CONTINUOUS
 10
-3.23465
 20
-0.97451
 11
-23.44931
 21
-0.97451
  0
LINE
  8
ボルト／ビス
  6
CONTINUOUS
 10
-21.306035
 20
1.025485
 11
-21.806038
 21
0.52549
  0
LINE
  8
ボルト／ビス
  6
CONTINUOUS
 10
-21.306035
 20
-2.974513
 11
-21.806038
 21
-2.47451
  0
LINE
  8
ボルト／ビス
  6
CONTINUOUS
 10
-21.306035
 20
1.025485
 11
-21.306035
 21
-2.974513
  0
LINE
  8
ボルト／ビス
  6
CONTINUOUS
 10
-21.806038
 20
0.52549
 11
-21.806038
 21
-2.47451
  0
LINE
  8
ボルト／ビス
  6
CONTINUOUS
 10
-7.806035
 20
-2.974513
 11
-21.306035
 21
-2.974513
  0
LINE
  8
ボルト／ビス
  6
CONTINUOUS
 10
-7.806035
 20
1.025485
 11
-21.306035
 21
1.025485
  0
LINE
  8
ボルト／ビス
  6
CONTINUOUS
 10
-7.806035
 20
0.52549
 11
-21.806038
 21
0.52549
  0
LINE
  8
ボルト／ビス
  6
CONTINUOUS
 10
-7.806035
 20
-2.47451
 11
-21.806038
 21
-2.47451
  0
ENDBLK
  0
BLOCK
  2
*GRP_0090
 70
    65
 10
0.0
 20
0.0
  0
LINE
  8
ボルト／ビス
  6
CONTINUOUS
 10
1.793913
 20
-100.274555
 11
1.885615
 21
-101.322718
  0
ARC
  8
ボルト／ビス
  6
CONTINUOUS
 10
3.579139
 20
-101.174556
 40
1.7
 50
184.999989
 51
270.0
  0
LINE
  8
ボルト／ビス
  6
CONTINUOUS
 10
3.579145
 20
-102.874557
 11
5.293908
 21
-102.874557
  0
LINE
  8
ボルト／ビス
  6
CONTINUOUS
 10
8.79391
 20
-100.274555
 11
8.702208
 21
-101.322718
  0
ARC
  8
ボルト／ビス
  6
CONTINUOUS
 10
7.008672
 20
-101.174556
 40
1.7
 50
270.0
 51
355.000011
  0
LINE
  8
ボルト／ビス
  6
CONTINUOUS
 10
7.008677
 20
-102.874557
 11
5.293908
 21
-102.874557
  0
LINE
  8
ボルト／ビス
  6
CONTINUOUS
 10
2.897268
 20
-102.48965
 11
2.897268
 21
-102.73181
  0
LINE
  8
ボルト／ビス
  6
CONTINUOUS
 10
4.59391
 20
-101.839565
 11
5.293908
 21
-101.839565
  0
LINE
  8
ボルト／ビス
  6
CONTINUOUS
 10
4.193913
 20
-102.48965
 11
2.897268
 21
-102.48965
  0
LINE
  8
ボルト／ビス
  6
CONTINUOUS
 10
4.59391
 20
-101.839565
 11
4.59391
 21
-102.089653
  0
ARC
  8
ボルト／ビス
  6
CONTINUOUS
 10
4.193905
 20
-102.089651
 40
0.4
 50
270.0
 51
360.0
  0
LINE
  8
ボルト／ビス
  6
CONTINUOUS
 10
7.690547
 20
-102.48965
 11
7.690547
 21
-102.73181
  0
LINE
  8
ボルト／ビス
  6
CONTINUOUS
 10
5.993913
 20
-101.839565
 11
5.293908
 21
-101.839565
  0
LINE
  8
ボルト／ビス
  6
CONTINUOUS
 10
6.39391
 20
-102.48965
 11
7.690547
 21
-102.48965
  0
LINE
  8
ボルト／ビス
  6
CONTINUOUS
 10
5.993913
 20
-101.839565
 11
5.993913
 21
-102.089653
  0
ARC
  8
ボルト／ビス
  6
CONTINUOUS
 10
6.393905
 20
-102.089651
 40
0.4
 50
180.0
 51
270.0
  0
LINE
  8
ボルト／ビス
  6
CONTINUOUS
 10
1.793913
 20
-100.274555
 11
8.79391
 21
-100.274555
  0
LINE
  8
ボルト／ビス
  6
CONTINUOUS
 10
5.293908
 20
-104.84594
 11
5.293908
 21
-84.63128
  0
LINE
  8
ボルト／ビス
  6
CONTINUOUS
 10
3.293913
 20
-86.774555
 11
3.793908
 21
-86.274553
  0
LINE
  8
ボルト／ビス
  6
CONTINUOUS
 10
7.29391
 20
-86.774555
 11
6.793908
 21
-86.274553
  0
LINE
  8
ボルト／ビス
  6
CONTINUOUS
 10
3.293913
 20
-86.774555
 11
7.29391
 21
-86.774555
  0
LINE
  8
ボルト／ビス
  6
CONTINUOUS
 10
3.793908
 20
-86.274553
 11
6.793908
 21
-86.274553
  0
LINE
  8
ボルト／ビス
  6
CONTINUOUS
 10
7.29391
 20
-100.274555
 11
7.29391
 21
-86.774555
  0
LINE
  8
ボルト／ビス
  6
CONTINUOUS
 10
3.293913
 20
-100.274555
 11
3.293913
 21
-86.774555
  0
LINE
  8
ボルト／ビス
  6
CONTINUOUS
 10
3.793908
 20
-100.274555
 11
3.793908
 21
-86.274553
  0
LINE
  8
ボルト／ビス
  6
CONTINUOUS
 10
6.793908
 20
-100.274555
 11
6.793908
 21
-86.274553
  0
ENDBLK
  0
BLOCK
  2
*GRP_0091
 70
    65
 10
0.0
 20
0.0
  0
LINE
  8
別途部材
  6
DOT
 10
-21.206098
 20
-101.276008
 11
-31.206095
 21
-101.276008
  0
LINE
  8
別途部材
  6
DOT
 10
-31.206095
 20
-111.276005
 11
-31.206095
 21
-101.276008
  0
INSERT
  2
*HAT_0005
  8
別途部材
 10
0.0
 20
0.0
  0
LINE
  8
別途部材
  6
DOT
 10
-21.206098
 20
-111.276005
 11
-21.206098
 21
-101.276008
  0
LINE
  8
別途部材
  6
DOT
 10
-21.206098
 20
-111.276005
 11
-31.206095
 21
-111.276005
  0
ENDBLK
  0
BLOCK
  2
*GRP_0092
 70
    65
 10
0.0
 20
0.0
  0
LINE
  8
別途部材
  6
DOT
 10
-48.310498
 20
35.080968
 11
-58.310495
 21
35.080968
  0
LINE
  8
別途部材
  6
DOT
 10
-58.310495
 20
25.08097
 11
-58.310495
 21
35.080968
  0
INSERT
  2
*HAT_0006
  8
別途部材
 10
0.0
 20
0.0
  0
LINE
  8
別途部材
  6
DOT
 10
-48.310498
 20
25.08097
 11
-48.310498
 21
35.080968
  0
LINE
  8
別途部材
  6
DOT
 10
-48.310498
 20
25.08097
 11
-58.310495
 21
25.08097
  0
ENDBLK
  0
BLOCK
  2
*GRP_0093
 70
    65
 10
0.0
 20
0.0
  0
INSERT
  2
*GRP_0096
  8
補助線
  6
DOT
 10
0.0
 20
0.0
  0
INSERT
  2
*GRP_0097
  8
補助線
  6
DOT
 10
0.0
 20
0.0
  0
LINE
  8
St
  6
CONTINUOUS
 62
   127
 10
56.19397
 20
51.775143
 11
56.19397
 21
33.275155
  0
LINE
  8
St
  6
CONTINUOUS
 62
   127
 10
38.193955
 20
55.025163
 11
32.393965
 21
55.025163
  0
LINE
  8
St
  6
CONTINUOUS
 62
   127
 10
32.393965
 20
55.025163
 11
32.393965
 21
30.025158
  0
LINE
  8
St
  6
CONTINUOUS
 62
   127
 10
38.193955
 20
30.025158
 11
32.393965
 21
30.025158
  0
LINE
  8
St
  6
CONTINUOUS
 62
   127
 10
38.193955
 20
55.025163
 11
38.193955
 21
30.025158
  0
LINE
  8
St
  6
CONTINUOUS
 62
   127
 10
47.691662
 20
34.751733
 11
47.691662
 21
50.29873
  0
LINE
  8
St
  6
CONTINUOUS
 62
   127
 10
48.691712
 20
34.751733
 11
48.691712
 21
50.29873
  0
LINE
  8
St
  6
CONTINUOUS
 62
   127
 10
48.691712
 20
50.29873
 11
47.691662
 21
50.29873
  0
LINE
  8
St
  6
CONTINUOUS
 62
   127
 10
48.691712
 20
34.751733
 11
47.691662
 21
34.751733
  0
LINE
  8
St
  6
CONTINUOUS
 62
   127
 10
52.691703
 20
47.336425
 11
52.341475
 21
48.298615
  0
LINE
  8
St
  6
CONTINUOUS
 62
   127
 10
52.691703
 20
37.71388
 11
52.341475
 21
36.75169
  0
LINE
  8
St
  6
CONTINUOUS
 62
   127
 10
52.691703
 20
47.336425
 11
52.691703
 21
37.71388
  0
LINE
  8
St
  6
CONTINUOUS
 62
   127
 10
52.341475
 20
36.75169
 11
48.691712
 21
36.75169
  0
LINE
  8
St
  6
CONTINUOUS
 62
   127
 10
52.341475
 20
39.638417
 11
48.691712
 21
39.638417
  0
LINE
  8
St
  6
CONTINUOUS
 62
   127
 10
52.341475
 20
48.298615
 11
48.691712
 21
48.298615
  0
LINE
  8
St
  6
CONTINUOUS
 62
   127
 10
52.341475
 20
45.411888
 11
48.691712
 21
45.411888
  0
LINE
  8
St
  6
CONTINUOUS
 62
   127
 10
48.691712
 20
36.75169
 11
48.691712
 21
48.298615
  0
LINE
  8
St
  6
CONTINUOUS
 62
   127
 10
38.691707
 20
42.525152
 11
38.691707
 21
37.7752
  0
LINE
  8
St
  6
CONTINUOUS
 62
   127
 10
38.691707
 20
37.7752
 11
38.191757
 21
38.275075
  0
LINE
  8
St
  6
CONTINUOUS
 62
   127
 10
38.191757
 20
42.525152
 11
38.191757
 21
38.275075
  0
LINE
  8
St
  6
CONTINUOUS
 62
   127
 10
39.191657
 20
37.7752
 11
38.691707
 21
37.7752
  0
LINE
  8
St
  6
CONTINUOUS
 62
   127
 10
45.141205
 20
25.025267
 11
45.141205
 21
42.525152
  0
LINE
  8
St
  6
CONTINUOUS
 62
   127
 10
40.24219
 20
25.025267
 11
40.24219
 21
42.525152
  0
LINE
  8
St
  6
CONTINUOUS
 62
   127
 10
46.691688
 20
42.525152
 11
46.691688
 21
37.7752
  0
LINE
  8
St
  6
CONTINUOUS
 62
   127
 10
46.691688
 20
37.7752
 11
47.191712
 21
38.275075
  0
LINE
  8
St
  6
CONTINUOUS
 62
   127
 10
47.191712
 20
42.525152
 11
47.191712
 21
38.275075
  0
LINE
  8
St
  6
CONTINUOUS
 62
   127
 10
46.19173
 20
37.7752
 11
46.691688
 21
37.7752
  0
LINE
  8
St
  6
CONTINUOUS
 62
   127
 10
40.24219
 20
25.025267
 11
39.691683
 21
25.025267
  0
LINE
  8
St
  6
CONTINUOUS
 62
   127
 10
39.191657
 20
25.525143
 11
39.191657
 21
42.525152
  0
LINE
  8
St
  6
CONTINUOUS
 62
   127
 10
45.141205
 20
25.025267
 11
45.691705
 21
25.025267
  0
LINE
  8
St
  6
CONTINUOUS
 62
   127
 10
46.19173
 20
25.525143
 11
46.19173
 21
42.525152
  0
LINE
  8
St
  6
CONTINUOUS
 62
   127
 10
38.691707
 20
42.525152
 11
38.691707
 21
47.275105
  0
LINE
  8
St
  6
CONTINUOUS
 62
   127
 10
38.691707
 20
47.275105
 11
38.191757
 21
46.77523
  0
LINE
  8
St
  6
CONTINUOUS
 62
   127
 10
38.191757
 20
42.525152
 11
38.191757
 21
46.77523
  0
LINE
  8
St
  6
CONTINUOUS
 62
   127
 10
39.191657
 20
47.275105
 11
38.691707
 21
47.275105
  0
LINE
  8
St
  6
CONTINUOUS
 62
   127
 10
45.141205
 20
60.025187
 11
45.141205
 21
42.525152
  0
LINE
  8
St
  6
CONTINUOUS
 62
   127
 10
40.24219
 20
60.025187
 11
40.24219
 21
42.525152
  0
LINE
  8
St
  6
CONTINUOUS
 62
   127
 10
46.691688
 20
42.525152
 11
46.691688
 21
47.275105
  0
LINE
  8
St
  6
CONTINUOUS
 62
   127
 10
46.691688
 20
47.275105
 11
47.191712
 21
46.77523
  0
LINE
  8
St
  6
CONTINUOUS
 62
   127
 10
47.191712
 20
42.525152
 11
47.191712
 21
46.77523
  0
LINE
  8
St
  6
CONTINUOUS
 62
   127
 10
46.19173
 20
47.275105
 11
46.691688
 21
47.275105
  0
LINE
  8
St
  6
CONTINUOUS
 62
   127
 10
40.24219
 20
60.025187
 11
39.691683
 21
60.025187
  0
LINE
  8
St
  6
CONTINUOUS
 62
   127
 10
39.191657
 20
59.525155
 11
39.191657
 21
42.525152
  0
LINE
  8
St
  6
CONTINUOUS
 62
   127
 10
45.141205
 20
60.025187
 11
45.691705
 21
60.025187
  0
LINE
  8
St
  6
CONTINUOUS
 62
   127
 10
46.19173
 20
59.525155
 11
46.19173
 21
42.525152
  0
LINE
  8
St
  6
CONTINUOUS
 62
   127
 10
56.19397
 20
51.775143
 11
46.19173
 21
51.775143
  0
LINE
  8
St
  6
CONTINUOUS
 62
   127
 10
39.191657
 20
51.775143
 11
38.193955
 21
51.775143
  0
LINE
  8
St
  6
CONTINUOUS
 62
   127
 10
56.19397
 20
33.275155
 11
46.19173
 21
33.275155
  0
LINE
  8
St
  6
CONTINUOUS
 62
   127
 10
39.191657
 20
33.275155
 11
38.193955
 21
33.275155
  0
LINE
  8
St
  6
CONTINUOUS
 62
   127
 10
26.959247
 20
49.275137
 11
27.551005
 21
49.275137
  0
LINE
  8
St
  6
CONTINUOUS
 62
   127
 10
26.959247
 20
35.775145
 11
27.551005
 21
35.775145
  0
LINE
  8
St
  6
CONTINUOUS
 62
   127
 10
56.19397
 20
-27.225958
 11
56.19397
 21
-45.725945
  0
LINE
  8
St
  6
CONTINUOUS
 62
   127
 10
94.59847
 20
-31.47593
 11
84.198475
 21
-31.47593
  0
LINE
  8
St
  6
CONTINUOUS
 62
   127
 10
95.348462
 20
-32.225922
 11
84.198475
 21
-32.225922
  0
LINE
  8
St
  6
CONTINUOUS
 62
   127
 10
95.598497
 20
-40.475937
 11
95.598497
 21
-32.475935
  0
LINE
  8
St
  6
CONTINUOUS
 62
   127
 10
94.59847
 20
-41.475943
 11
94.59847
 21
-31.47593
  0
LINE
  8
St
  6
CONTINUOUS
 62
   127
 10
95.348462
 20
-40.72595
 11
84.198475
 21
-40.72595
  0
LINE
  8
St
  6
CONTINUOUS
 62
   127
 10
94.59847
 20
-41.475943
 11
84.198475
 21
-41.475943
  0
LINE
  8
St
  6
CONTINUOUS
 62
   127
 10
94.59847
 20
-41.475943
 11
95.598497
 21
-40.475937
  0
LINE
  8
St
  6
CONTINUOUS
 62
   127
 10
94.59847
 20
-31.47593
 11
95.598497
 21
-32.475935
  0
LINE
  8
St
  6
CONTINUOUS
 62
   127
 10
38.193955
 20
-23.97593
 11
32.393965
 21
-23.97593
  0
LINE
  8
St
  6
CONTINUOUS
 62
   127
 10
32.393965
 20
-23.97593
 11
32.393965
 21
-48.975943
  0
LINE
  8
St
  6
CONTINUOUS
 62
   127
 10
38.193955
 20
-48.975943
 11
32.393965
 21
-48.975943
  0
LINE
  8
St
  6
CONTINUOUS
 62
   127
 10
38.193955
 20
-23.97593
 11
38.193955
 21
-48.975943
  0
LINE
  8
St
  6
CONTINUOUS
 62
   127
 10
47.691662
 20
-44.249367
 11
47.691662
 21
-28.702377
  0
LINE
  8
St
  6
CONTINUOUS
 62
   127
 10
48.691712
 20
-44.249367
 11
48.691712
 21
-28.702377
  0
LINE
  8
St
  6
CONTINUOUS
 62
   127
 10
48.691712
 20
-28.702377
 11
47.691662
 21
-28.702377
  0
LINE
  8
St
  6
CONTINUOUS
 62
   127
 10
48.691712
 20
-44.249367
 11
47.691662
 21
-44.249367
  0
LINE
  8
St
  6
CONTINUOUS
 62
   127
 10
52.691703
 20
-31.664682
 11
52.341475
 21
-30.702485
  0
LINE
  8
St
  6
CONTINUOUS
 62
   127
 10
52.691703
 20
-41.28722
 11
52.341475
 21
-42.249417
  0
LINE
  8
St
  6
CONTINUOUS
 62
   127
 10
52.691703
 20
-31.664682
 11
52.691703
 21
-41.28722
  0
LINE
  8
St
  6
CONTINUOUS
 62
   127
 10
52.341475
 20
-42.249417
 11
48.691712
 21
-42.249417
  0
LINE
  8
St
  6
CONTINUOUS
 62
   127
 10
52.341475
 20
-39.362683
 11
48.691712
 21
-39.362683
  0
LINE
  8
St
  6
CONTINUOUS
 62
   127
 10
52.341475
 20
-30.702485
 11
48.691712
 21
-30.702485
  0
LINE
  8
St
  6
CONTINUOUS
 62
   127
 10
52.341475
 20
-33.58922
 11
48.691712
 21
-33.58922
  0
LINE
  8
St
  6
CONTINUOUS
 62
   127
 10
48.691712
 20
-42.249417
 11
48.691712
 21
-30.702485
  0
LINE
  8
St
  6
CONTINUOUS
 62
   127
 10
38.691707
 20
-36.475947
 11
38.691707
 21
-41.225907
  0
LINE
  8
St
  6
CONTINUOUS
 62
   127
 10
38.691707
 20
-41.225907
 11
38.191757
 21
-40.726025
  0
LINE
  8
St
  6
CONTINUOUS
 62
   127
 10
38.191757
 20
-36.475947
 11
38.191757
 21
-40.726025
  0
LINE
  8
St
  6
CONTINUOUS
 62
   127
 10
39.191657
 20
-41.225907
 11
38.691707
 21
-41.225907
  0
LINE
  8
St
  6
CONTINUOUS
 62
   127
 10
45.141205
 20
-53.975832
 11
45.141205
 21
-36.475947
  0
LINE
  8
St
  6
CONTINUOUS
 62
   127
 10
40.24219
 20
-53.975832
 11
40.24219
 21
-36.475947
  0
LINE
  8
St
  6
CONTINUOUS
 62
   127
 10
46.691688
 20
-36.475947
 11
46.691688
 21
-41.225907
  0
LINE
  8
St
  6
CONTINUOUS
 62
   127
 10
46.691688
 20
-41.225907
 11
47.191712
 21
-40.726025
  0
LINE
  8
St
  6
CONTINUOUS
 62
   127
 10
47.191712
 20
-36.475947
 11
47.191712
 21
-40.726025
  0
LINE
  8
St
  6
CONTINUOUS
 62
   127
 10
46.19173
 20
-41.225907
 11
46.691688
 21
-41.225907
  0
LINE
  8
St
  6
CONTINUOUS
 62
   127
 10
40.24219
 20
-53.975832
 11
39.691683
 21
-53.975832
  0
LINE
  8
St
  6
CONTINUOUS
 62
   127
 10
39.191657
 20
-53.475958
 11
39.191657
 21
-36.475947
  0
LINE
  8
St
  6
CONTINUOUS
 62
   127
 10
45.141205
 20
-53.975832
 11
45.691705
 21
-53.975832
  0
LINE
  8
St
  6
CONTINUOUS
 62
   127
 10
46.19173
 20
-53.475958
 11
46.19173
 21
-36.475947
  0
LINE
  8
St
  6
CONTINUOUS
 62
   127
 10
38.691707
 20
-36.475947
 11
38.691707
 21
-31.725995
  0
LINE
  8
St
  6
CONTINUOUS
 62
   127
 10
38.691707
 20
-31.725995
 11
38.191757
 21
-32.225878
  0
LINE
  8
St
  6
CONTINUOUS
 62
   127
 10
38.191757
 20
-36.475947
 11
38.191757
 21
-32.225878
  0
LINE
  8
St
  6
CONTINUOUS
 62
   127
 10
39.191657
 20
-31.725995
 11
38.691707
 21
-31.725995
  0
LINE
  8
St
  6
CONTINUOUS
 62
   127
 10
45.141205
 20
-18.97592
 11
45.141205
 21
-36.475947
  0
LINE
  8
St
  6
CONTINUOUS
 62
   127
 10
40.24219
 20
-18.97592
 11
40.24219
 21
-36.475947
  0
LINE
  8
St
  6
CONTINUOUS
 62
   127
 10
46.691688
 20
-36.475947
 11
46.691688
 21
-31.725995
  0
LINE
  8
St
  6
CONTINUOUS
 62
   127
 10
46.691688
 20
-31.725995
 11
47.191712
 21
-32.225878
  0
LINE
  8
St
  6
CONTINUOUS
 62
   127
 10
47.191712
 20
-36.475947
 11
47.191712
 21
-32.225878
  0
LINE
  8
St
  6
CONTINUOUS
 62
   127
 10
46.19173
 20
-31.725995
 11
46.691688
 21
-31.725995
  0
LINE
  8
St
  6
CONTINUOUS
 62
   127
 10
40.24219
 20
-18.97592
 11
39.691683
 21
-18.97592
  0
LINE
  8
St
  6
CONTINUOUS
 62
   127
 10
39.191657
 20
-19.475945
 11
39.191657
 21
-36.475947
  0
LINE
  8
St
  6
CONTINUOUS
 62
   127
 10
45.141205
 20
-18.97592
 11
45.691705
 21
-18.97592
  0
LINE
  8
St
  6
CONTINUOUS
 62
   127
 10
46.19173
 20
-19.475945
 11
46.19173
 21
-36.475947
  0
LINE
  8
St
  6
CONTINUOUS
 62
   127
 10
56.19397
 20
-27.225958
 11
46.19173
 21
-27.225958
  0
LINE
  8
St
  6
CONTINUOUS
 62
   127
 10
39.191657
 20
-27.225958
 11
38.193955
 21
-27.225958
  0
LINE
  8
St
  6
CONTINUOUS
 62
   127
 10
56.19397
 20
-45.725945
 11
46.19173
 21
-45.725945
  0
LINE
  8
St
  6
CONTINUOUS
 62
   127
 10
39.191657
 20
-45.725945
 11
38.193955
 21
-45.725945
  0
LINE
  8
St
  6
CONTINUOUS
 62
   127
 10
26.959247
 20
-29.725962
 11
27.551005
 21
-29.725962
  0
LINE
  8
St
  6
CONTINUOUS
 62
   127
 10
26.959247
 20
-43.225962
 11
27.551005
 21
-43.225962
  0
LINE
  8
St
  6
CONTINUOUS
 62
   127
 10
27.013758
 20
49.175147
 11
32.393965
 21
49.175147
  0
LINE
  8
St
  6
CONTINUOUS
 62
   127
 10
27.013758
 20
35.875158
 11
32.393965
 21
35.875158
  0
LINE
  8
St
  6
CONTINUOUS
 62
   127
 10
27.013758
 20
-29.825953
 11
32.393965
 21
-29.825953
  0
LINE
  8
St
  6
CONTINUOUS
 62
   127
 10
27.013758
 20
-43.125943
 11
32.393965
 21
-43.125943
  0
LINE
  8
St
  6
CONTINUOUS
 62
   127
 10
61.69396
 20
22.52494
 11
59.193978
 21
22.52494
  0
LINE
  8
St
  6
CONTINUOUS
 62
   127
 10
59.193978
 20
62.524922
 11
59.193978
 21
22.52494
  0
LINE
  8
St
  6
CONTINUOUS
 62
   127
 10
61.69396
 20
62.524922
 11
59.193978
 21
62.524922
  0
LINE
  8
St
  6
CONTINUOUS
 62
   127
 10
61.69396
 20
32.524922
 11
81.693993
 21
32.524922
  0
LINE
  8
St
  6
DOT
 62
   127
 10
61.69396
 20
35.52493
 11
81.693993
 21
35.52493
  0
LINE
  8
St
  6
CONTINUOUS
 62
   127
 10
61.69396
 20
52.52494
 11
81.693993
 21
52.52494
  0
LINE
  8
St
  6
DOT
 62
   127
 10
61.69396
 20
49.524955
 11
81.693993
 21
49.524955
  0
LINE
  8
St
  6
CONTINUOUS
 62
   127
 10
60.194117
 20
30.02494
 11
60.194117
 21
25.024945
  0
LINE
  8
St
  6
CONTINUOUS
 62
   127
 10
60.194117
 20
25.732052
 11
68.694123
 21
25.732052
  0
LINE
  8
St
  6
CONTINUOUS
 62
   127
 10
60.194117
 20
29.317795
 11
68.694123
 21
29.317795
  0
LINE
  8
St
  6
CONTINUOUS
 62
   127
 10
67.987008
 20
30.02494
 11
67.987008
 21
25.024945
  0
LINE
  8
St
  6
CONTINUOUS
 62
   127
 10
67.987008
 20
25.024945
 11
68.694123
 21
25.732052
  0
LINE
  8
St
  6
CONTINUOUS
 62
   127
 10
60.194117
 20
25.024945
 11
67.987008
 21
25.024945
  0
LINE
  8
St
  6
CONTINUOUS
 62
   127
 10
60.194117
 20
30.02494
 11
67.987008
 21
30.02494
  0
LINE
  8
St
  6
CONTINUOUS
 62
   127
 10
67.987008
 20
30.02494
 11
68.694123
 21
29.317795
  0
LINE
  8
St
  6
CONTINUOUS
 62
   127
 10
68.694123
 20
29.317795
 11
68.694123
 21
25.732052
  0
LINE
  8
St
  6
CONTINUOUS
 62
   127
 10
60.194117
 20
55.024945
 11
60.194117
 21
60.02494
  0
LINE
  8
St
  6
CONTINUOUS
 62
   127
 10
60.194117
 20
59.317795
 11
68.694123
 21
59.317795
  0
LINE
  8
St
  6
CONTINUOUS
 62
   127
 10
60.194117
 20
55.732052
 11
68.694123
 21
55.732052
  0
LINE
  8
St
  6
CONTINUOUS
 62
   127
 10
67.987008
 20
55.024945
 11
67.987008
 21
60.02494
  0
LINE
  8
St
  6
CONTINUOUS
 62
   127
 10
67.987008
 20
60.02494
 11
68.694123
 21
59.317795
  0
LINE
  8
St
  6
CONTINUOUS
 62
   127
 10
60.194117
 20
60.02494
 11
67.987008
 21
60.02494
  0
LINE
  8
St
  6
CONTINUOUS
 62
   127
 10
60.194117
 20
55.024945
 11
67.987008
 21
55.024945
  0
LINE
  8
St
  6
CONTINUOUS
 62
   127
 10
67.987008
 20
55.024945
 11
68.694123
 21
55.732052
  0
LINE
  8
St
  6
CONTINUOUS
 62
   127
 10
68.694123
 20
55.732052
 11
68.694123
 21
59.317795
  0
LINE
  8
St
  6
CONTINUOUS
 62
   127
 10
90.986867
 20
-56.475928
 11
91.693975
 21
-55.76882
  0
LINE
  8
St
  6
CONTINUOUS
 62
   127
 10
90.986867
 20
-51.475962
 11
91.693975
 21
-52.18307
  0
LINE
  8
St
  6
CONTINUOUS
 62
   127
 10
71.69398
 20
-49.975955
 11
71.69398
 21
-57.975935
  0
LINE
  8
St
  6
CONTINUOUS
 62
   127
 10
71.69398
 20
-49.975955
 11
76.693975
 21
-49.975955
  0
LINE
  8
St
  6
CONTINUOUS
 62
   127
 10
71.69398
 20
-57.975935
 11
76.693975
 21
-57.975935
  0
LINE
  8
St
  6
CONTINUOUS
 62
   127
 10
90.986867
 20
-21.475925
 11
90.986867
 21
-16.47596
  0
LINE
  8
St
  6
CONTINUOUS
 62
   127
 10
90.986867
 20
-16.47596
 11
91.693975
 21
-17.183068
  0
LINE
  8
St
  6
CONTINUOUS
 62
   127
 10
90.986867
 20
-21.475925
 11
91.693975
 21
-20.768818
  0
LINE
  8
St
  6
CONTINUOUS
 62
   127
 10
91.693975
 20
-20.768818
 11
91.693975
 21
-17.183068
  0
LINE
  8
St
  6
CONTINUOUS
 62
   127
 10
71.69398
 20
-22.975932
 11
71.69398
 21
-14.975953
  0
LINE
  8
St
  6
CONTINUOUS
 62
   127
 10
71.69398
 20
-22.975932
 11
76.693975
 21
-22.975932
  0
LINE
  8
St
  6
CONTINUOUS
 62
   127
 10
71.69398
 20
-14.975953
 11
76.693975
 21
-14.975953
  0
LINE
  8
St
  6
DOT
 62
   127
 10
103.993982
 20
-48.976167
 11
106.693975
 21
-48.976167
  0
LINE
  8
St
  6
DOT
 62
   127
 10
103.993982
 20
-23.976177
 11
106.693975
 21
-23.976177
  0
LINE
  8
St
  6
CONTINUOUS
 62
   127
 10
84.193975
 20
-29.575918
 11
84.193975
 21
-43.375932
  0
LINE
  8
St
  6
DOT
 62
   127
 10
86.69398
 20
-47.976185
 11
89.393973
 21
-47.976185
  0
LINE
  8
St
  6
DOT
 62
   127
 10
86.69398
 20
-24.97616
 11
89.393973
 21
-24.97616
  0
LINE
  8
St
  6
DOT
 62
   127
 10
61.693945
 20
32.524922
 11
64.39396
 21
32.524922
  0
LINE
  8
St
  6
DOT
 62
   127
 10
78.993978
 20
32.524922
 11
81.693963
 21
32.524922
  0
LINE
  8
St
  6
DOT
 62
   127
 10
61.693945
 20
52.52494
 11
64.39396
 21
52.52494
  0
LINE
  8
St
  6
DOT
 62
   127
 10
78.993978
 20
52.52494
 11
81.693963
 21
52.52494
  0
LINE
  8
St
  6
CONTINUOUS
 62
   127
 10
61.69396
 20
22.52494
 11
61.69396
 21
62.524922
  0
LINE
  8
St
  6
CONTINUOUS
 62
   127
 10
81.693993
 20
52.52494
 11
81.693993
 21
32.524922
  0
LINE
  8
St
  6
CONTINUOUS
 62
   127
 10
56.693973
 20
-24.475947
 11
59.193978
 21
-24.475947
  0
LINE
  8
St
  6
CONTINUOUS
 62
   127
 10
59.193978
 20
-48.475955
 11
59.193978
 21
-24.475947
  0
LINE
  8
St
  6
CONTINUOUS
 62
   127
 10
56.693973
 20
-48.475955
 11
59.193978
 21
-48.475955
  0
LINE
  8
St
  6
CONTINUOUS
 62
   127
 10
56.693973
 20
-48.475955
 11
56.693973
 21
-24.475947
  0
LINE
  8
St
  6
DOT
 62
   127
 10
56.693973
 20
-43.975947
 11
59.193978
 21
-43.975947
  0
LINE
  8
St
  6
DOT
 62
   127
 10
56.693973
 20
-28.975947
 11
59.193978
 21
-28.975947
  0
LINE
  8
St
  6
CONTINUOUS
 62
   127
 10
56.693973
 20
54.525152
 11
59.193978
 21
54.525152
  0
LINE
  8
St
  6
CONTINUOUS
 62
   127
 10
59.193978
 20
30.525152
 11
59.193978
 21
54.525152
  0
LINE
  8
St
  6
CONTINUOUS
 62
   127
 10
56.693973
 20
30.525152
 11
59.193978
 21
30.525152
  0
LINE
  8
St
  6
CONTINUOUS
 62
   127
 10
56.693973
 20
30.525152
 11
56.693973
 21
54.525152
  0
LINE
  8
St
  6
DOT
 62
   127
 10
56.693973
 20
35.025152
 11
59.193978
 21
35.025152
  0
LINE
  8
St
  6
DOT
 62
   127
 10
56.693973
 20
50.025152
 11
59.193978
 21
50.025152
  0
LINE
  8
St
  6
CONTINUOUS
 62
   127
 10
81.693963
 20
54.525152
 11
84.193975
 21
54.525152
  0
LINE
  8
St
  6
CONTINUOUS
 62
   127
 10
84.193975
 20
30.525152
 11
84.193975
 21
54.525152
  0
LINE
  8
St
  6
CONTINUOUS
 62
   127
 10
81.693963
 20
30.525152
 11
84.193975
 21
30.525152
  0
LINE
  8
St
  6
CONTINUOUS
 62
   127
 10
81.693963
 20
30.525152
 11
81.693963
 21
54.525152
  0
LINE
  8
St
  6
DOT
 62
   127
 10
81.693963
 20
35.025152
 11
84.193975
 21
35.025152
  0
LINE
  8
St
  6
DOT
 62
   127
 10
81.693963
 20
50.025152
 11
84.193975
 21
50.025152
  0
LINE
  8
St
  6
CONTINUOUS
 62
   127
 10
84.198475
 20
53.525147
 11
85.698482
 21
53.525147
  0
LINE
  8
St
  6
CONTINUOUS
 62
   127
 10
85.698482
 20
31.52515
 11
85.698482
 21
53.525147
  0
LINE
  8
St
  6
CONTINUOUS
 62
   127
 10
84.198475
 20
31.52515
 11
85.698482
 21
31.52515
  0
LINE
  8
St
  6
CONTINUOUS
 62
   127
 10
84.198475
 20
31.52515
 11
84.198475
 21
53.525147
  0
LINE
  8
St
  6
DOT
 62
   127
 10
84.198475
 20
47.775152
 11
85.698482
 21
47.775152
  0
LINE
  8
St
  6
DOT
 62
   127
 10
84.198475
 20
37.27516
 11
85.698482
 21
37.27516
  0
LINE
  8
St
  6
DASHDOTX2
 62
   127
 10
14.693958
 20
42.525152
 11
95.598497
 21
42.525152
  0
LINE
  8
St
  6
DASHDOTX2
 62
   127
 10
14.693958
 20
-36.475947
 11
95.598497
 21
-36.475947
  0
LINE
  8
St
  6
CONTINUOUS
 62
   127
 10
91.48684
 20
-46.27595
 11
92.193978
 21
-45.568843
  0
LINE
  8
St
  6
CONTINUOUS
 62
   127
 10
92.193978
 20
-27.383053
 11
91.48684
 21
-26.675945
  0
LINE
  8
St
  6
CONTINUOUS
 62
   127
 10
91.48684
 20
-32.036593
 11
92.193978
 21
-31.329507
  0
LINE
  8
St
  6
CONTINUOUS
 62
   127
 10
91.48684
 20
-40.97594
 11
92.193978
 21
-40.26884
  0
LINE
  8
St
  6
CONTINUOUS
 62
   127
 10
91.48684
 20
-32.036593
 11
92.193978
 21
-32.74373
  0
LINE
  8
St
  6
CONTINUOUS
 62
   127
 10
91.48684
 20
-40.97594
 11
92.193978
 21
-40.26884
  0
LINE
  8
St
  6
CONTINUOUS
 62
   127
 10
91.48684
 20
-40.97594
 11
92.193978
 21
-41.683047
  0
LINE
  8
St
  6
CONTINUOUS
 62
   127
 10
92.69398
 20
-29.225953
 11
94.114255
 21
-29.225953
  0
LINE
  8
St
  6
CONTINUOUS
 62
   127
 10
92.193978
 20
-28.72595
 11
92.193978
 21
-27.383053
  0
LINE
  8
St
  6
CONTINUOUS
 62
   127
 10
92.69398
 20
-43.72595
 11
94.114255
 21
-43.72595
  0
LINE
  8
St
  6
CONTINUOUS
 62
   127
 10
92.193978
 20
-44.225953
 11
92.193978
 21
-45.568843
  0
LINE
  8
St
  6
CONTINUOUS
 62
   127
 10
92.193978
 20
-44.225953
 11
92.193978
 21
-28.72595
  0
LINE
  8
St
  6
CONTINUOUS
 62
   127
 10
84.193975
 20
-27.383053
 11
84.901082
 21
-26.675945
  0
LINE
  8
St
  6
CONTINUOUS
 62
   127
 10
91.48684
 20
-26.675945
 11
84.901082
 21
-26.675945
  0
LINE
  8
St
  6
CONTINUOUS
 62
   127
 10
91.48684
 20
-46.27595
 11
84.901082
 21
-46.27595
  0
LINE
  8
St
  6
CONTINUOUS
 62
   127
 10
84.193975
 20
-45.568843
 11
84.901082
 21
-46.27595
  0
LINE
  8
St
  6
CONTINUOUS
 62
   127
 10
84.193975
 20
-27.383053
 11
84.193975
 21
-45.568843
  0
LINE
  8
St
  6
CONTINUOUS
 62
   127
 10
84.901082
 20
-32.036593
 11
84.193945
 21
-31.329507
  0
LINE
  8
St
  6
CONTINUOUS
 62
   127
 10
84.901082
 20
-40.97594
 11
84.193945
 21
-40.26884
  0
LINE
  8
St
  6
CONTINUOUS
 62
   127
 10
84.901082
 20
-32.036593
 11
84.193945
 21
-32.74373
  0
LINE
  8
St
  6
CONTINUOUS
 62
   127
 10
84.901082
 20
-40.97594
 11
84.193945
 21
-40.26884
  0
LINE
  8
St
  6
CONTINUOUS
 62
   127
 10
84.901082
 20
-40.97594
 11
84.193945
 21
-41.683047
  0
LINE
  8
St
  6
CONTINUOUS
 62
   127
 10
91.48684
 20
-32.036593
 11
84.901082
 21
-32.036593
  0
LINE
  8
St
  6
CONTINUOUS
 62
   127
 10
91.48684
 20
-40.97594
 11
84.901082
 21
-40.97594
  0
LINE
  8
St
  6
DASHDOTX2
 62
   127
 10
99.693978
 20
-36.475947
 11
84.193975
 21
-36.475947
  0
LINE
  8
St
  6
CONTINUOUS
 62
   127
 10
92.986847
 20
32.72515
 11
93.693978
 21
33.432258
  0
LINE
  8
St
  6
CONTINUOUS
 62
   127
 10
93.693978
 20
51.618047
 11
92.986847
 21
52.325155
  0
LINE
  8
St
  6
CONTINUOUS
 62
   127
 10
92.986847
 20
46.964508
 11
93.693978
 21
47.671593
  0
LINE
  8
St
  6
CONTINUOUS
 62
   127
 10
92.986847
 20
38.02516
 11
93.693978
 21
38.73226
  0
LINE
  8
St
  6
CONTINUOUS
 62
   127
 10
92.986847
 20
46.964508
 11
93.693978
 21
46.25737
  0
LINE
  8
St
  6
CONTINUOUS
 62
   127
 10
92.986847
 20
38.02516
 11
93.693978
 21
38.73226
  0
LINE
  8
St
  6
CONTINUOUS
 62
   127
 10
92.986847
 20
38.02516
 11
93.693978
 21
37.318052
  0
LINE
  8
St
  6
CONTINUOUS
 62
   127
 10
94.19398
 20
49.775147
 11
95.614263
 21
49.775147
  0
LINE
  8
St
  6
CONTINUOUS
 62
   127
 10
93.693978
 20
50.27515
 11
93.693978
 21
51.618047
  0
LINE
  8
St
  6
CONTINUOUS
 62
   127
 10
94.19398
 20
35.27515
 11
95.614263
 21
35.27515
  0
LINE
  8
St
  6
CONTINUOUS
 62
   127
 10
93.693978
 20
34.775147
 11
93.693978
 21
33.432258
  0
LINE
  8
St
  6
CONTINUOUS
 62
   127
 10
93.693978
 20
34.775147
 11
93.693978
 21
50.27515
  0
LINE
  8
St
  6
CONTINUOUS
 62
   127
 10
85.693975
 20
51.618047
 11
86.40109
 21
52.325155
  0
LINE
  8
St
  6
CONTINUOUS
 62
   127
 10
92.986847
 20
52.325155
 11
86.40109
 21
52.325155
  0
LINE
  8
St
  6
CONTINUOUS
 62
   127
 10
92.986847
 20
32.72515
 11
86.40109
 21
32.72515
  0
LINE
  8
St
  6
CONTINUOUS
 62
   127
 10
85.693975
 20
33.432258
 11
86.40109
 21
32.72515
  0
LINE
  8
St
  6
CONTINUOUS
 62
   127
 10
85.693975
 20
51.618047
 11
85.693975
 21
33.432258
  0
LINE
  8
St
  6
CONTINUOUS
 62
   127
 10
86.40109
 20
46.964508
 11
85.693952
 21
47.671593
  0
LINE
  8
St
  6
CONTINUOUS
 62
   127
 10
86.40109
 20
38.02516
 11
85.693952
 21
38.73226
  0
LINE
  8
St
  6
CONTINUOUS
 62
   127
 10
86.40109
 20
46.964508
 11
85.693952
 21
46.25737
  0
LINE
  8
St
  6
CONTINUOUS
 62
   127
 10
86.40109
 20
38.02516
 11
85.693952
 21
38.73226
  0
LINE
  8
St
  6
CONTINUOUS
 62
   127
 10
86.40109
 20
38.02516
 11
85.693952
 21
37.318052
  0
LINE
  8
St
  6
CONTINUOUS
 62
   127
 10
92.986847
 20
46.964508
 11
86.40109
 21
46.964508
  0
LINE
  8
St
  6
CONTINUOUS
 62
   127
 10
92.986847
 20
38.02516
 11
86.40109
 21
38.02516
  0
LINE
  8
St
  6
DASHDOTX2
 62
   127
 10
101.193978
 20
42.525152
 11
85.693975
 21
42.525152
  0
LINE
  8
St
  6
CONTINUOUS
 62
   127
 10
76.693975
 20
-57.975935
 11
76.693975
 21
-49.975955
  0
LINE
  8
St
  6
CONTINUOUS
 62
   127
 10
76.693975
 20
-22.975932
 11
76.693975
 21
-14.975953
  0
LINE
  8
St
  6
CONTINUOUS
 62
   127
 10
59.19394
 20
54.024745
 11
60.194117
 21
55.024945
  0
LINE
  8
St
  6
CONTINUOUS
 62
   127
 10
59.19394
 20
54.024745
 11
59.19394
 21
61.025117
  0
LINE
  8
St
  6
CONTINUOUS
 62
   127
 10
59.19394
 20
61.025117
 11
60.194117
 21
60.02494
  0
LINE
  8
St
  6
CONTINUOUS
 62
   127
 10
59.19394
 20
24.02476
 11
60.194117
 21
25.024945
  0
LINE
  8
St
  6
CONTINUOUS
 62
   127
 10
59.19394
 20
31.02514
 11
59.19394
 21
24.02476
  0
LINE
  8
St
  6
CONTINUOUS
 62
   127
 10
59.19394
 20
31.02514
 11
60.194117
 21
30.02494
  0
LINE
  8
St
  6
DASHDOT
 62
   127
 10
59.19394
 20
27.524928
 11
68.694123
 21
27.524928
  0
LINE
  8
St
  6
DASHDOT
 62
   127
 10
59.19394
 20
57.524942
 11
68.694123
 21
57.524942
  0
LINE
  8
St
  6
DOT
 62
   127
 10
84.193997
 20
-25.975955
 11
84.193997
 21
-46.97597
  0
LINE
  8
St
  6
DOT
 62
   127
 10
59.193978
 20
-43.475937
 11
84.193997
 21
-43.475937
  0
LINE
  8
St
  6
DOT
 62
   127
 10
59.193978
 20
-29.475912
 11
84.193997
 21
-29.475912
  0
LINE
  8
St
  6
CONTINUOUS
 62
   127
 10
76.693975
 20
-58.975947
 11
86.69398
 21
-58.975947
  0
LINE
  8
St
  6
CONTINUOUS
 62
   127
 10
76.693975
 20
-58.975947
 11
76.693975
 21
-13.975947
  0
LINE
  8
St
  6
CONTINUOUS
 62
   127
 10
76.693975
 20
-13.975947
 11
86.69398
 21
-13.975947
  0
LINE
  8
St
  6
CONTINUOUS
 62
   127
 10
86.69398
 20
-58.975947
 11
86.69398
 21
-13.975947
  0
LINE
  8
St
  6
CONTINUOUS
 62
   127
 10
59.193978
 20
-18.475955
 11
59.193978
 21
-54.475947
  0
LINE
  8
St
  6
CONTINUOUS
 62
   127
 10
59.193978
 20
-54.475947
 11
76.693975
 21
-54.475947
  0
LINE
  8
St
  6
CONTINUOUS
 62
   127
 10
59.193978
 20
-18.475955
 11
76.693975
 21
-18.475955
  0
LINE
  8
St
  6
DOT
 62
   127
 10
76.693975
 20
-16.225947
 11
86.69398
 21
-16.225947
  0
LINE
  8
St
  6
DOT
 62
   127
 10
76.693975
 20
-21.725953
 11
86.69398
 21
-21.725953
  0
LINE
  8
St
  6
DOT
 62
   127
 10
76.693975
 20
-51.22595
 11
86.69398
 21
-51.22595
  0
LINE
  8
St
  6
DOT
 62
   127
 10
76.693975
 20
-56.72594
 11
86.69398
 21
-56.72594
  0
LINE
  8
St
  6
DASHDOTX2
 62
   127
 10
74.693965
 20
-18.975943
 11
88.69399
 21
-18.975943
  0
LINE
  8
St
  6
DASHDOTX2
 62
   127
 10
74.693965
 20
-53.975945
 11
88.69399
 21
-53.975945
  0
LINE
  8
St
  6
DOTX2
 62
   127
 10
59.193978
 20
-23.975945
 11
76.693975
 21
-23.975945
  0
LINE
  8
St
  6
DOTX2
 62
   127
 10
59.193978
 20
-48.975943
 11
76.693975
 21
-48.975943
  0
LINE
  8
St
  6
CONTINUOUS
 62
   127
 10
76.693975
 20
-16.47596
 11
90.986867
 21
-16.47596
  0
LINE
  8
St
  6
CONTINUOUS
 62
   127
 10
76.693975
 20
-20.768818
 11
90.986867
 21
-20.768818
  0
LINE
  8
St
  6
CONTINUOUS
 62
   127
 10
76.693975
 20
-21.475925
 11
90.986867
 21
-21.475925
  0
LINE
  8
St
  6
CONTINUOUS
 62
   127
 10
76.693975
 20
-17.183068
 11
91.693975
 21
-17.183068
  0
LINE
  8
St
  6
DASHDOT
 62
   127
 10
71.69398
 20
-18.975943
 11
91.693975
 21
-18.975943
  0
LINE
  8
St
  6
CONTINUOUS
 62
   127
 10
76.693975
 20
-51.475962
 11
90.986867
 21
-51.475962
  0
LINE
  8
St
  6
CONTINUOUS
 62
   127
 10
76.693975
 20
-56.475928
 11
90.986867
 21
-56.475928
  0
LINE
  8
St
  6
CONTINUOUS
 62
   127
 10
90.986867
 20
-51.475962
 11
90.986867
 21
-56.475928
  0
LINE
  8
St
  6
CONTINUOUS
 62
   127
 10
76.693975
 20
-55.76882
 11
91.693975
 21
-55.76882
  0
LINE
  8
St
  6
CONTINUOUS
 62
   127
 10
76.693975
 20
-52.18307
 11
91.693975
 21
-52.18307
  0
LINE
  8
St
  6
CONTINUOUS
 62
   127
 10
91.693975
 20
-52.18307
 11
91.693975
 21
-55.76882
  0
LINE
  8
St
  6
DASHDOT
 62
   127
 10
71.69398
 20
-53.975945
 11
91.693975
 21
-53.975945
  0
LINE
  8
St
  6
DOT
 62
   127
 10
53.19397
 20
49.52515
 11
53.19397
 21
35.525155
  0
LINE
  8
St
  6
DOT
 62
   127
 10
53.19397
 20
49.52515
 11
56.19397
 21
49.52515
  0
LINE
  8
St
  6
DOT
 62
   127
 10
53.19397
 20
35.525155
 11
56.19397
 21
35.525155
  0
LINE
  8
St
  6
DOT
 62
   127
 10
53.19397
 20
47.525147
 11
1.617265
 21
47.525147
  0
LINE
  8
St
  6
DOT
 62
   127
 10
53.19397
 20
37.525158
 11
1.617265
 21
37.525158
  0
LINE
  8
St
  6
DOT
 62
   127
 10
53.19397
 20
-29.47595
 11
53.19397
 21
-43.475945
  0
LINE
  8
St
  6
DOT
 62
   127
 10
53.19397
 20
-29.47595
 11
56.19397
 21
-29.47595
  0
LINE
  8
St
  6
DOT
 62
   127
 10
53.19397
 20
-43.475945
 11
56.19397
 21
-43.475945
  0
LINE
  8
St
  6
DOT
 62
   127
 10
53.19397
 20
-31.47596
 11
1.617265
 21
-31.47596
  0
LINE
  8
St
  6
DOT
 62
   127
 10
53.19397
 20
-41.475943
 11
1.617265
 21
-41.475943
  0
LINE
  8
St
  6
CONTINUOUS
 62
   127
 10
53.19397
 20
-29.575918
 11
84.193975
 21
-29.575918
  0
LINE
  8
St
  6
CONTINUOUS
 62
   127
 10
84.193975
 20
-43.375932
 11
53.19397
 21
-43.375932
  0
LINE
  8
St
  6
CONTINUOUS
 62
   127
 10
53.19397
 20
-29.575918
 11
53.19397
 21
-43.375932
  0
LINE
  8
St
  6
CONTINUOUS
 62
   127
 10
5.19397
 20
-40.475937
 11
5.19397
 21
-32.475935
  0
LINE
  8
St
  6
CONTINUOUS
 62
   127
 10
6.193997
 20
-41.475943
 11
6.193997
 21
-31.47593
  0
LINE
  8
St
  6
CONTINUOUS
 62
   127
 10
6.193997
 20
-41.475943
 11
5.19397
 21
-40.475937
  0
LINE
  8
St
  6
CONTINUOUS
 62
   127
 10
6.193997
 20
-31.47593
 11
5.19397
 21
-32.475935
  0
LINE
  8
St
  6
CONTINUOUS
 62
   127
 10
30.193982
 20
-41.475958
 11
30.193982
 21
-31.475945
  0
LINE
  8
St
  6
CONTINUOUS
 62
   127
 10
6.193997
 20
-31.47593
 11
53.19397
 21
-31.47593
  0
LINE
  8
St
  6
CONTINUOUS
 62
   127
 10
6.193997
 20
-41.475943
 11
53.19397
 21
-41.475943
  0
LINE
  8
St
  6
CONTINUOUS
 62
   127
 10
5.444012
 20
-40.72595
 11
30.193982
 21
-40.72595
  0
LINE
  8
St
  6
CONTINUOUS
 62
   127
 10
5.444012
 20
-32.225922
 11
30.193982
 21
-32.225922
  0
LINE
  8
St
  6
CONTINUOUS
 62
   127
 10
94.59847
 20
47.52517
 11
84.198475
 21
47.52517
  0
LINE
  8
St
  6
CONTINUOUS
 62
   127
 10
95.348462
 20
46.775178
 11
84.198475
 21
46.775178
  0
LINE
  8
St
  6
CONTINUOUS
 62
   127
 10
95.598497
 20
38.525163
 11
95.598497
 21
46.525165
  0
LINE
  8
St
  6
CONTINUOUS
 62
   127
 10
94.59847
 20
37.525158
 11
94.59847
 21
47.52517
  0
LINE
  8
St
  6
CONTINUOUS
 62
   127
 10
95.348462
 20
38.27515
 11
84.198475
 21
38.27515
  0
LINE
  8
St
  6
CONTINUOUS
 62
   127
 10
94.59847
 20
37.525158
 11
84.198475
 21
37.525158
  0
LINE
  8
St
  6
CONTINUOUS
 62
   127
 10
94.59847
 20
37.525158
 11
95.598497
 21
38.525163
  0
LINE
  8
St
  6
CONTINUOUS
 62
   127
 10
94.59847
 20
47.52517
 11
95.598497
 21
46.525165
  0
LINE
  8
St
  6
CONTINUOUS
 62
   127
 10
84.193975
 20
49.425182
 11
84.193975
 21
35.625167
  0
LINE
  8
St
  6
CONTINUOUS
 62
   127
 10
53.19397
 20
49.425182
 11
84.193975
 21
49.425182
  0
LINE
  8
St
  6
CONTINUOUS
 62
   127
 10
84.193975
 20
35.625167
 11
53.19397
 21
35.625167
  0
LINE
  8
St
  6
CONTINUOUS
 62
   127
 10
53.19397
 20
49.425182
 11
53.19397
 21
35.625167
  0
LINE
  8
St
  6
CONTINUOUS
 62
   127
 10
5.19397
 20
38.525163
 11
5.19397
 21
46.525165
  0
LINE
  8
St
  6
CONTINUOUS
 62
   127
 10
6.193997
 20
37.525158
 11
6.193997
 21
47.52517
  0
LINE
  8
St
  6
CONTINUOUS
 62
   127
 10
6.193997
 20
37.525158
 11
5.19397
 21
38.525163
  0
LINE
  8
St
  6
CONTINUOUS
 62
   127
 10
6.193997
 20
47.52517
 11
5.19397
 21
46.525165
  0
LINE
  8
St
  6
CONTINUOUS
 62
   127
 10
30.193982
 20
37.52515
 11
30.193982
 21
47.525155
  0
LINE
  8
St
  6
CONTINUOUS
 62
   127
 10
6.193997
 20
47.52517
 11
53.19397
 21
47.52517
  0
LINE
  8
St
  6
CONTINUOUS
 62
   127
 10
6.193997
 20
37.525158
 11
53.19397
 21
37.525158
  0
LINE
  8
St
  6
CONTINUOUS
 62
   127
 10
5.444012
 20
38.27515
 11
30.193982
 21
38.27515
  0
LINE
  8
St
  6
CONTINUOUS
 62
   127
 10
5.444012
 20
46.775178
 11
30.193982
 21
46.775178
  0
LINE
  8
St
  6
CONTINUOUS
 62
   127
 10
86.69398
 20
-48.900958
 11
89.693988
 21
-48.900958
  0
LINE
  8
St
  6
DOT
 62
   127
 10
84.193997
 20
-46.97597
 11
89.693988
 21
-46.97597
  0
LINE
  8
St
  6
CONTINUOUS
 62
   127
 10
86.69398
 20
-24.05096
 11
89.693988
 21
-24.05096
  0
LINE
  8
St
  6
CONTINUOUS
 62
   127
 10
89.693988
 20
-48.900958
 11
89.693988
 21
-24.05096
  0
LINE
  8
St
  6
DOT
 62
   127
 10
84.193997
 20
-25.975955
 11
89.693988
 21
-25.975955
  0
CIRCLE
  8
St
  6
CONTINUOUS
 62
   127
 10
14.693958
 20
42.525152
 40
13.999995
  0
ARC
  8
St
  6
CONTINUOUS
 62
   127
 10
49.54236
 20
46.855403
 40
3.149353
 50
332.71606
 51
359.994507
  0
ARC
  8
St
  6
CONTINUOUS
 62
   127
 10
40.61968
 20
42.525157
 40
12.072068
 50
346.159304
 51
373.829709
  0
ARC
  8
St
  6
CONTINUOUS
 62
   127
 10
49.54236
 20
38.195059
 40
3.149353
 50
359.994522
 51
387.272969
  0
ARC
  8
St
  6
CONTINUOUS
 62
   127
 10
42.691717
 20
24.525097
 40
2.5
 50
11.531655
 51
168.460121
  0
ARC
  8
St
  6
CONTINUOUS
 62
   127
 10
39.691707
 20
25.52515
 40
0.5
 50
179.997253
 51
269.998627
  0
ARC
  8
St
  6
CONTINUOUS
 62
   127
 10
45.691726
 20
25.52515
 40
0.5
 50
269.998627
 51
359.994507
  0
ARC
  8
St
  6
CONTINUOUS
 62
   127
 10
42.691717
 20
60.525216
 40
2.5
 50
191.534401
 51
348.457374
  0
ARC
  8
St
  6
CONTINUOUS
 62
   127
 10
39.691707
 20
59.525163
 40
0.5
 50
89.99588
 51
179.997253
  0
ARC
  8
St
  6
CONTINUOUS
 62
   127
 10
45.691726
 20
59.525163
 40
0.5
 50
359.994507
 51
449.99588
  0
ARC
  8
St
  6
CONTINUOUS
 62
   127
 10
14.705802
 20
42.525157
 40
15.249999
 50
29.435859
 51
330.558663
  0
ARC
  8
St
  6
CONTINUOUS
 62
   127
 10
27.551022
 20
35.275145
 40
0.5
 50
330.558663
 51
449.99588
  0
ARC
  8
St
  6
CONTINUOUS
 62
   127
 10
27.551022
 20
49.77515
 40
0.5
 50
269.998642
 51
389.435874
  0
CIRCLE
  8
St
  6
CONTINUOUS
 62
   127
 10
14.693958
 20
-36.475947
 40
13.999995
  0
ARC
  8
St
  6
CONTINUOUS
 62
   127
 10
49.54236
 20
-32.145699
 40
3.149353
 50
332.71606
 51
359.994507
  0
ARC
  8
St
  6
CONTINUOUS
 62
   127
 10
40.61968
 20
-36.475945
 40
12.072068
 50
346.159304
 51
373.829709
  0
ARC
  8
St
  6
CONTINUOUS
 62
   127
 10
49.54236
 20
-40.806043
 40
3.149353
 50
359.994522
 51
387.272969
  0
ARC
  8
St
  6
CONTINUOUS
 62
   127
 10
42.691717
 20
-54.476005
 40
2.5
 50
11.531655
 51
168.460121
  0
ARC
  8
St
  6
CONTINUOUS
 62
   127
 10
39.691707
 20
-53.475952
 40
0.5
 50
179.997253
 51
269.998627
  0
ARC
  8
St
  6
CONTINUOUS
 62
   127
 10
45.691726
 20
-53.475952
 40
0.5
 50
269.998627
 51
359.994507
  0
ARC
  8
St
  6
CONTINUOUS
 62
   127
 10
42.691717
 20
-18.475886
 40
2.5
 50
191.534401
 51
348.457374
  0
ARC
  8
St
  6
CONTINUOUS
 62
   127
 10
39.691707
 20
-19.475939
 40
0.5
 50
89.99588
 51
179.997253
  0
ARC
  8
St
  6
CONTINUOUS
 62
   127
 10
45.691726
 20
-19.475939
 40
0.5
 50
359.994507
 51
449.99588
  0
ARC
  8
St
  6
CONTINUOUS
 62
   127
 10
14.705802
 20
-36.475945
 40
15.249999
 50
29.435859
 51
330.558663
  0
ARC
  8
St
  6
CONTINUOUS
 62
   127
 10
27.551022
 20
-43.725957
 40
0.5
 50
330.558663
 51
449.99588
  0
ARC
  8
St
  6
CONTINUOUS
 62
   127
 10
27.551022
 20
-29.225958
 40
0.5
 50
269.998642
 51
389.435874
  0
ARC
  8
St
  6
CONTINUOUS
 62
   127
 10
92.193995
 20
-36.475945
 40
7.5
 50
284.833936
 51
435.160571
  0
ARC
  8
St
  6
CONTINUOUS
 62
   127
 10
92.693997
 20
-28.725944
 40
0.5
 50
179.997253
 51
269.998627
  0
ARC
  8
St
  6
CONTINUOUS
 62
   127
 10
92.693997
 20
-44.225946
 40
0.5
 50
89.99588
 51
179.997253
  0
ARC
  8
St
  6
CONTINUOUS
 62
   127
 10
93.694
 20
42.525157
 40
7.5
 50
284.833936
 51
435.160571
  0
ARC
  8
St
  6
CONTINUOUS
 62
   127
 10
94.194002
 20
50.275158
 40
0.5
 50
179.997253
 51
269.998627
  0
ARC
  8
St
  6
CONTINUOUS
 62
   127
 10
94.194002
 20
34.775156
 40
0.5
 50
89.99588
 51
179.997253
  0
ARC
  8
St
  6
CONTINUOUS
 10
101.693996
 20
-56.476141
 40
5.0
 50
-90.0
 51
0.0
  0
LINE
  8
St
  6
CONTINUOUS
 62
   127
 10
91.693982
 20
-61.476148
 11
101.693973
 21
-61.476148
  0
ARC
  8
St
  6
CONTINUOUS
 10
91.694001
 20
-56.476141
 40
5.0
 50
180.0
 51
270.0
  0
LINE
  8
St
  6
CONTINUOUS
 62
   127
 10
106.693975
 20
-16.47617
 11
106.693975
 21
-56.476145
  0
ARC
  8
St
  6
CONTINUOUS
 10
101.693996
 20
-16.476161
 40
5.0
 50
0.0
 51
90.0
  0
LINE
  8
St
  6
CONTINUOUS
 62
   127
 10
91.693982
 20
-11.476167
 11
101.693973
 21
-11.476167
  0
LINE
  8
St
  6
CONTINUOUS
 62
   127
 10
86.69398
 20
-16.47617
 11
86.69398
 21
-56.476145
  0
ARC
  8
St
  6
CONTINUOUS
 10
91.694001
 20
-16.476161
 40
5.0
 50
90.0
 51
180.0
  0
ARC
  8
St
  6
CONTINUOUS
 10
91.693993
 20
-16.476146
 40
2.3
 50
90.0
 51
180.0
  0
LINE
  8
St
  6
CONTINUOUS
 62
   127
 10
91.693975
 20
-14.176152
 11
101.69398
 21
-14.176152
  0
ARC
  8
St
  6
CONTINUOUS
 10
101.694003
 20
-16.476146
 40
2.3
 50
0.0
 51
90.0
  0
LINE
  8
St
  6
CONTINUOUS
 62
   127
 10
103.993982
 20
-16.476155
 11
103.993982
 21
-56.476138
  0
ARC
  8
St
  6
CONTINUOUS
 10
101.694003
 20
-56.476133
 40
2.3
 50
-90.0
 51
0.0
  0
LINE
  8
St
  6
CONTINUOUS
 62
   127
 10
91.693975
 20
-58.77614
 11
101.69398
 21
-58.77614
  0
LINE
  8
St
  6
CONTINUOUS
 62
   127
 10
89.393973
 20
-16.476155
 11
89.393973
 21
-56.476138
  0
ARC
  8
St
  6
CONTINUOUS
 10
91.693993
 20
-56.476133
 40
2.3
 50
180.0
 51
270.0
  0
ARC
  8
St
  6
CONTINUOUS
 10
66.693966
 20
22.524929
 40
5.0
 50
180.0
 51
270.0
  0
LINE
  8
St
  6
CONTINUOUS
 62
   127
 10
66.693947
 20
17.524922
 11
76.69396
 21
17.524922
  0
ARC
  8
St
  6
CONTINUOUS
 10
76.693983
 20
22.524929
 40
5.0
 50
-90.0
 51
0.0
  0
LINE
  8
St
  6
CONTINUOUS
 62
   127
 10
81.693963
 20
62.524937
 11
81.693963
 21
22.524925
  0
ARC
  8
St
  6
CONTINUOUS
 10
76.693983
 20
62.524947
 40
5.0
 50
0.0
 51
90.0
  0
LINE
  8
St
  6
CONTINUOUS
 62
   127
 10
66.693947
 20
67.52494
 11
76.69396
 21
67.52494
  0
LINE
  8
St
  6
CONTINUOUS
 62
   127
 10
61.693945
 20
62.524937
 11
61.693945
 21
22.524925
  0
ARC
  8
St
  6
CONTINUOUS
 10
66.693966
 20
62.524947
 40
5.0
 50
90.0
 51
180.0
  0
ARC
  8
St
  6
CONTINUOUS
 10
66.693981
 20
62.524954
 40
2.3
 50
90.0
 51
180.0
  0
LINE
  8
St
  6
CONTINUOUS
 62
   127
 10
66.693963
 20
64.824948
 11
76.693975
 21
64.824948
  0
ARC
  8
St
  6
CONTINUOUS
 10
76.693998
 20
62.524954
 40
2.3
 50
0.0
 51
90.0
  0
LINE
  8
St
  6
CONTINUOUS
 62
   127
 10
64.39396
 20
62.524945
 11
64.39396
 21
22.52491
  0
ARC
  8
St
  6
CONTINUOUS
 10
66.693981
 20
22.524914
 40
2.3
 50
180.0
 51
270.0
  0
LINE
  8
St
  6
CONTINUOUS
 62
   127
 10
66.693963
 20
20.224907
 11
76.693975
 21
20.224907
  0
LINE
  8
St
  6
CONTINUOUS
 62
   127
 10
78.993978
 20
62.524945
 11
78.993978
 21
22.52491
  0
ARC
  8
St
  6
CONTINUOUS
 10
76.693998
 20
22.524914
 40
2.3
 50
-90.0
 51
0.0
  0
LINE
  8
St
  6
DASHDOT
 10
106.693975
 20
3.024393
 11
61.69396
 21
3.024393
  0
LINE
  8
St
  6
DOT
 62
   127
 10
61.693952
 20
-16.476155
 11
61.693952
 21
-56.476138
  0
ARC
  8
St
  6
DOT
 10
66.693958
 20
-16.476136
 40
5.0
 50
90.0
 51
180.0
  0
LINE
  8
St
  6
DOT
 62
   127
 10
66.69394
 20
-11.476138
 11
76.693952
 21
-11.476138
  0
ARC
  8
St
  6
DOT
 10
76.693976
 20
-16.476136
 40
5.0
 50
0.0
 51
90.0
  0
LINE
  8
St
  6
DOT
 62
   127
 10
81.693955
 20
-56.476152
 11
81.693955
 21
-16.47614
  0
ARC
  8
St
  6
DOT
 10
76.693976
 20
-56.476154
 40
5.0
 50
270.0
 51
360.0
  0
LINE
  8
St
  6
DOT
 62
   127
 10
66.69394
 20
-61.476155
 11
76.693952
 21
-61.476155
  0
ARC
  8
St
  6
DOT
 10
66.693958
 20
-56.476154
 40
5.0
 50
180.0
 51
270.0
  0
ARC
  8
St
  6
DOT
 10
66.693973
 20
-56.476161
 40
2.3
 50
180.0
 51
270.0
  0
LINE
  8
St
  6
DOT
 62
   127
 10
66.693955
 20
-58.776163
 11
76.693967
 21
-58.776163
  0
ARC
  8
St
  6
DOT
 10
76.693991
 20
-56.476161
 40
2.3
 50
270.0
 51
360.0
  0
LINE
  8
St
  6
DOT
 62
   127
 10
64.393952
 20
-56.47616
 11
64.393952
 21
-16.476125
  0
ARC
  8
St
  6
DOT
 10
66.693973
 20
-16.476121
 40
2.3
 50
90.0
 51
180.0
  0
LINE
  8
St
  6
DOT
 62
   127
 10
66.693955
 20
-14.176123
 11
76.693967
 21
-14.176123
  0
LINE
  8
St
  6
DOT
 62
   127
 10
78.99397
 20
-56.47616
 11
78.99397
 21
-16.476125
  0
ARC
  8
St
  6
DOT
 10
76.693991
 20
-16.476121
 40
2.3
 50
0.0
 51
90.0
  0
LINE
  8
St
  6
DOT
 62
   127
 10
86.693965
 20
22.52494
 11
86.693965
 21
62.524922
  0
ARC
  8
St
  6
DOT
 10
91.693971
 20
22.524929
 40
5.0
 50
180.0
 51
270.0
  0
LINE
  8
St
  6
DOT
 62
   127
 10
91.693952
 20
17.524922
 11
101.693965
 21
17.524922
  0
ARC
  8
St
  6
DOT
 10
101.693988
 20
22.524929
 40
5.0
 50
-90.0
 51
0.0
  0
LINE
  8
St
  6
DOT
 62
   127
 10
106.693967
 20
62.524937
 11
106.693967
 21
22.524925
  0
ARC
  8
St
  6
DOT
 10
101.693988
 20
62.524947
 40
5.0
 50
0.0
 51
90.0
  0
LINE
  8
St
  6
DOT
 62
   127
 10
91.693952
 20
67.52494
 11
101.693965
 21
67.52494
  0
ARC
  8
St
  6
DOT
 10
91.693971
 20
62.524947
 40
5.0
 50
90.0
 51
180.0
  0
ARC
  8
St
  6
DOT
 10
91.693986
 20
62.524954
 40
2.3
 50
90.0
 51
180.0
  0
LINE
  8
St
  6
DOT
 62
   127
 10
91.693967
 20
64.824948
 11
101.69398
 21
64.824948
  0
ARC
  8
St
  6
DOT
 10
101.694003
 20
62.524954
 40
2.3
 50
0.0
 51
90.0
  0
LINE
  8
St
  6
DOT
 62
   127
 10
89.393965
 20
62.524945
 11
89.393965
 21
22.52491
  0
ARC
  8
St
  6
DOT
 10
91.693986
 20
22.524914
 40
2.3
 50
180.0
 51
270.0
  0
LINE
  8
St
  6
DOT
 62
   127
 10
91.693967
 20
20.224907
 11
101.69398
 21
20.224907
  0
LINE
  8
St
  6
DOT
 62
   127
 10
103.993982
 20
62.524945
 11
103.993982
 21
22.52491
  0
ARC
  8
St
  6
DOT
 10
101.694003
 20
22.524914
 40
2.3
 50
-90.0
 51
0.0
  0
LINE
  8
St
  6
DOT
 10
106.693975
 20
-16.225947
 11
106.693975
 21
22.524925
  0
LINE
  8
St
  6
DOT
 10
86.69398
 20
-16.225947
 11
86.69398
 21
22.50994
  0
LINE
  8
St
  6
DOT
 10
61.69396
 20
22.52494
 11
61.69396
 21
-16.463908
  0
LINE
  8
St
  6
DOT
 10
81.693963
 20
22.52494
 11
81.693963
 21
-16.47614
  0
ENDBLK
  0
BLOCK
  2
*GRP_0095
 70
    65
 10
0.0
 20
0.0
  0
ARC
  8
型材断面
  6
CONTINUOUS
 62
    47
 10
42.693961
 20
-18.475948
 40
2.2
 50
180.0
 51
360.0
  0
ARC
  8
型材断面
  6
CONTINUOUS
 62
    47
 10
28.138291
 20
-44.775948
 40
0.3
 50
90.0
 51
148.310451
  0
ARC
  8
型材断面
  6
CONTINUOUS
 62
    47
 10
28.138291
 20
-28.175948
 40
0.3
 50
211.689549
 51
270.0
  0
LINE
  8
型材断面
  6
CONTINUOUS
 62
    47
 10
43.693967
 20
-58.47596
 11
43.693967
 21
-57.329112
  0
LINE
  8
型材断面
  6
CONTINUOUS
 62
    47
 10
30.193967
 20
-58.47596
 11
42.193967
 21
-58.47596
  0
LINE
  8
型材断面
  6
CONTINUOUS
 62
    47
 10
43.693967
 20
-57.329112
 11
42.193967
 21
-58.47596
  0
LINE
  8
型材断面
  6
CONTINUOUS
 62
    47
 10
43.693967
 20
-15.622812
 11
43.693967
 21
-14.475965
  0
LINE
  8
型材断面
  6
CONTINUOUS
 62
    47
 10
43.693967
 20
-15.622812
 11
42.193967
 21
-14.475965
  0
LINE
  8
型材断面
  6
CONTINUOUS
 62
    47
 10
44.843418
 20
-53.199365
 11
44.843418
 21
-54.475962
  0
LINE
  8
型材断面
  6
CONTINUOUS
 62
    47
 10
40.544463
 20
-53.199365
 11
40.544463
 21
-54.475962
  0
ARC
  8
型材断面
  6
CONTINUOUS
 62
    47
 10
42.69396
 20
-54.475952
 40
2.5
 50
30.706651
 51
149.29391
  0
LINE
  8
型材断面
  6
CONTINUOUS
 62
    47
 10
30.193967
 20
-23.475965
 11
30.193967
 21
-28.47596
  0
LINE
  8
型材断面
  6
CONTINUOUS
 62
    47
 10
28.138263
 20
-28.47596
 11
30.193967
 21
-28.47596
  0
LINE
  8
型材断面
  6
CONTINUOUS
 62
    47
 10
30.193967
 20
-49.47596
 11
30.193967
 21
-44.475965
  0
LINE
  8
型材断面
  6
CONTINUOUS
 62
    47
 10
28.138263
 20
-44.475965
 11
30.193967
 21
-44.475965
  0
LINE
  8
型材断面
  6
CONTINUOUS
 62
    47
 10
19.517065
 20
-54.475962
 11
27.689515
 21
-54.475962
  0
LINE
  8
型材断面
  6
CONTINUOUS
 62
    47
 10
27.689515
 20
-48.80831
 11
27.689515
 21
-54.475962
  0
LINE
  8
型材断面
  6
CONTINUOUS
 62
    47
 10
27.689515
 20
-48.80831
 11
26.640618
 21
-47.812962
  0
ARC
  8
型材断面
  6
CONTINUOUS
 62
    47
 10
14.693961
 20
-36.475948
 40
15.5
 50
319.974578
 51
328.310451
  0
ARC
  8
型材断面
  6
CONTINUOUS
 62
    47
 10
27.328988
 20
-47.087551
 40
1.0
 50
139.974578
 51
226.500153
  0
LINE
  8
型材断面
  6
CONTINUOUS
 62
    47
 10
18.956612
 20
-52.38446
 11
19.517065
 21
-54.475962
  0
ARC
  8
型材断面
  6
CONTINUOUS
 62
    47
 10
17.990698
 20
-52.643246
 40
1.0
 50
15.000058
 51
101.525393
  0
LINE
  8
型材断面
  6
CONTINUOUS
 62
    47
 10
19.517065
 20
-18.475962
 11
27.689515
 21
-18.475962
  0
LINE
  8
型材断面
  6
CONTINUOUS
 62
    47
 10
27.689515
 20
-24.143615
 11
27.689515
 21
-18.475962
  0
LINE
  8
型材断面
  6
CONTINUOUS
 62
    47
 10
27.689515
 20
-24.143615
 11
26.640618
 21
-25.139015
  0
ARC
  8
型材断面
  6
CONTINUOUS
 62
    47
 10
27.328988
 20
-25.864351
 40
1.0
 50
133.499847
 51
220.025422
  0
LINE
  8
型材断面
  6
CONTINUOUS
 62
    47
 10
18.956612
 20
-20.56751
 11
19.517065
 21
-18.475962
  0
ARC
  8
型材断面
  6
CONTINUOUS
 62
    47
 10
17.990698
 20
-20.308656
 40
1.0
 50
258.474607
 51
344.999942
  0
ARC
  8
型材断面
  6
CONTINUOUS
 62
    47
 10
14.693961
 20
-36.475948
 40
15.5
 50
78.474603
 51
281.525393
  0
ARC
  8
型材断面
  6
CONTINUOUS
 62
    47
 10
14.693961
 20
-36.475948
 40
15.5
 50
31.689549
 51
40.025407
  0
LINE
  8
型材断面
  6
CONTINUOUS
 62
    47
 10
30.193967
 20
-23.475965
 11
33.693917
 21
-19.976015
  0
LINE
  8
型材断面
  6
CONTINUOUS
 62
    47
 10
33.693917
 20
-19.976015
 11
33.693917
 21
-18.475962
  0
LINE
  8
型材断面
  6
CONTINUOUS
 62
    47
 10
40.493965
 20
-18.475962
 11
33.693917
 21
-18.475962
  0
LINE
  8
型材断面
  6
CONTINUOUS
 62
    47
 10
30.193967
 20
-49.47596
 11
33.693917
 21
-52.97591
  0
LINE
  8
型材断面
  6
CONTINUOUS
 62
    47
 10
33.693917
 20
-52.97591
 11
33.693917
 21
-54.475962
  0
LINE
  8
型材断面
  6
CONTINUOUS
 62
    47
 10
40.544463
 20
-54.475962
 11
33.693917
 21
-54.475962
  0
LINE
  8
型材断面
  6
CONTINUOUS
 62
    47
 10
42.193967
 20
-14.475965
 11
30.193967
 21
-14.475965
  0
ARC
  8
型材断面
  6
CONTINUOUS
 62
    47
 10
14.693963
 20
-36.475951
 40
17.499998
 50
79.917098
 51
177.543714
  0
LINE
  8
型材断面
  6
CONTINUOUS
 62
    47
 10
17.757715
 20
-19.246265
 11
18.366063
 21
-16.975962
  0
ARC
  8
型材断面
  6
CONTINUOUS
 62
    47
 10
67.44397
 20
-90.226009
 40
0.75
 50
90.0
 51
180.0
  0
LINE
  8
型材断面
  6
CONTINUOUS
 62
    47
 10
66.693963
 20
-90.22601
 11
66.693963
 21
-90.22601
  0
ARC
  8
型材断面
  6
CONTINUOUS
 62
    47
 10
67.44397
 20
-90.226009
 40
0.75
 50
180.0
 51
270.0
  0
LINE
  8
型材断面
  6
CONTINUOUS
 62
    47
 10
67.443963
 20
-89.47601
 11
72.693963
 21
-89.47601
  0
LINE
  8
型材断面
  6
CONTINUOUS
 62
    47
 10
67.443963
 20
-90.97601
 11
74.693965
 21
-90.97601
  0
LINE
  8
型材断面
  6
CONTINUOUS
 62
    47
 10
107.693965
 20
-70.47596
 11
107.693965
 21
-84.475962
  0
LINE
  8
型材断面
  6
CONTINUOUS
 62
    47
 10
107.693965
 20
-70.47596
 11
105.693963
 21
-70.47596
  0
ARC
  8
型材断面
  6
CONTINUOUS
 62
    47
 10
18.94397
 20
-90.226009
 40
0.75
 50
0.0
 51
90.0
  0
LINE
  8
型材断面
  6
CONTINUOUS
 62
    47
 10
19.693967
 20
-90.22601
 11
19.693967
 21
-90.22601
  0
ARC
  8
型材断面
  6
CONTINUOUS
 62
    47
 10
18.94397
 20
-90.226009
 40
0.75
 50
-90.0
 51
0.0
  0
LINE
  8
型材断面
  6
CONTINUOUS
 62
    47
 10
43.693967
 20
-14.475965
 11
50.193963
 21
-14.475965
  0
LINE
  8
型材断面
  6
CONTINUOUS
 62
    47
 10
50.193963
 20
-14.475965
 11
50.193963
 21
-18.475962
  0
LINE
  8
型材断面
  6
CONTINUOUS
 62
    47
 10
44.893967
 20
-18.475962
 11
50.193963
 21
-18.475962
  0
LINE
  8
型材断面
  6
CONTINUOUS
 62
    47
 10
44.843418
 20
-54.475962
 11
50.193963
 21
-54.475962
  0
LINE
  8
型材断面
  6
CONTINUOUS
 62
    47
 10
50.193963
 20
-54.475962
 11
50.193963
 21
-58.47596
  0
LINE
  8
型材断面
  6
CONTINUOUS
 62
    47
 10
43.693967
 20
-58.47596
 11
50.193963
 21
-58.47596
  0
LINE
  8
型材断面
  6
CONTINUOUS
 62
    47
 10
0.293913
 20
-89.47601
 11
0.293913
 21
-90.97601
  0
LINE
  8
型材断面
  6
CONTINUOUS
 62
    47
 10
2.793917
 20
-88.476012
 11
1.793913
 21
-89.47601
  0
LINE
  8
型材断面
  6
CONTINUOUS
 62
    47
 10
0.293913
 20
-89.47601
 11
1.793913
 21
-89.47601
  0
LINE
  8
型材断面
  6
CONTINUOUS
 62
    47
 10
18.943967
 20
-90.97601
 11
5.593915
 21
-90.97601
  0
LINE
  8
型材断面
  6
CONTINUOUS
 62
    47
 10
4.993915
 20
-90.97601
 11
0.293913
 21
-90.97601
  0
LINE
  8
型材断面
  6
CONTINUOUS
 62
    47
 10
5.293915
 20
-90.67601
 11
5.593915
 21
-90.97601
  0
LINE
  8
型材断面
  6
CONTINUOUS
 62
    47
 10
5.293915
 20
-90.67601
 11
4.993915
 21
-90.97601
  0
LINE
  8
型材断面
  6
CONTINUOUS
 62
    47
 10
2.793917
 20
-88.476012
 11
8.793917
 21
-88.476012
  0
LINE
  8
型材断面
  6
CONTINUOUS
 62
    47
 10
18.943967
 20
-89.47601
 11
10.793913
 21
-89.47601
  0
LINE
  8
型材断面
  6
CONTINUOUS
 62
    47
 10
-7.806035
 20
11.025535
 11
-7.806035
 21
6.525535
  0
LINE
  8
型材断面
  6
CONTINUOUS
 62
    47
 10
-2.789983
 20
-35.725962
 11
-7.806035
 21
-35.725962
  0
LINE
  8
型材断面
  6
CONTINUOUS
 62
    47
 10
-7.806035
 20
-7.975962
 11
-7.806035
 21
-35.725962
  0
LINE
  8
型材断面
  6
CONTINUOUS
 62
    47
 10
-2.789983
 20
-37.225962
 11
-7.806035
 21
-37.225962
  0
LINE
  8
型材断面
  6
CONTINUOUS
 62
    47
 10
-9.806038
 20
13.025538
 11
-7.353538
 21
13.025538
  0
LINE
  8
型材断面
  6
CONTINUOUS
 62
    47
 10
5.193963
 20
13.025538
 11
1.793965
 21
13.025538
  0
LINE
  8
型材断面
  6
CONTINUOUS
 62
    47
 10
1.193965
 20
12.425538
 11
1.793965
 21
13.025538
  0
LINE
  8
型材断面
  6
CONTINUOUS
 62
    47
 10
1.193965
 20
12.425538
 11
1.193965
 21
11.025535
  0
LINE
  8
型材断面
  6
CONTINUOUS
 62
    47
 10
3.693963
 20
11.025535
 11
1.193965
 21
11.025535
  0
LINE
  8
型材断面
  6
CONTINUOUS
 62
    47
 10
-6.806038
 20
12.425538
 11
-6.806038
 21
11.025535
  0
LINE
  8
型材断面
  6
CONTINUOUS
 62
    47
 10
-7.858587
 20
11.025535
 11
-6.806038
 21
11.025535
  0
LINE
  8
型材断面
  6
CONTINUOUS
 62
    47
 10
-6.806038
 20
12.425538
 11
-7.406038
 21
13.025538
  0
LINE
  8
型材断面
  6
CONTINUOUS
 62
    47
 10
3.693963
 20
11.025535
 11
3.693963
 21
6.525535
  0
LINE
  8
型材断面
  6
CONTINUOUS
 62
    47
 10
-7.806035
 20
6.525535
 11
3.693963
 21
6.525535
  0
ARC
  8
型材断面
  6
CONTINUOUS
 62
    47
 10
14.693963
 20
-36.475951
 40
17.499998
 50
182.456286
 51
280.0829
  0
LINE
  8
型材断面
  6
CONTINUOUS
 62
    47
 10
17.757715
 20
-53.705713
 11
18.366063
 21
-55.975962
  0
LINE
  8
型材断面
  6
CONTINUOUS
 62
    47
 10
18.366063
 20
-55.975962
 11
28.193965
 21
-55.975962
  0
LINE
  8
型材断面
  6
CONTINUOUS
 62
    47
 10
72.693963
 20
-81.675965
 11
10.793913
 21
-81.675965
  0
LINE
  8
型材断面
  6
CONTINUOUS
 62
    47
 10
8.793917
 20
-81.675965
 11
-7.806035
 21
-81.675965
  0
LINE
  8
型材断面
  6
CONTINUOUS
 62
    47
 10
106.193965
 20
-84.475962
 11
106.193965
 21
-81.675965
  0
LINE
  8
型材断面
  6
CONTINUOUS
 62
    47
 10
74.693965
 20
-81.675965
 11
106.193965
 21
-81.675965
  0
LINE
  8
型材断面
  6
CONTINUOUS
 62
    47
 10
107.693965
 20
-84.475962
 11
106.193965
 21
-84.475962
  0
LINE
  8
型材断面
  6
CONTINUOUS
 62
    47
 10
74.693965
 20
-90.97601
 11
74.693965
 21
-81.675965
  0
LINE
  8
型材断面
  6
CONTINUOUS
 62
    47
 10
72.693963
 20
-89.47601
 11
72.693963
 21
-81.675965
  0
LINE
  8
型材断面
  6
CONTINUOUS
 62
    47
 10
10.793913
 20
-89.47601
 11
10.793913
 21
-81.675965
  0
LINE
  8
型材断面
  6
CONTINUOUS
 62
    47
 10
8.793917
 20
-88.476012
 11
8.793917
 21
-81.675965
  0
LINE
  8
型材断面
  6
CONTINUOUS
 62
    47
 10
30.193967
 20
-58.47596
 11
30.193967
 21
-79.675962
  0
LINE
  8
型材断面
  6
CONTINUOUS
 62
    47
 10
-7.806035
 20
-37.225962
 11
-7.806035
 21
-79.675962
  0
LINE
  8
型材断面
  6
CONTINUOUS
 62
    47
 10
105.693963
 20
-70.47596
 11
105.693963
 21
-79.675962
  0
LINE
  8
型材断面
  6
CONTINUOUS
 62
    47
 10
30.193967
 20
-79.675962
 11
105.693963
 21
-79.675962
  0
LINE
  8
型材断面
  6
CONTINUOUS
 62
    47
 10
18.366063
 20
-16.975962
 11
28.193965
 21
-16.975962
  0
LINE
  8
型材断面
  6
CONTINUOUS
 62
    47
 10
30.193967
 20
-14.475965
 11
30.193967
 21
-3.475962
  0
LINE
  8
型材断面
  6
CONTINUOUS
 62
    47
 10
30.193967
 20
-3.475962
 11
28.693967
 21
-3.475962
  0
LINE
  8
型材断面
  6
CONTINUOUS
 62
    47
 10
28.693967
 20
-3.475962
 11
28.693967
 21
-6.475962
  0
LINE
  8
型材断面
  6
CONTINUOUS
 62
    47
 10
-7.806035
 20
-6.475962
 11
28.693967
 21
-6.475962
  0
LINE
  8
型材断面
  6
CONTINUOUS
 62
    47
 10
5.193963
 20
13.025538
 11
5.193963
 21
5.025535
  0
LINE
  8
型材断面
  6
CONTINUOUS
 62
    47
 10
-9.506038
 20
-75.675965
 11
-9.806038
 21
-75.375965
  0
LINE
  8
型材断面
  6
CONTINUOUS
 62
    47
 10
-9.506038
 20
-75.675965
 11
-9.806038
 21
-75.975965
  0
LINE
  8
型材断面
  6
CONTINUOUS
 62
    47
 10
-9.806038
 20
-75.975965
 11
-9.806038
 21
-90.97601
  0
LINE
  8
型材断面
  6
CONTINUOUS
 62
    47
 10
-7.806035
 20
-81.675965
 11
-7.806035
 21
-89.976012
  0
LINE
  8
型材断面
  6
CONTINUOUS
 62
    47
 10
-8.806033
 20
-90.97601
 11
-9.806038
 21
-90.97601
  0
LINE
  8
型材断面
  6
CONTINUOUS
 62
    47
 10
-7.806035
 20
-89.976012
 11
-8.806033
 21
-90.97601
  0
LINE
  8
型材断面
  6
CONTINUOUS
 62
    47
 10
22.757013
 20
-7.975962
 11
-7.806035
 21
-7.975962
  0
ARC
  8
型材断面
  6
CONTINUOUS
 62
    47
 10
22.757048
 20
-8.475959
 40
0.5
 50
-23.578179
 51
90.0
  0
LINE
  8
型材断面
  6
CONTINUOUS
 62
    47
 10
28.193965
 20
-13.412915
 11
28.193965
 21
-16.975962
  0
ARC
  8
型材断面
  6
CONTINUOUS
 62
    47
 10
27.69398
 20
-13.412891
 40
0.5
 50
0.0
 51
113.578178
  0
ARC
  8
型材断面
  6
CONTINUOUS
 62
    47
 10
23.94558
 20
-10.060791
 40
0.5
 50
284.998835
 51
362.160733
  0
LINE
  8
型材断面
  6
CONTINUOUS
 62
    47
 10
24.074965
 20
-10.54376
 11
23.581915
 21
-10.675865
  0
ARC
  8
型材断面
  6
CONTINUOUS
 62
    47
 10
26.19398
 20
-9.975959
 40
3.25
 50
156.421822
 51
184.52439
  0
ARC
  8
型材断面
  6
CONTINUOUS
 62
    47
 10
23.45255
 20
-10.192889
 40
0.5
 50
184.52439
 51
284.998682
  0
ARC
  8
型材断面
  6
CONTINUOUS
 62
    47
 10
26.19398
 20
-9.975959
 40
1.75
 50
267.839267
 51
542.160733
  0
ARC
  8
型材断面
  6
CONTINUOUS
 62
    47
 10
26.109149
 20
-12.22436
 40
0.5
 50
87.839266
 51
165.001165
  0
LINE
  8
型材断面
  6
CONTINUOUS
 62
    47
 10
25.626167
 20
-12.094963
 11
25.494062
 21
-12.588012
  0
ARC
  8
型材断面
  6
CONTINUOUS
 62
    47
 10
26.19398
 20
-9.975959
 40
3.25
 50
265.47561
 51
293.578179
  0
ARC
  8
型材断面
  6
CONTINUOUS
 62
    47
 10
25.977051
 20
-12.71739
 40
0.5
 50
165.001318
 51
265.47561
  0
ARC
  8
型材断面
  6
CONTINUOUS
 62
    47
 10
24.544136
 20
-77.205833
 40
0.5
 50
42.839267
 51
120.001165
  0
LINE
  8
型材断面
  6
CONTINUOUS
 62
    47
 10
24.294115
 20
-76.77281
 11
23.852065
 21
-77.028065
  0
ARC
  8
型材断面
  6
CONTINUOUS
 62
    47
 10
24.102104
 20
-77.461051
 40
0.5
 50
120.001318
 51
220.47561
  0
ARC
  8
型材断面
  6
CONTINUOUS
 62
    47
 10
26.19398
 20
-75.675959
 40
1.75
 50
222.839267
 51
497.160733
  0
ARC
  8
型材断面
  6
CONTINUOUS
 62
    47
 10
24.544136
 20
-74.146085
 40
0.5
 50
239.998835
 51
317.160734
  0
LINE
  8
型材断面
  6
CONTINUOUS
 62
    47
 10
24.294115
 20
-74.579112
 11
23.852065
 21
-74.323865
  0
ARC
  8
型材断面
  6
CONTINUOUS
 62
    47
 10
24.102104
 20
-73.890868
 40
0.5
 50
139.52439
 51
239.998682
  0
LINE
  8
型材断面
  6
CONTINUOUS
 62
    47
 10
-7.806035
 20
-79.675962
 11
26.193963
 21
-79.675962
  0
ARC
  8
型材断面
  6
CONTINUOUS
 62
    47
 10
26.19398
 20
-75.675959
 40
3.25
 50
220.47561
 51
270.0
  0
LINE
  8
型材断面
  6
CONTINUOUS
 62
    47
 10
26.193963
 20
-78.925962
 11
26.193963
 21
-79.675962
  0
LINE
  8
型材断面
  6
CONTINUOUS
 62
    47
 10
28.193965
 20
-55.975962
 11
28.193965
 21
-72.239015
  0
ARC
  8
型材断面
  6
CONTINUOUS
 62
    47
 10
26.19398
 20
-75.675959
 40
3.25
 50
66.421822
 51
139.52439
  0
ARC
  8
型材断面
  6
CONTINUOUS
 62
    47
 10
27.69398
 20
-72.239028
 40
0.5
 50
-113.578179
 51
0.0
  0
LINE
  8
型材断面
  6
CONTINUOUS
 62
    47
 10
-9.506038
 20
-0.97451
 11
-9.806038
 21
-0.67451
  0
LINE
  8
型材断面
  6
CONTINUOUS
 62
    47
 10
-9.506038
 20
-0.97451
 11
-9.806038
 21
-1.27451
  0
LINE
  8
型材断面
  6
CONTINUOUS
 62
    47
 10
-9.806038
 20
13.025538
 11
-9.806038
 21
-0.67451
  0
LINE
  8
型材断面
  6
CONTINUOUS
 62
    47
 10
5.193963
 20
5.025535
 11
-7.806035
 21
5.025535
  0
LINE
  8
型材断面
  6
CONTINUOUS
 62
    47
 10
-7.806035
 20
-6.475962
 11
-7.806035
 21
5.025535
  0
LINE
  8
型材断面
  6
CONTINUOUS
 62
    47
 10
-9.506038
 20
-21.475962
 11
-9.806038
 21
-21.175962
  0
LINE
  8
型材断面
  6
CONTINUOUS
 62
    47
 10
-9.506038
 20
-21.475962
 11
-9.806038
 21
-21.775962
  0
LINE
  8
型材断面
  6
CONTINUOUS
 62
    47
 10
-9.506038
 20
-69.475962
 11
-9.806038
 21
-69.175962
  0
LINE
  8
型材断面
  6
CONTINUOUS
 62
    47
 10
-9.506038
 20
-69.475962
 11
-9.806038
 21
-69.775962
  0
LINE
  8
型材断面
  6
CONTINUOUS
 62
    47
 10
-9.806038
 20
-69.775962
 11
-9.806038
 21
-75.375965
  0
LINE
  8
型材断面
  6
CONTINUOUS
 62
    47
 10
-9.806038
 20
-1.27451
 11
-9.806038
 21
-21.175962
  0
LINE
  8
型材断面
  6
CONTINUOUS
 62
    47
 10
-9.806038
 20
-21.775962
 11
-9.806038
 21
-69.175962
  0
ENDBLK
  0
BLOCK
  2
*GRP_0096
 70
    65
 10
0.0
 20
0.0
  0
LINE
  8
補助線
  6
BYBLOCK
 62
     0
 10
16.193958
 20
-36.475947
 11
13.193958
 21
-36.475947
  0
LINE
  8
補助線
  6
BYBLOCK
 62
     0
 10
14.693958
 20
-37.975947
 11
14.693958
 21
-34.975947
  0
ENDBLK
  0
BLOCK
  2
*GRP_0097
 70
    65
 10
0.0
 20
0.0
  0
LINE
  8
補助線
  6
BYBLOCK
 62
     0
 10
16.193958
 20
42.525152
 11
13.193958
 21
42.525152
  0
LINE
  8
補助線
  6
BYBLOCK
 62
     0
 10
14.693958
 20
41.025152
 11
14.693958
 21
44.025152
  0
ENDBLK
  0
BLOCK
  2
*DIM_0098
 70
    65
 10
0.0
 20
0.0
  0
LINE
  8
寸法
  6
CONTINUOUS
 10
-64.810458
 20
96.580983
 11
-113.391993
 21
96.580983
  0
LINE
  8
寸法
  6
CONTINUOUS
 10
-37.706095
 20
-112.776005
 11
-113.391993
 21
-112.776005
  0
LINE
  8
寸法
  6
CONTINUOUS
 10
-113.391993
 20
96.580983
 11
-113.391993
 21
-112.776005
  0
POINT
  8
寸法
 10
-113.391993
 20
96.580983
  0
POINT
  8
寸法
 10
-113.391993
 20
-112.776005
  0
TEXT
  7
TextStyle03
  8
寸法
  6
CONTINUOUS
 10
-113.775
 20
-12.225
  1
209.4
 40
3.0
 50
90.0
 72
     5
 11
-113.775
 21
-3.975
  0
ENDBLK
  0
BLOCK
  2
*DIM_0099
 70
    65
 10
0.0
 20
0.0
  0
LINE
  8
寸法
  6
CONTINUOUS
 10
-12.70609
 20
-122.876008
 11
-113.391993
 21
-122.876008
  0
LINE
  8
寸法
  6
CONTINUOUS
 10
-113.391993
 20
-112.776005
 11
-113.391993
 21
-122.876008
  0
POINT
  8
寸法
 10
-113.391993
 20
-122.876008
  0
TEXT
  7
TextStyle03
  8
寸法
  6
CONTINUOUS
 10
-113.775
 20
-121.13125
  1
10.1
 40
3.0
 50
90.0
 72
     5
 11
-113.775
 21
-114.56875
  0
ENDBLK
  0
BLOCK
  2
*DIM_0100
 70
    65
 10
0.0
 20
0.0
  0
LINE
  8
寸法
  6
CONTINUOUS
 10
-7.70609
 20
-127.876008
 11
-7.70609
 21
-129.358015
  0
LINE
  8
寸法
  6
CONTINUOUS
 10
-32.706095
 20
-117.776005
 11
-32.706095
 21
-129.358015
  0
LINE
  8
寸法
  6
CONTINUOUS
 10
-7.70609
 20
-129.358015
 11
-32.706095
 21
-129.358015
  0
POINT
  8
寸法
 10
-7.70609
 20
-129.358015
  0
POINT
  8
寸法
 10
-32.706095
 20
-129.358015
  0
TEXT
  7
TextStyle03
  8
寸法
  6
CONTINUOUS
 10
-21.81875
 20
-129.0
  1
25
 40
3.0
 72
     5
 11
-18.63125
 21
-129.0
  0
ENDBLK
  0
BLOCK
  2
*DIM_0101
 70
    65
 10
0.0
 20
0.0
  0
LINE
  8
寸法
  6
CONTINUOUS
 10
79.693965
 20
-90.97601
 11
128.2427
 21
-90.97601
  0
LINE
  8
寸法
  6
CONTINUOUS
 10
-0.706095
 20
-122.876008
 11
128.2427
 21
-122.876008
  0
LINE
  8
寸法
  6
CONTINUOUS
 10
128.2427
 20
-90.97601
 11
128.2427
 21
-122.876008
  0
POINT
  8
寸法
 10
128.2427
 20
-90.97601
  0
POINT
  8
寸法
 10
128.2427
 20
-122.876008
  0
TEXT
  7
TextStyle03
  8
寸法
  6
CONTINUOUS
 10
127.85
 20
-110.23125
  1
31.9
 40
3.0
 50
90.0
 72
     5
 11
127.85
 21
-103.66875
  0
ENDBLK
  0
BLOCK
  2
*DIM_0102
 70
    65
 10
0.0
 20
0.0
  0
LINE
  8
寸法
  6
CONTINUOUS
 10
-37.706095
 20
4.323992
 11
-102.485973
 21
4.323992
  0
LINE
  8
寸法
  6
CONTINUOUS
 10
-37.706095
 20
-112.776005
 11
-102.485973
 21
-112.776005
  0
LINE
  8
寸法
  6
CONTINUOUS
 10
-102.485973
 20
4.323992
 11
-102.485973
 21
-112.776005
  0
POINT
  8
寸法
 10
-102.485973
 20
4.323992
  0
POINT
  8
寸法
 10
-102.485973
 20
-112.776005
  0
TEXT
  7
TextStyle03
  8
寸法
  6
CONTINUOUS
 10
-102.875
 20
-58.375
  1
117.1
 40
3.0
 50
90.0
 72
     5
 11
-102.875
 21
-50.125
  0
ENDBLK
  0
BLOCK
  2
*GRP_0103
 70
    65
 10
0.0
 20
0.0
  0
LINE
  8
ゴム等
  6
CONTINUOUS
 10
-13.142495
 20
87.95335
 11
-14.415297
 21
89.226108
  0
LINE
  8
ゴム等
  6
CONTINUOUS
 10
-11.86976
 20
91.771735
 11
-14.415297
 21
89.226108
  0
LINE
  8
ゴム等
  6
CONTINUOUS
 10
-16.536553
 20
84.559165
 11
-17.80937
 21
85.831945
  0
LINE
  8
ゴム等
  6
CONTINUOUS
 10
-20.354915
 20
83.286325
 11
-17.80937
 21
85.831945
  0
LINE
  8
ゴム等
  6
CONTINUOUS
 10
-16.536553
 20
84.559165
 11
-17.243645
 21
83.852058
  0
LINE
  8
ゴム等
  6
CONTINUOUS
 10
-17.243645
 20
83.852058
 11
-16.890088
 21
83.498508
  0
LINE
  8
ゴム等
  6
CONTINUOUS
 10
-13.142495
 20
87.95335
 11
-12.435395
 21
88.660465
  0
LINE
  8
ゴム等
  6
CONTINUOUS
 10
-12.081837
 20
88.306907
 11
-12.435395
 21
88.660465
  0
ARC
  8
ゴム等
  6
CONTINUOUS
 10
-14.273828
 20
85.690587
 40
1.0
 50
225.00089
 51
315.00089
  0
LINE
  8
ゴム等
  6
CONTINUOUS
 10
-13.56671
 20
84.983485
 11
-13.56671
 21
84.983485
  0
ARC
  8
ゴム等
  6
CONTINUOUS
 10
-14.273828
 20
85.690587
 40
1.0
 50
315.00089
 51
405.00089
  0
LINE
  8
ゴム等
  6
CONTINUOUS
 10
-14.698123
 20
87.52906
 11
-13.566733
 21
86.3977
  0
ARC
  8
ゴム等
  6
CONTINUOUS
 10
-15.405217
 20
86.82194
 40
1.0
 50
45.00089
 51
135.00089
  0
LINE
  8
ゴム等
  6
CONTINUOUS
 10
-16.112338
 20
87.529023
 11
-16.112338
 21
87.529023
  0
LINE
  8
ゴム等
  6
CONTINUOUS
 10
-16.112323
 20
86.114823
 11
-14.980925
 21
84.983462
  0
ARC
  8
ゴム等
  6
CONTINUOUS
 10
-15.405217
 20
86.82194
 40
1.0
 50
135.00089
 51
225.00089
  0
LINE
  8
ゴム等
  6
CONTINUOUS
 10
-11.99108
 20
91.650423
 11
-11.991095
 21
91.893055
  0
LINE
  8
ゴム等
  6
CONTINUOUS
 10
-16.990963
 20
84.104747
 11
-16.990963
 21
83.599375
  0
LINE
  8
ゴム等
  6
CONTINUOUS
 10
-12.991093
 20
92.893037
 11
-12.991063
 21
90.650403
  0
LINE
  8
ゴム等
  6
CONTINUOUS
 10
-12.991017
 20
88.104812
 11
-12.990957
 21
84.286435
  0
LINE
  8
ゴム等
  6
CONTINUOUS
 10
-13.991112
 20
93.89302
 11
-13.991053
 21
89.65039
  0
LINE
  8
ゴム等
  6
CONTINUOUS
 10
-13.991038
 20
88.801855
 11
-13.991
 21
86.82196
  0
LINE
  8
ゴム等
  6
CONTINUOUS
 10
-21.769182
 20
87.528932
 11
-21.769182
 21
87.528932
  0
ARC
  8
ゴム等
  6
CONTINUOUS
 10
-22.122759
 20
88.589603
 40
0.5
 50
225.00089
 51
315.00089
  0
LINE
  8
ゴム等
  6
CONTINUOUS
 10
-16.819528
 20
93.185875
 11
-21.76919
 21
88.236047
  0
ARC
  8
ゴム等
  6
CONTINUOUS
 10
-17.173088
 20
93.539427
 40
0.5
 50
315.00089
 51
405.00089
  0
LINE
  8
ゴム等
  6
CONTINUOUS
 10
-16.819535
 20
93.892982
 11
-15.40535
 21
95.307213
  0
LINE
  8
ゴム等
  6
CONTINUOUS
 10
-11.86976
 20
91.771735
 11
-15.40535
 21
95.307213
  0
LINE
  8
ゴム等
  6
CONTINUOUS
 10
-14.991013
 20
87.732122
 11
-14.991125
 21
94.89301
  0
LINE
  8
ゴム等
  6
CONTINUOUS
 10
-15.99101
 20
87.632395
 11
-15.99113
 21
94.721425
  0
LINE
  8
ゴム等
  6
CONTINUOUS
 10
-16.990978
 20
85.013582
 11
-16.991105
 21
93.014298
  0
LINE
  8
ゴム等
  6
CONTINUOUS
 10
-17.990982
 20
85.650317
 11
-17.99108
 21
92.014285
  0
LINE
  8
ゴム等
  6
CONTINUOUS
 10
-18.99098
 20
84.650305
 11
-18.99107
 21
91.014265
  0
LINE
  8
ゴム等
  6
CONTINUOUS
 10
-19.990955
 20
83.6503
 11
-19.991045
 21
90.01426
  0
LINE
  8
ゴム等
  6
CONTINUOUS
 10
-20.990967
 20
83.922348
 11
-20.991035
 21
89.014233
  0
LINE
  8
ゴム等
  6
CONTINUOUS
 10
-21.99098
 20
84.922337
 11
-21.991025
 21
88.107258
  0
LINE
  8
ゴム等
  6
CONTINUOUS
 10
-22.990992
 20
85.92232
 11
-22.991015
 21
87.721315
  0
LINE
  8
ゴム等
  6
CONTINUOUS
 10
-20.354915
 20
83.286325
 11
-23.890498
 21
86.82181
  0
LINE
  8
ゴム等
  6
CONTINUOUS
 10
-22.476305
 20
88.236047
 11
-23.890498
 21
86.82181
  0
LINE
  8
ゴム等
  6
CONTINUOUS
 10
-16.890088
 20
83.498508
 11
-13.637405
 21
83.63998
  0
LINE
  8
ゴム等
  6
CONTINUOUS
 10
-12.081837
 20
88.306907
 11
-12.223205
 21
85.054225
  0
LINE
  8
ゴム等
  6
CONTINUOUS
 10
-13.637405
 20
83.63998
 11
-12.223205
 21
85.054225
  0
LINE
  8
ゴム等
  6
CONTINUOUS
 10
-14.990975
 20
84.99352
 11
-14.990953
 21
83.581113
  0
LINE
  8
ゴム等
  6
CONTINUOUS
 10
-13.99097
 20
84.731425
 11
-13.990955
 21
83.624605
  0
LINE
  8
ゴム等
  6
CONTINUOUS
 10
-15.990988
 20
85.993488
 11
-15.99095
 21
83.537613
  0
ENDBLK
  0
ENDSEC
  0
SECTION
  2
ENTITIES
  0
POLYLINE
  8
通り芯
  6
CONTINUOUS
 66
     1
 70
     1
  0
VERTEX
  8
通り芯
 10
-210.0
 20
-148.5
  0
VERTEX
  8
通り芯
 10
210.0
 20
-148.5
  0
VERTEX
  8
通り芯
 10
210.0
 20
148.5
  0
VERTEX
  8
通り芯
 10
-210.0
 20
148.5
  0
SEQEND
  0
INSERT
  2
*GRP_0002
  8
通り芯
  6
DOT
 10
0.0
 20
0.0
  0
INSERT
  2
*GRP_0003
  8
通り芯
  6
CONTINUOUS
 10
0.0
 20
0.0
  0
INSERT
  2
*GRP_0037
  8
通り芯
  6
CONTINUOUS
 10
0.0
 20
0.0
  0
INSERT
  2
*GRP_0039
  8
通り芯
  6
CONTINUOUS
 10
0.0
 20
0.0
  0
INSERT
  2
*GRP_0046
  8
通り芯
  6
CONTINUOUS
 10
0.0
 20
0.0
  0
INSERT
  2
*GRP_0047
  8
通り芯
  6
CONTINUOUS
 10
0.0
 20
0.0
  0
INSERT
  2
*GRP_0001
  8
型材断面
  6
CONTINUOUS
 10
0.0
 20
0.0
  0
INSERT
  2
*GRP_0004
  8
型材断面
  6
CONTINUOUS
 62
    47
 10
0.0
 20
0.0
  0
LINE
  8
型材断面
  6
CONTINUOUS
 10
16.084015
 20
64.525158
 11
-11.516045
 21
92.125217
  0
LINE
  8
型材断面
  6
CONTINUOUS
 10
-27.99194
 20
122.742648
 11
-30.82037
 21
125.57107
  0
POLYLINE
  8
型材断面
  6
CONTINUOUS
 66
     1
  0
VERTEX
  8
型材断面
 10
154.901102
 20
121.28687
  0
VERTEX
  8
型材断面
 10
149.17416
 20
122.974558
  0
VERTEX
  8
型材断面
 10
149.03352
 20
121.28687
  0
SEQEND
  0
POLYLINE
  8
型材断面
  6
CONTINUOUS
 66
     1
  0
VERTEX
  8
型材断面
 10
152.071673
 20
121.28687
  0
VERTEX
  8
型材断面
 10
146.34473
 20
122.974558
  0
VERTEX
  8
型材断面
 10
146.20409
 20
121.28687
  0
SEQEND
  0
LINE
  8
型材断面
  6
CONTINUOUS
 10
154.901102
 20
121.28687
 11
50.189545
 21
121.28687
  0
POLYLINE
  8
型材断面
  6
CONTINUOUS
 66
     1
  0
VERTEX
  8
型材断面
 10
50.189545
 20
121.28687
  0
VERTEX
  8
型材断面
 10
55.916488
 20
122.974558
  0
VERTEX
  8
型材断面
 10
56.057128
 20
121.28687
  0
SEQEND
  0
LINE
  8
型材断面
  6
DASHDOT
 10
50.189545
 20
-58.476328
 11
50.189545
 21
121.28687
  0
LINE
  8
型材断面
  6
CONTINUOUS
 10
-27.99194
 20
122.742648
 11
-17.234587
 21
133.5
  0
LINE
  8
型材断面
  6
CONTINUOUS
 10
-30.82037
 20
125.57107
 11
-22.89144
 21
133.5
  0
LINE
  8
型材断面
  6
CONTINUOUS
 10
-11.516045
 20
92.125217
 11
29.858737
 21
133.5
  0
LINE
  8
型材断面
  6
DOT
 10
14.761878
 20
65.939372
 11
82.322505
 21
133.5
  0
LINE
  8
型材断面
  6
CONTINUOUS
 10
16.176093
 20
64.525158
 11
85.150935
 21
133.5
  0
LINE
  8
型材断面
  6
CONTINUOUS
 10
8.35189
 20
72.257282
 11
69.594607
 21
133.5
  0
INSERT
  2
*GRP_0048
  8
型材断面
  6
CONTINUOUS
 10
0.0
 20
0.0
  0
INSERT
  2
*GRP_0049
  8
型材断面
  6
CONTINUOUS
 10
0.0
 20
0.0
  0
INSERT
  2
*GRP_0050
  8
型材断面
  6
CONTINUOUS
 10
0.0
 20
0.0
  0
INSERT
  2
*GRP_0051
  8
型材断面
  6
DOT
 10
0.0
 20
0.0
  0
INSERT
  2
*GRP_0052
  8
型材断面
  6
DOT
 10
0.0
 20
0.0
  0
INSERT
  2
*GRP_0053
  8
型材断面
  6
DOT
 10
0.0
 20
0.0
  0
INSERT
  2
*GRP_0054
  8
型材断面
  6
DOT
 10
0.0
 20
0.0
  0
INSERT
  2
*GRP_0055
  8
型材断面
  6
CONTINUOUS
 10
0.0
 20
0.0
  0
INSERT
  2
*GRP_0056
  8
型材断面
  6
DOT
 10
0.0
 20
0.0
  0
LINE
  8
型材断面
  6
DOT
 10
-9.806038
 20
-79.675962
 11
-7.806035
 21
-79.675962
  0
LINE
  8
型材断面
  6
DOT
 10
-9.806038
 20
-71.67596
 11
-7.806035
 21
-71.67596
  0
LINE
  8
型材断面
  6
DOT
 10
-9.40604
 20
-79.675962
 11
-9.40604
 21
-71.67596
  0
LINE
  8
型材断面
  6
DOT
 10
-9.006035
 20
-79.675962
 11
-9.006035
 21
-71.67596
  0
LINE
  8
型材断面
  6
DOT
 10
-8.606038
 20
-79.675962
 11
-8.606038
 21
-71.67596
  0
LINE
  8
型材断面
  6
DOT
 10
-8.206033
 20
-79.675962
 11
-8.206033
 21
-71.67596
  0
LINE
  8
型材断面
  6
DOT
 10
29.818975
 20
-79.675962
 11
29.818967
 21
-71.675968
  0
LINE
  8
型材断面
  6
DOT
 10
29.443967
 20
-79.675962
 11
29.443967
 21
-71.675968
  0
LINE
  8
型材断面
  6
DOT
 10
29.068975
 20
-79.675962
 11
29.068967
 21
-71.675968
  0
LINE
  8
型材断面
  6
DOT
 10
28.688973
 20
-79.675962
 11
28.688965
 21
-71.675968
  0
LINE
  8
型材断面
  6
DOT
 10
28.308978
 20
-79.675962
 11
28.30897
 21
-71.675968
  0
LINE
  8
型材断面
  6
DOT
 10
30.193967
 20
-79.675962
 11
26.19397
 21
-79.67594
  0
LINE
  8
型材断面
  6
DOT
 10
30.193967
 20
-71.675968
 11
28.193965
 21
-71.675968
  0
POLYLINE
  8
型材断面
  6
DOT
 66
     1
  0
VERTEX
  8
型材断面
 10
27.928975
 20
-79.675962
  0
VERTEX
  8
型材断面
 10
27.928967
 20
-75.904655
  0
VERTEX
  8
型材断面
 10
27.928967
 20
-75.904633
  0
SEQEND
  0
POLYLINE
  8
型材断面
  6
DOT
 66
     1
  0
VERTEX
  8
型材断面
 10
27.928967
 20
-75.447328
  0
VERTEX
  8
型材断面
 10
27.928967
 20
-75.447305
  0
VERTEX
  8
型材断面
 10
27.928967
 20
-72.680382
  0
SEQEND
  0
LINE
  8
型材断面
  6
DOT
 10
27.548972
 20
-79.675962
 11
27.548972
 21
-76.783445
  0
LINE
  8
型材断面
  6
DOT
 10
27.548965
 20
-74.568508
 11
27.548965
 21
-72.71756
  0
LINE
  8
型材断面
  6
DOT
 10
27.168978
 20
-79.675962
 11
27.168978
 21
-77.12921
  0
LINE
  8
型材断面
  6
DOT
 10
27.16897
 20
-74.22275
 11
27.16897
 21
-72.575675
  0
LINE
  8
型材断面
  6
DOT
 10
26.408972
 20
-79.675962
 11
26.408972
 21
-77.412725
  0
LINE
  8
型材断面
  6
DOT
 10
26.408965
 20
-73.939235
 11
26.408965
 21
-72.4331
  0
LINE
  8
型材断面
  6
DOT
 10
26.788975
 20
-79.675962
 11
26.788975
 21
-77.321727
  0
LINE
  8
型材断面
  6
DOT
 10
26.788968
 20
-74.030232
 11
26.788968
 21
-72.480912
  0
LINE
  8
型材断面
  6
DOT
 10
26.02897
 20
-72.430175
 11
26.02897
 21
-73.933775
  0
LINE
  8
型材断面
  6
DOT
 10
26.028977
 20
-77.418185
 11
26.028977
 21
-78.921792
  0
LINE
  8
型材断面
  6
DOT
 10
25.648968
 20
-72.472002
 11
25.648968
 21
-74.013012
  0
LINE
  8
型材断面
  6
DOT
 10
25.648975
 20
-77.338955
 11
25.648975
 21
-78.879958
  0
LINE
  8
型材断面
  6
DOT
 10
25.268965
 20
-72.560397
 11
25.268965
 21
-74.190433
  0
LINE
  8
型材断面
  6
DOT
 10
25.268973
 20
-77.161535
 11
25.268973
 21
-78.79157
  0
LINE
  8
型材断面
  6
DOT
 10
24.128965
 20
-73.166352
 11
24.128965
 21
-74.48375
  0
LINE
  8
型材断面
  6
DOT
 10
24.128973
 20
-76.86821
 11
24.128973
 21
-78.185615
  0
LINE
  8
型材断面
  6
DOT
 10
24.508967
 20
-72.896907
 11
24.508967
 21
-74.584018
  0
LINE
  8
型材断面
  6
DOT
 10
24.508975
 20
-76.767943
 11
24.508975
 21
-78.45506
  0
LINE
  8
型材断面
  6
DOT
 10
24.88897
 20
-74.47748
 11
24.88897
 21
-72.699492
  0
LINE
  8
型材断面
  6
DOT
 10
24.888977
 20
-78.652467
 11
24.888977
 21
-76.874488
  0
INSERT
  2
*GRP_0057
  8
型材断面
  6
CONTINUOUS
 62
    47
 10
0.0
 20
0.0
  0
INSERT
  2
*GRP_0058
  8
型材断面
  6
CONTINUOUS
 62
    47
 10
0.0
 20
0.0
  0
LINE
  8
ガラス
  6
CONTINUOUS
 10
-40.366063
 20
95.519552
 11
-27.779547
 21
82.93303
  0
LINE
  8
ガラス
  6
CONTINUOUS
 10
-28.34525
 20
91.984015
 11
-36.83051
 21
91.983993
  0
LINE
  8
ガラス
  6
CONTINUOUS
 10
-32.587865
 20
96.226637
 11
-32.587888
 21
87.741378
  0
LINE
  8
ガラス
  6
CONTINUOUS
 10
-28.34525
 20
91.984015
 11
-32.587865
 21
96.226637
  0
LINE
  8
ガラス
  6
CONTINUOUS
 10
-40.012512
 20
95.165995
 11
-1.678507
 21
133.5
  0
LINE
  8
ガラス
  6
CONTINUOUS
 10
-40.366063
 20
95.519552
 11
-2.385625
 21
133.5
  0
LINE
  8
ガラス
  6
CONTINUOUS
 10
-36.83051
 20
91.983993
 11
4.685498
 21
133.5
  0
LINE
  8
ガラス
  6
CONTINUOUS
 10
-37.184068
 20
92.337558
 11
3.978392
 21
133.5
  0
LINE
  8
ガラス
  6
CONTINUOUS
 10
-32.587888
 20
87.741378
 11
13.170735
 21
133.5
  0
LINE
  8
ガラス
  6
CONTINUOUS
 10
-32.234338
 20
87.387827
 11
13.877845
 21
133.5
  0
LINE
  8
ガラス
  6
CONTINUOUS
 10
-28.133097
 20
83.28658
 11
22.080307
 21
133.5
  0
LINE
  8
ガラス
  6
CONTINUOUS
 10
-27.779547
 20
82.93303
 11
22.787407
 21
133.5
  0
INSERT
  2
*GRP_0059
  8
ガラス
  6
CONTINUOUS
 10
0.0
 20
0.0
  0
INSERT
  2
*GRP_0060
  8
ガラス
  6
CONTINUOUS
 10
0.0
 20
0.0
  0
INSERT
  2
*GRP_0061
  8
ガラス
  6
CONTINUOUS
 10
0.0
 20
0.0
  0
INSERT
  2
*GRP_0062
  8
ガラス
  6
CONTINUOUS
 10
0.0
 20
0.0
  0
INSERT
  2
*GRP_0063
  8
ガラス
  6
CONTINUOUS
 10
0.0
 20
0.0
  0
INSERT
  2
*GRP_0064
  8
ガラス
  6
CONTINUOUS
 10
0.0
 20
0.0
  0
INSERT
  2
*GRP_0065
  8
ガラス
  6
CONTINUOUS
 10
0.0
 20
0.0
  0
INSERT
  2
*GRP_0066
  8
ガラス
  6
CONTINUOUS
 10
0.0
 20
0.0
  0
INSERT
  2
*GRP_0067
  8
ガラス
  6
CONTINUOUS
 10
0.0
 20
0.0
  0
INSERT
  2
*GRP_0068
  8
ガラス
  6
CONTINUOUS
 10
0.0
 20
0.0
  0
INSERT
  2
*GRP_0069
  8
ガラス
  6
CONTINUOUS
 10
0.0
 20
0.0
  0
INSERT
  2
*GRP_0070
  8
ガラス
  6
CONTINUOUS
 10
0.0
 20
0.0
  0
INSERT
  2
*GRP_0071
  8
ガラス
  6
CONTINUOUS
 10
0.0
 20
0.0
  0
INSERT
  2
*GRP_0072
  8
ガラス
  6
CONTINUOUS
 10
0.0
 20
0.0
  0
INSERT
  2
*GRP_0073
  8
ガラス
  6
CONTINUOUS
 10
0.0
 20
0.0
  0
INSERT
  2
*GRP_0074
  8
ガラス
  6
CONTINUOUS
 10
0.0
 20
0.0
  0
INSERT
  2
*GRP_0075
  8
ガラス
  6
CONTINUOUS
 10
0.0
 20
0.0
  0
INSERT
  2
*GRP_0076
  8
ガラス
  6
CONTINUOUS
 10
0.0
 20
0.0
  0
INSERT
  2
*GRP_0077
  8
ガラス
  6
CONTINUOUS
 10
0.0
 20
0.0
  0
INSERT
  2
*GRP_0078
  8
ガラス
  6
CONTINUOUS
 10
0.0
 20
0.0
  0
INSERT
  2
*GRP_0079
  8
ガラス
  6
CONTINUOUS
 10
0.0
 20
0.0
  0
INSERT
  2
*GRP_0080
  8
ガラス
  6
CONTINUOUS
 10
0.0
 20
0.0
  0
INSERT
  2
*GRP_0081
  8
ガラス
  6
CONTINUOUS
 10
0.0
 20
0.0
  0
INSERT
  2
*GRP_0082
  8
ゴム等
  6
DOT
 10
0.0
 20
0.0
  0
INSERT
  2
*GRP_0083
  8
ゴム等
  6
DOT
 10
0.0
 20
0.0
  0
INSERT
  2
*GRP_0084
  8
ゴム等
  6
CONTINUOUS
 10
0.0
 20
0.0
  0
INSERT
  2
*GRP_0085
  8
ゴム等
  6
CONTINUOUS
 10
0.0
 20
0.0
  0
INSERT
  2
*GRP_0086
  8
ゴム等
  6
CONTINUOUS
 62
    63
 10
0.0
 20
0.0
  0
INSERT
  2
*GRP_0087
  8
ゴム等
  6
DOT
 62
    63
 10
0.0
 20
0.0
  0
INSERT
  2
*GRP_0088
  8
ゴム等
  6
CONTINUOUS
 62
    63
 10
0.0
 20
0.0
  0
INSERT
  2
*GRP_0103
  8
ゴム等
  6
CONTINUOUS
 10
0.0
 20
0.0
  0
INSERT
  2
*GRP_0005
  8
ボルト／ビス
  6
CONTINUOUS
 62
    64
 10
0.0
 20
0.0
  0
INSERT
  2
*GRP_0006
  8
ボルト／ビス
  6
CONTINUOUS
 62
    64
 10
0.0
 20
0.0
  0
INSERT
  2
*GRP_0042
  8
ボルト／ビス
  6
CONTINUOUS
 62
    64
 10
0.0
 20
0.0
  0
INSERT
  2
*GRP_0043
  8
ボルト／ビス
  6
CONTINUOUS
 62
    64
 10
0.0
 20
0.0
  0
INSERT
  2
*GRP_0089
  8
ボルト／ビス
  6
CONTINUOUS
 10
0.0
 20
0.0
  0
INSERT
  2
*GRP_0090
  8
ボルト／ビス
  6
CONTINUOUS
 10
0.0
 20
0.0
  0
TEXT
  7
TextStyle03
  8
文字
  6
CONTINUOUS
 10
-176.425
 20
94.4
  1
ＮＳコード：ＮＳ４Ｃ
 40
5.0
 72
     5
 11
-120.8
 21
94.4
  0
TEXT
  7
TextStyle03
  8
文字
  6
CONTINUOUS
 10
-176.225
 20
115.65
  1
シリーズ：ＴＦ４
 40
5.0
 72
     5
 11
-131.85
 21
115.65
  0
TEXT
  7
TextStyle03
  8
文字
  6
CONTINUOUS
 10
-176.225
 20
110.025
  1
　　　　　　四角錘（上下可動）
 40
5.0
 72
     5
 11
-92.475
 21
110.025
  0
TEXT
  7
TextStyle03
  8
文字
  6
CONTINUOUS
 10
-176.225
 20
104.4
  1
図面名　：下枠断面詳細図Ａ
 40
5.0
 72
     5
 11
-103.725
 21
104.4
  0
TEXT
  7
TextStyle03
  8
文字
  6
CONTINUOUS
 10
110.025
 20
121.85
  1
呼称寸法
 40
3.5
 72
     5
 11
125.375
 21
121.85
  0
TEXT
  7
TextStyle03
  8
文字
  6
CONTINUOUS
 10
19.725
 20
-1.3
  1
TKR-1301
 40
4.0
 72
     5
 11
37.475
 21
-1.3
  0
TEXT
  7
TextStyle03
  8
文字
  6
CONTINUOUS
 10
19.725
 20
7.425
  1
TKR-1201
 40
4.0
 72
     5
 11
37.475
 21
7.425
  0
TEXT
  7
TextStyle03
  8
文字
  6
CONTINUOUS
 10
-49.525
 20
38.35
  1
TKR-1402
 40
4.0
 72
     5
 11
-31.775
 21
38.35
  0
TEXT
  7
TextStyle03
  8
文字
  6
CONTINUOUS
 10
-56.55
 20
54.325
  1
TKR-1401
 40
4.0
 72
     5
 11
-38.8
 21
54.325
  0
TEXT
  7
TextStyle03
  8
文字
  6
CONTINUOUS
 10
-56.575
 20
-38.725
  1
TKR-1401
 40
4.0
 72
     5
 11
-38.825
 21
-38.725
  0
TEXT
  7
TextStyle03
  8
文字
  6
CONTINUOUS
 10
64.5
 20
-109.7
  1
アンカー　St-3.2t
 40
4.0
 72
     5
 11
102.5
 21
-109.7
  0
TEXT
  7
TextStyle03
  8
文字
  6
CONTINUOUS
 10
-96.2
 20
73.775
  1
M4リベット
 40
4.0
 72
     5
 11
-74.2
 21
73.775
  0
TEXT
  7
TextStyle03
  8
文字
  6
CONTINUOUS
 10
-96.2
 20
69.275
  1
(コーナー)
 40
4.0
 72
     5
 11
-73.95
 21
69.275
  0
TEXT
  7
TextStyle03
  8
文字
  6
CONTINUOUS
 10
53.3
 20
69.6
  1
TK-1121
 40
4.0
 72
     5
 11
68.8
 21
69.6
  0
TEXT
  7
TextStyle03
  8
文字
  6
CONTINUOUS
 10
169.375
 20
7.125
  1
バランスステー
 40
3.0
 72
     5
 11
192.625
 21
7.125
  0
TEXT
  7
TextStyle03
  8
文字
  6
CONTINUOUS
 10
111.6
 20
9.75
  1
出荷固定金物
 40
4.0
 72
     5
 11
138.1
 21
9.75
  0
INSERT
  2
*GRP_0007
  8
寸法
  6
CONTINUOUS
 10
0.0
 20
0.0
  0
INSERT
  2
*DIM_0008
  8
寸法
  6
CONTINUOUS
 10
0.0
 20
0.0
  0
INSERT
  2
*DIM_0009
  8
寸法
  6
CONTINUOUS
 10
0.0
 20
0.0
  0
INSERT
  2
*DIM_0010
  8
寸法
  6
CONTINUOUS
 10
0.0
 20
0.0
  0
INSERT
  2
*DIM_0011
  8
寸法
  6
CONTINUOUS
 10
0.0
 20
0.0
  0
INSERT
  2
*DIM_0012
  8
寸法
  6
CONTINUOUS
 10
0.0
 20
0.0
  0
INSERT
  2
*DIM_0013
  8
寸法
  6
CONTINUOUS
 10
0.0
 20
0.0
  0
INSERT
  2
*DIM_0014
  8
寸法
  6
CONTINUOUS
 10
0.0
 20
0.0
  0
INSERT
  2
*DIM_0015
  8
寸法
  6
CONTINUOUS
 10
0.0
 20
0.0
  0
INSERT
  2
*DIM_0016
  8
寸法
  6
CONTINUOUS
 10
0.0
 20
0.0
  0
INSERT
  2
*DIM_0017
  8
寸法
  6
CONTINUOUS
 10
0.0
 20
0.0
  0
INSERT
  2
*DIM_0018
  8
寸法
  6
CONTINUOUS
 10
0.0
 20
0.0
  0
INSERT
  2
*DIM_0019
  8
寸法
  6
CONTINUOUS
 10
0.0
 20
0.0
  0
INSERT
  2
*DIM_0020
  8
寸法
  6
CONTINUOUS
 10
0.0
 20
0.0
  0
INSERT
  2
*DIM_0021
  8
寸法
  6
CONTINUOUS
 10
0.0
 20
0.0
  0
INSERT
  2
*DIM_0022
  8
寸法
  6
CONTINUOUS
 10
0.0
 20
0.0
  0
INSERT
  2
*GRP_0023
  8
寸法
  6
CONTINUOUS
 10
0.0
 20
0.0
  0
INSERT
  2
*GRP_0024
  8
寸法
  6
CONTINUOUS
 10
0.0
 20
0.0
  0
INSERT
  2
*GRP_0025
  8
寸法
  6
CONTINUOUS
 10
0.0
 20
0.0
  0
INSERT
  2
*GRP_0026
  8
寸法
  6
CONTINUOUS
 10
0.0
 20
0.0
  0
INSERT
  2
*GRP_0027
  8
寸法
  6
CONTINUOUS
 10
0.0
 20
0.0
  0
INSERT
  2
*GRP_0028
  8
寸法
  6
CONTINUOUS
 10
0.0
 20
0.0
  0
INSERT
  2
*GRP_0029
  8
寸法
  6
CONTINUOUS
 10
0.0
 20
0.0
  0
INSERT
  2
*GRP_0030
  8
寸法
  6
CONTINUOUS
 10
0.0
 20
0.0
  0
INSERT
  2
*GRP_0041
  8
寸法
  6
CONTINUOUS
 10
0.0
 20
0.0
  0
POLYLINE
  8
寸法
  6
CONTINUOUS
 66
     1
  0
VERTEX
  8
寸法
 10
124.183615
 20
-24.970085
  0
VERTEX
  8
寸法
 10
146.526535
 20
8.57356
  0
VERTEX
  8
寸法
 10
168.68146
 20
8.57356
  0
SEQEND
  0
INSERT
  2
*GRP_0045
  8
寸法
  6
CONTINUOUS
 10
0.0
 20
0.0
  0
INSERT
  2
*DIM_0098
  8
寸法
  6
CONTINUOUS
 10
0.0
 20
0.0
  0
INSERT
  2
*DIM_0099
  8
寸法
  6
CONTINUOUS
 10
0.0
 20
0.0
  0
INSERT
  2
*DIM_0100
  8
寸法
  6
CONTINUOUS
 10
0.0
 20
0.0
  0
INSERT
  2
*DIM_0101
  8
寸法
  6
CONTINUOUS
 10
0.0
 20
0.0
  0
INSERT
  2
*DIM_0102
  8
寸法
  6
CONTINUOUS
 10
0.0
 20
0.0
  0
INSERT
  2
*HAT_0007
  8
ﾊｯﾁﾝｸﾞ
 10
0.0
 20
0.0
  0
INSERT
  2
*GRP_0091
  8
別途部材
  6
DOT
 10
0.0
 20
0.0
  0
INSERT
  2
*GRP_0092
  8
別途部材
  6
DOT
 10
0.0
 20
0.0
  0
INSERT
  2
*GRP_0031
  8
St
  6
CONTINUOUS
 10
0.0
 20
0.0
  0
LINE
  8
St
  6
DOT
 10
81.693963
 20
59.525163
 11
189.31306
 21
59.525163
  0
LINE
  8
St
  6
DOT
 10
81.693963
 20
25.525158
 11
189.31306
 21
25.525158
  0
LINE
  8
St
  6
DOT
 10
106.693975
 20
-19.475937
 11
189.31306
 21
-19.475937
  0
LINE
  8
St
  6
DOT
 10
106.693975
 20
-53.475943
 11
189.31306
 21
-53.475943
  0
INSERT
  2
*GRP_0044
  8
St
  6
CONTINUOUS
 10
0.0
 20
0.0
  0
INSERT
  2
*GRP_0093
  8
St
  6
CONTINUOUS
 10
0.0
 20
0.0
  0
LINE
  8
その他部品等
  6
CONTINUOUS
 10
-30.82037
 20
125.57107
 11
-37.891438
 21
118.500002
  0
LINE
  8
その他部品等
  6
CONTINUOUS
 10
-39.659338
 20
96.226285
 11
-48.498035
 21
105.064983
  0
LINE
  8
その他部品等
  6
CONTINUOUS
 10
-34.709592
 20
101.17603
 11
-43.54829
 21
110.014727
  0
LINE
  8
その他部品等
  6
CONTINUOUS
 10
-43.54829
 20
110.014727
 11
-39.659338
 21
96.226285
  0
LINE
  8
その他部品等
  6
CONTINUOUS
 10
-37.891438
 20
118.500002
 11
-17.38562
 21
118.500002
  0
ENDSEC
  0
EOF
