  0
SECTION
  2
HEADER
  9
$EXTMIN
 10
-210.0
 20
-148.5
  9
$EXTMAX
 10
210.0
 20
148.5
  9
$PDMODE
 70
    32
  9
$PDSIZE
 40
1.5
  9
$LTSCALE
 40
10.0
  0
ENDSEC
  0
SECTION
  2
TABLES
  0
TABLE
  2
LTYPE
 70
    15
  0
LTYPE
  2
CONTINUOUS
 70
    64
  3
実線
 72
    65
 73
     0
 40
0.0
  0
LTYPE
  2
DASHED
 70
    64
  3
破線A
 72
    65
 73
     2
 40
0.6
 49
0.4
 49
-0.2
  0
LTYPE
  2
DASHEDX2
 70
    64
  3
破線B
 72
    65
 73
     2
 40
1.3
 49
0.9
 49
-0.4
  0
LTYPE
  2
DASHDOT
 70
    64
  3
１点鎖線A
 72
    65
 73
     4
 40
0.5375
 49
0.375
 49
-0.05
 49
0.0625
 49
-0.05
  0
LTYPE
  2
DASHDOTX2
 70
    64
  3
１点鎖線B
 72
    65
 73
     4
 40
1.075
 49
0.75
 49
-0.1
 49
0.125
 49
-0.1
  0
LTYPE
  2
DIVIDE2
 70
    64
  3
２点鎖線A
 72
    65
 73
     6
 40
0.5125
 49
0.3
 49
-0.0375
 49
0.05
 49
-0.0375
 49
0.05
 49
-0.0375
  0
LTYPE
  2
DIVIDE
 70
    64
  3
２点鎖線B
 72
    65
 73
     6
 40
1.05
 49
0.55
 49
-0.1
 49
0.1
 49
-0.1
 49
0.1
 49
-0.1
  0
LTYPE
  2
DOT
 70
    64
  3
点線A
 72
    65
 73
     2
 40
0.1125
 49
0.0625
 49
-0.05
  0
LTYPE
  2
DOTX2
 70
    64
  3
点線B
 72
    65
 73
     2
 40
0.275
 49
0.15
 49
-0.125
  0
LTYPE
  2
CONTINUOUS
 70
    64
  3
実線
 72
    65
 73
     0
 40
0.0
  0
LTYPE
  2
CONTINUOUS
 70
    64
  3
実線
 72
    65
 73
     0
 40
0.0
  0
LTYPE
  2
CONTINUOUS
 70
    64
  3
実線
 72
    65
 73
     0
 40
0.0
  0
LTYPE
  2
CONTINUOUS
 70
    64
  3
実線
 72
    65
 73
     0
 40
0.0
  0
LTYPE
  2
CONTINUOUS
 70
    64
  3
実線
 72
    65
 73
     0
 40
0.0
  0
LTYPE
  2
CONTINUOUS
 70
    64
  3
実線
 72
    65
 73
     0
 40
0.0
  0
ENDTAB
  0
TABLE
  2
LAYER
 70
    36
  0
LAYER
  2
通り芯
 70
     0
 62
    15
  6
CONTINUOUS
  0
LAYER
  2
補助線
 70
     0
 62
    16
  6
DOT
  0
LAYER
  2
躯体
 70
     0
 62
    31
  6
CONTINUOUS
  0
LAYER
  2
型材
 70
     0
 62
    32
  6
CONTINUOUS
  0
LAYER
  2
型材断面
 70
     0
 62
    47
  6
CONTINUOUS
  0
LAYER
  2
ガラス
 70
     0
 62
    48
  6
CONTINUOUS
  0
LAYER
  2
ゴム等
 70
     0
 62
    63
  6
CONTINUOUS
  0
LAYER
  2
ボルト／ビス
 70
     0
 62
    64
  6
CONTINUOUS
  0
LAYER
  2
文字
 70
     0
 62
    79
  6
CONTINUOUS
  0
LAYER
  2
寸法
 70
     0
 62
    80
  6
CONTINUOUS
  0
LAYER
  2
ﾊｯﾁﾝｸﾞ
 70
     0
 62
    95
  6
CONTINUOUS
  0
LAYER
  2
別途部材
 70
     0
 62
    96
  6
CONTINUOUS
  0
LAYER
  2
曲げ物
 70
     0
 62
   111
  6
CONTINUOUS
  0
LAYER
  2
鉄骨等
 70
     0
 62
   112
  6
CONTINUOUS
  0
LAYER
  2
St
 70
     0
 62
   127
  6
CONTINUOUS
  0
LAYER
  2
その他部品等
 70
     0
 62
   128
  6
CONTINUOUS
  0
LAYER
  2
ｶﾞｽｹｯﾄ
 70
     0
 62
   143
  6
CONTINUOUS
  0
LAYER
  2
ｽｹｯﾁ
 70
     0
 62
    14
  6
CONTINUOUS
  0
LAYER
  2
0
 70
     0
 62
    17
  6
CONTINUOUS
  0
LAYER
  2
1
 70
     0
 62
    30
  6
CONTINUOUS
  0
LAYER
  2
4
 70
     0
 62
    33
  6
CONTINUOUS
  0
LAYER
  2
ﾚｲﾔ3
 70
     0
 62
    46
  6
CONTINUOUS
  0
LAYER
  2
外形線
 70
     0
 62
    49
  6
CONTINUOUS
  0
LAYER
  2
部品
 70
     0
 62
    14
  6
CONTINUOUS
  0
LAYER
  2
サッシ芯
 70
     0
 62
    17
  6
DASHDOTX2
  0
LAYER
  2
寸法線
 70
     0
 62
    62
  6
CONTINUOUS
  0
LAYER
  2
姿図外形線
 70
     0
 62
    65
  6
CONTINUOUS
  0
LAYER
  2
姿補助線
 70
     0
 62
    30
  6
CONTINUOUS
  0
LAYER
  2
透視線
 70
     0
 62
    78
  6
DOT
  0
LAYER
  2
用紙
 70
     0
 62
    81
  6
CONTINUOUS
  0
LAYER
  2
実線図枠
 70
     0
 62
    94
  6
CONTINUOUS
  0
LAYER
  2
補助図枠
 70
     0
 62
    97
  6
CONTINUOUS
  0
LAYER
  2
建具記号
 70
     0
 62
   110
  6
CONTINUOUS
  0
LAYER
  2
補助文字
 70
     0
 62
   113
  6
CONTINUOUS
  0
LAYER
  2
01
 70
     0
 62
     1
  6
CONTINUOUS
  0
LAYER
  2
05
 70
     0
 62
     5
  6
CONTINUOUS
  0
ENDTAB
  0
TABLE
  2
STYLE
 70
    10
  0
STYLE
  2
STANDARD
 70
     0
 40
1.0
 41
1.0
 42
1.0
 50
0.0
 71
     0
  3
TXT
  4
BIGFONT
  0
STYLE
  2
TATE
 70
     4
 40
1.0
 41
1.0
 42
1.0
 50
0.0
 71
     0
  3
TXT
  4
BIGFONT
  0
STYLE
  2
TextStyle03
 70
     0
 40
1.0
 41
1.0
 42
1.0
 50
0.0
 71
     0
  3
MONOTXT
  4
BIGFONT
  0
STYLE
  2
TextStyle04
 70
     0
 40
1.0
 41
1.0
 42
1.0
 50
0.0
 71
     0
  3
MONOTXT
  4
BIGFONT
  0
STYLE
  2
TextStyle05
 70
     0
 40
1.0
 41
1.0
 42
1.0
 50
0.0
 71
     0
  3
MONOTXT
  4
BIGFONT
  0
STYLE
  2
TextStyle06
 70
     0
 40
1.0
 41
1.0
 42
1.0
 50
0.0
 71
     0
  3
MONOTXT
  4
BIGFONT
  0
STYLE
  2
TextStyle07
 70
     0
 40
1.0
 41
1.0
 42
1.0
 50
0.0
 71
     0
  3
MONOTXT
  4
BIGFONT
  0
STYLE
  2
TextStyle08
 70
     0
 40
1.0
 41
1.0
 42
1.0
 50
0.0
 71
     0
  3
MONOTXT
  4
BIGFONT
  0
STYLE
  2
TextStyle09
 70
     0
 40
1.0
 41
1.0
 42
1.0
 50
0.0
 71
     0
  3
MONOTXT
  4
BIGFONT
  0
STYLE
  2
TextStyle10
 70
     0
 40
1.0
 41
1.0
 42
1.0
 50
0.0
 71
     0
  3
MONOTXT
  4
BIGFONT
  0
ENDTAB
  0
ENDSEC
  0
SECTION
  2
BLOCKS
  0
BLOCK
  2
*HAT_0001
 70
    65
 10
0.0
 20
0.0
  0
LINE
  8
ゴム等
  6
DOT
 10
-18.825
 20
-1.925
 11
-17.25
 21
-3.5
  0
LINE
  8
ゴム等
  6
DOT
 10
-16.35
 20
-4.475
 11
-15.0
 21
-5.825
  0
LINE
  8
ゴム等
  6
DOT
 10
-18.825
 20
-0.575
 11
-13.575
 21
-5.825
  0
LINE
  8
ゴム等
  6
DOT
 10
-18.825
 20
0.85
 11
-12.15
 21
-5.825
  0
LINE
  8
ゴム等
  6
DOT
 10
-18.225
 20
1.675
 11
-11.325
 21
-5.225
  0
LINE
  8
ゴム等
  6
DOT
 10
-17.1
 20
1.975
 11
-11.325
 21
-3.8
  0
LINE
  8
ゴム等
  6
DOT
 10
-16.35
 20
2.575
 11
-11.325
 21
-2.375
  0
LINE
  8
ゴム等
  6
DOT
 10
-16.35
 20
4.0
 11
-11.625
 21
-0.65
  0
LINE
  8
ゴム等
  6
DOT
 10
-15.075
 20
4.225
 11
-11.325
 21
0.4
  0
LINE
  8
ゴム等
  6
DOT
 10
-13.65
 20
4.225
 11
-11.325
 21
1.825
  0
LINE
  8
ゴム等
  6
DOT
 10
-12.225
 20
4.225
 11
-11.325
 21
3.25
  0
ENDBLK
  0
BLOCK
  2
*HAT_0002
 70
    65
 10
0.0
 20
0.0
  0
LINE
  8
ゴム等
  6
DOT
 10
2.55
 20
-98.3
 11
0.975
 21
-96.725
  0
LINE
  8
ゴム等
  6
DOT
 10
0.0
 20
-95.75
 11
-1.35
 21
-94.4
  0
LINE
  8
ゴム等
  6
DOT
 10
3.9
 20
-98.3
 11
-1.35
 21
-92.975
  0
LINE
  8
ゴム等
  6
DOT
 10
5.325
 20
-98.3
 11
-1.35
 21
-91.625
  0
LINE
  8
ゴム等
  6
DOT
 10
6.15
 20
-97.7
 11
-0.75
 21
-90.8
  0
LINE
  8
ゴム等
  6
DOT
 10
6.45
 20
-96.5
 11
0.675
 21
-90.8
  0
LINE
  8
ゴム等
  6
DOT
 10
7.05
 20
-95.75
 11
2.1
 21
-90.8
  0
LINE
  8
ゴム等
  6
DOT
 10
8.475
 20
-95.75
 11
3.825
 21
-91.1
  0
LINE
  8
ゴム等
  6
DOT
 10
8.7
 20
-94.55
 11
4.875
 21
-90.8
  0
LINE
  8
ゴム等
  6
DOT
 10
8.7
 20
-93.125
 11
6.3
 21
-90.8
  0
LINE
  8
ゴム等
  6
DOT
 10
8.7
 20
-91.7
 11
7.725
 21
-90.8
  0
ENDBLK
  0
BLOCK
  2
*HAT_0003
 70
    65
 10
0.0
 20
0.0
  0
LINE
  8
ゴム等
 10
-1.05
 20
7.225
 11
-0.15
 21
8.2
  0
LINE
  8
ゴム等
 10
-2.925
 20
7.225
 11
0.45
 21
10.6
  0
LINE
  8
ゴム等
 10
3.075
 20
13.225
 11
3.675
 21
13.825
  0
LINE
  8
ゴム等
 10
-4.8
 20
7.225
 11
-0.3
 21
11.725
  0
LINE
  8
ゴム等
 10
1.2
 20
13.225
 11
3.675
 21
15.7
  0
LINE
  8
ゴム等
 10
-6.675
 20
7.225
 11
-5.1
 21
8.8
  0
LINE
  8
ゴム等
 10
-2.85
 20
11.05
 11
3.0
 21
16.9
  0
LINE
  8
ゴム等
 10
-8.4
 20
7.45
 11
-5.85
 21
10.0
  0
LINE
  8
ゴム等
 10
-3.0
 20
12.775
 11
1.65
 21
17.425
  0
LINE
  8
ゴム等
 10
-8.7
 20
8.95
 11
-5.85
 21
11.875
  0
LINE
  8
ゴム等
 10
-4.5
 20
13.225
 11
-0.3
 21
17.425
  0
LINE
  8
ゴム等
 10
-9.075
 20
10.45
 11
-8.55
 21
11.05
  0
LINE
  8
ゴム等
 10
-8.325
 20
11.2
 11
-2.1
 21
17.425
  0
LINE
  8
ゴム等
 10
-8.325
 20
13.15
 11
-4.05
 21
17.425
  0
LINE
  8
ゴム等
 10
-10.125
 20
13.225
 11
-5.925
 21
17.425
  0
LINE
  8
ゴム等
 10
-10.35
 20
14.95
 11
-7.8
 21
17.425
  0
LINE
  8
ゴム等
 10
-11.175
 20
15.925
 11
-9.675
 21
17.425
  0
LINE
  8
ゴム等
 10
-12.825
 20
16.15
 11
-11.55
 21
17.425
  0
ENDBLK
  0
BLOCK
  2
*HAT_0004
 70
    65
 10
0.0
 20
0.0
  0
LINE
  8
ゴム等
 10
-13.725
 20
10.375
 11
-12.75
 21
11.425
  0
LINE
  8
ゴム等
 10
-10.725
 20
13.375
 11
-10.725
 21
13.45
  0
LINE
  8
ゴム等
 10
-19.125
 20
6.925
 11
-17.775
 21
8.275
  0
LINE
  8
ゴム等
 10
-15.675
 20
10.375
 11
-12.75
 21
13.3
  0
LINE
  8
ゴム等
 10
-12.675
 20
13.375
 11
-10.725
 21
15.325
  0
LINE
  8
ゴム等
 10
-21.075
 20
6.925
 11
-18.75
 21
9.175
  0
LINE
  8
ゴム等
 10
-17.55
 20
10.375
 11
-12.075
 21
15.925
  0
LINE
  8
ゴム等
 10
-22.875
 20
6.925
 11
-13.875
 21
15.925
  0
LINE
  8
ゴム等
 10
-24.225
 20
7.525
 11
-15.825
 21
15.925
  0
LINE
  8
ゴム等
 10
-23.775
 20
9.85
 11
-17.025
 21
16.525
  0
LINE
  8
ゴム等
 10
-25.05
 20
10.375
 11
-18.525
 21
16.975
  0
LINE
  8
ゴム等
 10
-26.925
 20
10.375
 11
-20.025
 21
17.275
  0
LINE
  8
ゴム等
 10
-27.75
 20
11.5
 11
-21.825
 21
17.425
  0
LINE
  8
ゴム等
 10
-27.75
 20
13.375
 11
-23.925
 21
17.2
  0
LINE
  8
ゴム等
 10
-27.75
 20
15.325
 11
-26.55
 21
16.45
  0
ENDBLK
  0
BLOCK
  2
*HAT_0005
 70
    65
 10
0.0
 20
0.0
  0
LINE
  8
別途部材
  6
DOT
 10
-32.775
 20
-111.275
 11
-33.0
 21
-111.05
  0
LINE
  8
別途部材
  6
DOT
 10
-30.3
 20
-111.275
 11
-33.0
 21
-108.5
  0
LINE
  8
別途部材
  6
DOT
 10
-27.75
 20
-111.275
 11
-33.0
 21
-105.95
  0
LINE
  8
別途部材
  6
DOT
 10
-25.2
 20
-111.275
 11
-33.0
 21
-103.4
  0
LINE
  8
別途部材
  6
DOT
 10
-23.025
 20
-110.9
 11
-32.625
 21
-101.225
  0
LINE
  8
別途部材
  6
DOT
 10
-23.025
 20
-108.35
 11
-30.075
 21
-101.225
  0
LINE
  8
別途部材
  6
DOT
 10
-23.025
 20
-105.8
 11
-27.6
 21
-101.225
  0
LINE
  8
別途部材
  6
DOT
 10
-23.025
 20
-103.25
 11
-25.05
 21
-101.225
  0
ENDBLK
  0
BLOCK
  2
*HAT_0006
 70
    65
 10
0.0
 20
0.0
  0
LINE
  8
別途部材
  6
DOT
 10
-59.925
 20
24.925
 11
-60.15
 21
25.15
  0
LINE
  8
別途部材
  6
DOT
 10
-57.45
 20
24.925
 11
-60.15
 21
27.7
  0
LINE
  8
別途部材
  6
DOT
 10
-54.9
 20
24.925
 11
-60.15
 21
30.25
  0
LINE
  8
別途部材
  6
DOT
 10
-52.35
 20
24.925
 11
-60.15
 21
32.8
  0
LINE
  8
別途部材
  6
DOT
 10
-50.175
 20
25.3
 11
-59.775
 21
34.975
  0
LINE
  8
別途部材
  6
DOT
 10
-50.175
 20
27.85
 11
-57.225
 21
34.975
  0
LINE
  8
別途部材
  6
DOT
 10
-50.175
 20
30.4
 11
-54.75
 21
34.975
  0
LINE
  8
別途部材
  6
DOT
 10
-50.175
 20
32.95
 11
-52.2
 21
34.975
  0
ENDBLK
  0
BLOCK
  2
*HAT_0007
 70
    65
 10
0.0
 20
0.0
  0
LINE
  8
ﾊｯﾁﾝｸﾞ
 10
-37.3
 20
102.025
 11
-20.95
 21
118.375
  0
LINE
  8
ﾊｯﾁﾝｸﾞ
 10
-38.35
 20
103.15
 11
-23.125
 21
118.375
  0
LINE
  8
ﾊｯﾁﾝｸﾞ
 10
-39.4
 20
104.2
 11
-25.225
 21
118.375
  0
LINE
  8
ﾊｯﾁﾝｸﾞ
 10
-40.525
 20
105.25
 11
-27.325
 21
118.375
  0
LINE
  8
ﾊｯﾁﾝｸﾞ
 10
-41.575
 20
106.3
 11
-29.425
 21
118.375
  0
LINE
  8
ﾊｯﾁﾝｸﾞ
 10
-42.625
 20
107.35
 11
-31.525
 21
118.375
  0
LINE
  8
ﾊｯﾁﾝｸﾞ
 10
-43.675
 20
108.4
 11
-33.7
 21
118.375
  0
LINE
  8
ﾊｯﾁﾝｸﾞ
 10
-44.725
 20
109.45
 11
-41.2
 21
112.975
  0
LINE
  8
ﾊｯﾁﾝｸﾞ
 10
-37.675
 20
116.575
 11
-35.8
 21
118.375
  0
LINE
  8
ﾊｯﾁﾝｸﾞ
 10
-38.725
 20
117.625
 11
-37.9
 21
118.375
  0
LINE
  8
ﾊｯﾁﾝｸﾞ
 10
-44.725
 20
110.35
 11
-35.875
 21
101.575
  0
LINE
  8
ﾊｯﾁﾝｸﾞ
 10
-43.675
 20
111.475
 11
-34.825
 21
102.625
  0
LINE
  8
ﾊｯﾁﾝｸﾞ
 10
-42.625
 20
112.525
 11
-33.775
 21
103.675
  0
LINE
  8
ﾊｯﾁﾝｸﾞ
 10
-40.675
 20
112.675
 11
-32.725
 21
104.725
  0
LINE
  8
ﾊｯﾁﾝｸﾞ
 10
-39.625
 20
113.8
 11
-31.675
 21
105.775
  0
LINE
  8
ﾊｯﾁﾝｸﾞ
 10
-38.575
 20
114.85
 11
-30.625
 21
106.825
  0
LINE
  8
ﾊｯﾁﾝｸﾞ
 10
-37.525
 20
115.9
 11
-29.5
 21
107.875
  0
LINE
  8
ﾊｯﾁﾝｸﾞ
 10
-37.9
 20
118.375
 11
-28.45
 21
108.925
  0
LINE
  8
ﾊｯﾁﾝｸﾞ
 10
-35.8
 20
118.375
 11
-27.4
 21
110.05
  0
LINE
  8
ﾊｯﾁﾝｸﾞ
 10
-33.7
 20
118.375
 11
-26.35
 21
111.1
  0
LINE
  8
ﾊｯﾁﾝｸﾞ
 10
-31.6
 20
118.375
 11
-25.3
 21
112.15
  0
LINE
  8
ﾊｯﾁﾝｸﾞ
 10
-29.425
 20
118.375
 11
-24.25
 21
113.2
  0
LINE
  8
ﾊｯﾁﾝｸﾞ
 10
-27.325
 20
118.375
 11
-23.2
 21
114.25
  0
LINE
  8
ﾊｯﾁﾝｸﾞ
 10
-25.225
 20
118.375
 11
-22.15
 21
115.3
  0
LINE
  8
ﾊｯﾁﾝｸﾞ
 10
-23.125
 20
118.375
 11
-21.025
 21
116.35
  0
LINE
  8
ﾊｯﾁﾝｸﾞ
 10
-20.95
 20
118.375
 11
-19.975
 21
117.4
  0
ENDBLK
  0
BLOCK
  2
*GRP_0001
 70
    65
 10
0.0
 20
0.0
  0
LINE
  8
型材断面
  6
CONTINUOUS
 10
195.0
 20
133.5
 11
195.0
 21
-133.5
  0
LINE
  8
型材断面
  6
CONTINUOUS
 10
195.0
 20
-133.5
 11
-185.0
 21
-133.5
  0
LINE
  8
型材断面
  6
CONTINUOUS
 10
-185.0
 20
-133.5
 11
-185.0
 21
133.5
  0
LINE
  8
型材断面
  6
CONTINUOUS
 10
195.0
 20
133.5
 11
-185.0
 21
133.5
  0
LINE
  8
型材断面
  6
CONTINUOUS
 10
145.0
 20
-133.5
 11
145.0
 21
-118.5
  0
LINE
  8
型材断面
  6
CONTINUOUS
 10
195.0
 20
-118.5
 11
145.0
 21
-118.5
  0
ENDBLK
  0
BLOCK
  2
*GRP_0002
 70
    65
 10
0.0
 20
0.0
  0
ARC
  8
通り芯
  6
CONTINUOUS
 10
-57.912432
 20
27.080969
 40
2.0
 50
180.0
 51
270.0
  0
INSERT
  2
*GRP_0027
  8
通り芯
  6
DOT
 10
0.0
 20
0.0
  0
INSERT
  2
*GRP_0028
  8
通り芯
  6
DOT
 10
0.0
 20
0.0
  0
INSERT
  2
*GRP_0029
  8
通り芯
  6
DOT
 10
0.0
 20
0.0
  0
ARC
  8
通り芯
  6
CONTINUOUS
 10
-25.912535
 20
27.080969
 40
2.0
 50
270.0
 51
360.0
  0
LINE
  8
通り芯
  6
CONTINUOUS
 10
-57.912432
 20
27.080968
 11
-25.912532
 21
27.080968
  0
LINE
  8
通り芯
  6
CONTINUOUS
 10
-59.912435
 20
25.080965
 11
-23.912537
 21
25.080965
  0
LINE
  8
通り芯
  6
CONTINUOUS
 10
-23.912537
 20
25.080965
 11
-23.912537
 21
33.58096
  0
LINE
  8
通り芯
  6
CONTINUOUS
 10
-25.912532
 20
27.080968
 11
-25.912532
 21
33.58096
  0
LINE
  8
通り芯
  6
CONTINUOUS
 10
-23.912537
 20
33.58096
 11
-25.912532
 21
33.58096
  0
LINE
  8
通り芯
  6
CONTINUOUS
 10
-57.912432
 20
27.080968
 11
-57.912432
 21
72.08087
  0
LINE
  8
通り芯
  6
CONTINUOUS
 10
-59.912435
 20
25.080965
 11
-59.912435
 21
72.080925
  0
LINE
  8
通り芯
  6
CONTINUOUS
 10
-57.912432
 20
72.08087
 11
-59.912435
 21
72.080925
  0
ENDBLK
  0
BLOCK
  2
*GRP_0003
 70
    65
 10
0.0
 20
0.0
  0
LINE
  8
ゴム等
  6
CONTINUOUS
 10
-14.744412
 20
87.95342
 11
-16.017215
 21
89.226178
  0
LINE
  8
ゴム等
  6
CONTINUOUS
 10
-13.471677
 20
91.771805
 11
-16.017215
 21
89.226178
  0
LINE
  8
ゴム等
  6
CONTINUOUS
 10
-18.13847
 20
84.559235
 11
-19.411287
 21
85.832015
  0
LINE
  8
ゴム等
  6
CONTINUOUS
 10
-21.956833
 20
83.286395
 11
-19.411287
 21
85.832015
  0
LINE
  8
ゴム等
  6
CONTINUOUS
 10
-18.13847
 20
84.559235
 11
-18.845562
 21
83.852127
  0
LINE
  8
ゴム等
  6
CONTINUOUS
 10
-18.845562
 20
83.852127
 11
-18.492005
 21
83.498577
  0
LINE
  8
ゴム等
  6
CONTINUOUS
 10
-14.744412
 20
87.95342
 11
-14.037313
 21
88.660535
  0
LINE
  8
ゴム等
  6
CONTINUOUS
 10
-13.683755
 20
88.306977
 11
-14.037313
 21
88.660535
  0
ARC
  8
ゴム等
  6
CONTINUOUS
 10
-15.875746
 20
85.690657
 40
1.0
 50
225.00089
 51
315.00089
  0
LINE
  8
ゴム等
  6
CONTINUOUS
 10
-15.168628
 20
84.983555
 11
-15.168628
 21
84.983555
  0
ARC
  8
ゴム等
  6
CONTINUOUS
 10
-15.875746
 20
85.690657
 40
1.0
 50
315.00089
 51
405.00089
  0
LINE
  8
ゴム等
  6
CONTINUOUS
 10
-16.30004
 20
87.52913
 11
-15.16865
 21
86.39777
  0
ARC
  8
ゴム等
  6
CONTINUOUS
 10
-17.007134
 20
86.82201
 40
1.0
 50
45.00089
 51
135.00089
  0
LINE
  8
ゴム等
  6
CONTINUOUS
 10
-17.714255
 20
87.529092
 11
-17.714255
 21
87.529092
  0
LINE
  8
ゴム等
  6
CONTINUOUS
 10
-17.71424
 20
86.114892
 11
-16.582842
 21
84.983532
  0
ARC
  8
ゴム等
  6
CONTINUOUS
 10
-17.007134
 20
86.82201
 40
1.0
 50
135.00089
 51
225.00089
  0
LINE
  8
ゴム等
  6
CONTINUOUS
 10
-13.592998
 20
91.650492
 11
-13.593012
 21
91.893125
  0
LINE
  8
ゴム等
  6
CONTINUOUS
 10
-18.59288
 20
84.104817
 11
-18.59288
 21
83.599445
  0
LINE
  8
ゴム等
  6
CONTINUOUS
 10
-14.59301
 20
92.893108
 11
-14.59298
 21
90.650473
  0
LINE
  8
ゴム等
  6
CONTINUOUS
 10
-14.592935
 20
88.104882
 11
-14.592875
 21
84.286505
  0
LINE
  8
ゴム等
  6
CONTINUOUS
 10
-15.59303
 20
93.89309
 11
-15.59297
 21
89.65046
  0
LINE
  8
ゴム等
  6
CONTINUOUS
 10
-15.592955
 20
88.801925
 11
-15.592918
 21
86.82203
  0
LINE
  8
ゴム等
  6
CONTINUOUS
 10
-23.3711
 20
87.529003
 11
-23.3711
 21
87.529003
  0
ARC
  8
ゴム等
  6
CONTINUOUS
 10
-23.724676
 20
88.589673
 40
0.5
 50
225.00089
 51
315.00089
  0
LINE
  8
ゴム等
  6
CONTINUOUS
 10
-18.421445
 20
93.185945
 11
-23.371108
 21
88.236118
  0
ARC
  8
ゴム等
  6
CONTINUOUS
 10
-18.775006
 20
93.539497
 40
0.5
 50
315.00089
 51
405.00089
  0
LINE
  8
ゴム等
  6
CONTINUOUS
 10
-18.421453
 20
93.893052
 11
-17.007268
 21
95.307282
  0
LINE
  8
ゴム等
  6
CONTINUOUS
 10
-13.471677
 20
91.771805
 11
-17.007268
 21
95.307282
  0
LINE
  8
ゴム等
  6
CONTINUOUS
 10
-16.59293
 20
87.732193
 11
-16.593042
 21
94.89308
  0
LINE
  8
ゴム等
  6
CONTINUOUS
 10
-17.592928
 20
87.632465
 11
-17.593048
 21
94.721495
  0
LINE
  8
ゴム等
  6
CONTINUOUS
 10
-18.592895
 20
85.013652
 11
-18.593023
 21
93.014367
  0
LINE
  8
ゴム等
  6
CONTINUOUS
 10
-19.5929
 20
85.650388
 11
-19.592998
 21
92.014355
  0
LINE
  8
ゴム等
  6
CONTINUOUS
 10
-20.592897
 20
84.650375
 11
-20.592987
 21
91.014335
  0
LINE
  8
ゴム等
  6
CONTINUOUS
 10
-21.592872
 20
83.65037
 11
-21.592962
 21
90.01433
  0
LINE
  8
ゴム等
  6
CONTINUOUS
 10
-22.592885
 20
83.922417
 11
-22.592952
 21
89.014302
  0
LINE
  8
ゴム等
  6
CONTINUOUS
 10
-23.592897
 20
84.922408
 11
-23.592943
 21
88.107328
  0
LINE
  8
ゴム等
  6
CONTINUOUS
 10
-24.59291
 20
85.92239
 11
-24.592933
 21
87.721385
  0
LINE
  8
ゴム等
  6
CONTINUOUS
 10
-21.956833
 20
83.286395
 11
-25.492415
 21
86.82188
  0
LINE
  8
ゴム等
  6
CONTINUOUS
 10
-24.078222
 20
88.236118
 11
-25.492415
 21
86.82188
  0
LINE
  8
ゴム等
  6
CONTINUOUS
 10
-18.492005
 20
83.498577
 11
-15.239322
 21
83.64005
  0
LINE
  8
ゴム等
  6
CONTINUOUS
 10
-13.683755
 20
88.306977
 11
-13.825122
 21
85.054295
  0
LINE
  8
ゴム等
  6
CONTINUOUS
 10
-15.239322
 20
83.64005
 11
-13.825122
 21
85.054295
  0
LINE
  8
ゴム等
  6
CONTINUOUS
 10
-16.592893
 20
84.99359
 11
-16.59287
 21
83.581183
  0
LINE
  8
ゴム等
  6
CONTINUOUS
 10
-15.592887
 20
84.731495
 11
-15.592872
 21
83.624675
  0
LINE
  8
ゴム等
  6
CONTINUOUS
 10
-17.592905
 20
85.993557
 11
-17.592868
 21
83.537682
  0
ENDBLK
  0
BLOCK
  2
*GRP_0004
 70
    65
 10
0.0
 20
0.0
  0
LINE
  8
ボルト／ビス
  6
CONTINUOUS
 62
    64
 10
18.608868
 20
-94.17772
 11
18.517165
 21
-95.225882
  0
ARC
  8
ボルト／ビス
  6
CONTINUOUS
 62
    64
 10
16.82362
 20
-95.0777
 40
1.7
 50
269.999999
 51
355.00001
  0
LINE
  8
ボルト／ビス
  6
CONTINUOUS
 62
    64
 10
16.823635
 20
-96.777722
 11
15.108865
 21
-96.777722
  0
LINE
  8
ボルト／ビス
  6
CONTINUOUS
 62
    64
 10
11.60887
 20
-94.177712
 11
11.700573
 21
-95.225875
  0
ARC
  8
ボルト／ビス
  6
CONTINUOUS
 62
    64
 10
13.394087
 20
-95.0777
 40
1.7
 50
184.999988
 51
269.999999
  0
LINE
  8
ボルト／ビス
  6
CONTINUOUS
 62
    64
 10
13.394103
 20
-96.777715
 11
15.108865
 21
-96.777722
  0
LINE
  8
ボルト／ビス
  6
CONTINUOUS
 62
    64
 10
17.505505
 20
-96.392815
 11
17.505497
 21
-96.634968
  0
LINE
  8
ボルト／ビス
  6
CONTINUOUS
 62
    64
 10
15.808863
 20
-95.74273
 11
15.108865
 21
-95.74273
  0
LINE
  8
ボルト／ビス
  6
CONTINUOUS
 62
    64
 10
16.208868
 20
-96.392815
 11
17.505505
 21
-96.392815
  0
LINE
  8
ボルト／ビス
  6
CONTINUOUS
 62
    64
 10
15.808863
 20
-95.74273
 11
15.80887
 21
-95.992818
  0
ARC
  8
ボルト／ビス
  6
CONTINUOUS
 62
    64
 10
16.208853
 20
-95.992795
 40
0.4
 50
179.999999
 51
269.999999
  0
LINE
  8
ボルト／ビス
  6
CONTINUOUS
 62
    64
 10
12.712225
 20
-96.392815
 11
12.712218
 21
-96.634968
  0
LINE
  8
ボルト／ビス
  6
CONTINUOUS
 62
    64
 10
14.408868
 20
-95.742738
 11
15.108865
 21
-95.74273
  0
LINE
  8
ボルト／ビス
  6
CONTINUOUS
 62
    64
 10
14.00887
 20
-96.392815
 11
12.712225
 21
-96.392815
  0
LINE
  8
ボルト／ビス
  6
CONTINUOUS
 62
    64
 10
14.408868
 20
-95.742738
 11
14.408868
 21
-95.99281
  0
ARC
  8
ボルト／ビス
  6
CONTINUOUS
 62
    64
 10
14.008853
 20
-95.992795
 40
0.4
 50
269.999999
 51
359.999999
  0
LINE
  8
ボルト／ビス
  6
CONTINUOUS
 62
    64
 10
18.608868
 20
-94.17772
 11
11.60887
 21
-94.177712
  0
LINE
  8
ボルト／ビス
  6
CONTINUOUS
 62
    64
 10
17.10886
 20
-86.67772
 11
16.608857
 21
-86.177718
  0
LINE
  8
ボルト／ビス
  6
CONTINUOUS
 62
    64
 10
13.10887
 20
-86.67772
 11
13.608865
 21
-86.17771
  0
LINE
  8
ボルト／ビス
  6
CONTINUOUS
 62
    64
 10
16.608857
 20
-94.177712
 11
16.608857
 21
-86.177718
  0
LINE
  8
ボルト／ビス
  6
CONTINUOUS
 62
    64
 10
17.108868
 20
-94.17772
 11
17.10886
 21
-86.67772
  0
LINE
  8
ボルト／ビス
  6
CONTINUOUS
 62
    64
 10
13.608857
 20
-94.177712
 11
13.608865
 21
-86.17771
  0
LINE
  8
ボルト／ビス
  6
CONTINUOUS
 62
    64
 10
13.10887
 20
-94.17772
 11
13.10887
 21
-86.67772
  0
LINE
  8
ボルト／ビス
  6
CONTINUOUS
 62
    64
 10
17.10886
 20
-86.67772
 11
13.10887
 21
-86.67772
  0
LINE
  8
ボルト／ビス
  6
CONTINUOUS
 62
    64
 10
16.608857
 20
-86.177718
 11
13.608865
 21
-86.17771
  0
LINE
  8
ボルト／ビス
  6
CONTINUOUS
 62
    64
 10
15.108865
 20
-98.749105
 11
15.108865
 21
-83.927222
  0
ENDBLK
  0
BLOCK
  2
*GRP_0005
 70
    65
 10
0.0
 20
0.0
  0
LINE
  8
ボルト／ビス
  6
CONTINUOUS
 62
    64
 10
71.591995
 20
-94.177728
 11
71.500293
 21
-95.225875
  0
ARC
  8
ボルト／ビス
  6
CONTINUOUS
 62
    64
 10
69.806747
 20
-95.077696
 40
1.7
 50
269.999999
 51
355.00001
  0
LINE
  8
ボルト／ビス
  6
CONTINUOUS
 62
    64
 10
69.806755
 20
-96.777722
 11
68.091993
 21
-96.777722
  0
LINE
  8
ボルト／ビス
  6
CONTINUOUS
 62
    64
 10
64.591998
 20
-94.17772
 11
64.6837
 21
-95.225882
  0
ARC
  8
ボルト／ビス
  6
CONTINUOUS
 62
    64
 10
66.377214
 20
-95.077696
 40
1.7
 50
184.999988
 51
269.999999
  0
LINE
  8
ボルト／ビス
  6
CONTINUOUS
 62
    64
 10
66.37723
 20
-96.777722
 11
68.091993
 21
-96.777722
  0
LINE
  8
ボルト／ビス
  6
CONTINUOUS
 62
    64
 10
70.488632
 20
-96.392815
 11
70.488625
 21
-96.634975
  0
LINE
  8
ボルト／ビス
  6
CONTINUOUS
 62
    64
 10
68.791998
 20
-95.74273
 11
68.091985
 21
-95.74273
  0
LINE
  8
ボルト／ビス
  6
CONTINUOUS
 62
    64
 10
69.191995
 20
-96.392815
 11
70.488632
 21
-96.392815
  0
LINE
  8
ボルト／ビス
  6
CONTINUOUS
 62
    64
 10
68.791998
 20
-95.74273
 11
68.791998
 21
-95.992818
  0
ARC
  8
ボルト／ビス
  6
CONTINUOUS
 62
    64
 10
69.191981
 20
-95.992791
 40
0.4
 50
179.999999
 51
269.999999
  0
LINE
  8
ボルト／ビス
  6
CONTINUOUS
 62
    64
 10
65.695353
 20
-96.392815
 11
65.695345
 21
-96.634968
  0
LINE
  8
ボルト／ビス
  6
CONTINUOUS
 62
    64
 10
67.391987
 20
-95.742723
 11
68.091985
 21
-95.74273
  0
LINE
  8
ボルト／ビス
  6
CONTINUOUS
 62
    64
 10
66.991998
 20
-96.392807
 11
65.695353
 21
-96.392815
  0
LINE
  8
ボルト／ビス
  6
CONTINUOUS
 62
    64
 10
67.391987
 20
-95.742723
 11
67.391995
 21
-95.992818
  0
ARC
  8
ボルト／ビス
  6
CONTINUOUS
 62
    64
 10
66.991981
 20
-95.992791
 40
0.4
 50
269.999999
 51
359.999999
  0
LINE
  8
ボルト／ビス
  6
CONTINUOUS
 62
    64
 10
71.591995
 20
-94.177728
 11
64.591998
 21
-94.17772
  0
LINE
  8
ボルト／ビス
  6
CONTINUOUS
 62
    64
 10
70.091987
 20
-86.67772
 11
69.591993
 21
-86.177718
  0
LINE
  8
ボルト／ビス
  6
CONTINUOUS
 62
    64
 10
66.091998
 20
-86.67772
 11
66.591993
 21
-86.177718
  0
LINE
  8
ボルト／ビス
  6
CONTINUOUS
 62
    64
 10
69.591993
 20
-94.17772
 11
69.591993
 21
-86.177718
  0
LINE
  8
ボルト／ビス
  6
CONTINUOUS
 62
    64
 10
70.091995
 20
-94.17772
 11
70.091987
 21
-86.67772
  0
LINE
  8
ボルト／ビス
  6
CONTINUOUS
 62
    64
 10
66.591993
 20
-94.17772
 11
66.591993
 21
-86.177718
  0
LINE
  8
ボルト／ビス
  6
CONTINUOUS
 62
    64
 10
66.091998
 20
-94.17772
 11
66.091998
 21
-86.67772
  0
LINE
  8
ボルト／ビス
  6
CONTINUOUS
 62
    64
 10
70.091987
 20
-86.67772
 11
66.091998
 21
-86.67772
  0
LINE
  8
ボルト／ビス
  6
CONTINUOUS
 62
    64
 10
69.591993
 20
-86.177718
 11
66.591993
 21
-86.177718
  0
LINE
  8
ボルト／ビス
  6
CONTINUOUS
 62
    64
 10
68.091993
 20
-98.749105
 11
68.091993
 21
-83.927222
  0
ENDBLK
  0
BLOCK
  2
*GRP_0006
 70
    65
 10
0.0
 20
0.0
  0
LINE
  8
型材断面
  6
CONTINUOUS
 62
    47
 10
-40.766165
 20
112.701755
 11
-37.230642
 21
116.237277
  0
LINE
  8
型材断面
  6
CONTINUOUS
 62
    47
 10
-40.766165
 20
112.701755
 11
-41.614693
 21
113.550282
  0
LINE
  8
型材断面
  6
CONTINUOUS
 62
    47
 10
-37.230642
 20
116.237277
 11
-39.49337
 21
118.499998
  0
LINE
  8
型材断面
  6
CONTINUOUS
 62
    47
 10
-56.61236
 20
92.880688
 11
-56.612353
 21
91.380688
  0
LINE
  8
型材断面
  6
CONTINUOUS
 62
    47
 10
-55.912348
 20
91.380688
 11
-56.612353
 21
91.380688
  0
ARC
  8
型材断面
  6
CONTINUOUS
 62
    47
 10
-55.412359
 20
84.580669
 40
0.5
 50
179.999956
 51
269.999956
  0
LINE
  8
型材断面
  6
CONTINUOUS
 62
    47
 10
-55.41236
 20
84.080675
 11
-54.412355
 21
84.080667
  0
ARC
  8
型材断面
  6
CONTINUOUS
 62
    47
 10
-54.412359
 20
84.580668
 40
0.5
 50
269.999956
 51
359.999956
  0
LINE
  8
型材断面
  6
CONTINUOUS
 62
    47
 10
-55.912355
 20
84.580677
 11
-55.912348
 21
91.380688
  0
LINE
  8
型材断面
  6
CONTINUOUS
 62
    47
 10
-59.412357
 20
92.880688
 11
-59.412365
 21
84.580962
  0
LINE
  8
型材断面
  6
CONTINUOUS
 62
    47
 10
-58.91228
 20
84.580962
 11
-59.412365
 21
84.580962
  0
LINE
  8
型材断面
  6
CONTINUOUS
 62
    47
 10
-53.91227
 20
93.880977
 11
-52.412277
 21
93.880977
  0
LINE
  8
型材断面
  6
CONTINUOUS
 62
    47
 10
-52.412277
 20
93.880977
 11
-52.412277
 21
92.88098
  0
LINE
  8
型材断面
  6
CONTINUOUS
 62
    47
 10
-53.91227
 20
92.88098
 11
-52.412277
 21
92.88098
  0
LINE
  8
型材断面
  6
CONTINUOUS
 62
    47
 10
-53.912367
 20
84.58067
 11
-53.912352
 21
92.88098
  0
LINE
  8
型材断面
  6
CONTINUOUS
 62
    47
 10
-56.61236
 20
92.880688
 11
-59.412342
 21
92.880688
  0
LINE
  8
型材断面
  6
CONTINUOUS
 62
    47
 10
-39.49337
 20
118.499998
 11
-61.41239
 21
96.580977
  0
LINE
  8
型材断面
  6
CONTINUOUS
 62
    47
 10
-61.412405
 20
82.58096
 11
-61.41239
 21
96.580977
  0
LINE
  8
型材断面
  6
CONTINUOUS
 62
    47
 10
-41.614678
 20
113.550267
 11
-59.41235
 21
95.752602
  0
LINE
  8
型材断面
  6
CONTINUOUS
 62
    47
 10
-53.912352
 20
94.58066
 11
-59.41235
 21
94.58066
  0
LINE
  8
型材断面
  6
CONTINUOUS
 62
    47
 10
-59.41235
 20
95.752602
 11
-59.41235
 21
94.58066
  0
LINE
  8
型材断面
  6
CONTINUOUS
 62
    47
 10
-53.912352
 20
93.880977
 11
-53.912352
 21
94.58066
  0
LINE
  8
型材断面
  6
CONTINUOUS
 62
    47
 10
-58.91228
 20
84.580962
 11
-58.91228
 21
83.080955
  0
LINE
  8
型材断面
  6
CONTINUOUS
 62
    47
 10
-61.412375
 20
82.58096
 11
-59.412283
 21
82.58096
  0
ARC
  8
型材断面
  6
CONTINUOUS
 62
    47
 10
-59.412284
 20
83.080964
 40
0.5
 50
-90.0
 51
0.0
  0
ENDBLK
  0
BLOCK
  2
*DIM_0007
 70
    65
 10
0.0
 20
0.0
  0
LINE
  8
寸法
  6
CONTINUOUS
 10
-66.41239
 20
96.580977
 11
-103.553963
 21
96.580977
  0
LINE
  8
寸法
  6
CONTINUOUS
 10
-66.412405
 20
82.58096
 11
-103.553963
 21
82.58096
  0
LINE
  8
寸法
  6
CONTINUOUS
 10
-103.553963
 20
96.580977
 11
-103.553963
 21
82.58096
  0
POINT
  8
寸法
 10
-103.553963
 20
96.580977
  0
POINT
  8
寸法
 10
-103.553963
 20
82.58096
  0
TEXT
  7
TextStyle03
  8
寸法
  6
CONTINUOUS
 10
-103.95
 20
87.98125
  1
14
 40
3.0
 50
90.0
 72
     5
 11
-103.95
 21
91.16875
  0
ENDBLK
  0
BLOCK
  2
*DIM_0008
 70
    65
 10
0.0
 20
0.0
  0
LINE
  8
寸法
  6
CONTINUOUS
 10
-66.412435
 20
23.580965
 11
-103.553963
 21
23.580965
  0
LINE
  8
寸法
  6
CONTINUOUS
 10
-103.553963
 20
82.58096
 11
-103.553963
 21
23.580965
  0
POINT
  8
寸法
 10
-103.553963
 20
23.580965
  0
TEXT
  7
TextStyle03
  8
寸法
  6
CONTINUOUS
 10
-103.95
 20
51.48125
  1
59
 40
3.0
 50
90.0
 72
     5
 11
-103.95
 21
54.66875
  0
ENDBLK
  0
BLOCK
  2
*DIM_0009
 70
    65
 10
0.0
 20
0.0
  0
LINE
  8
寸法
  6
CONTINUOUS
 10
-49.41244
 20
9.58097
 11
-103.553963
 21
9.58097
  0
LINE
  8
寸法
  6
CONTINUOUS
 10
-103.553963
 20
23.580965
 11
-103.553963
 21
9.58097
  0
POINT
  8
寸法
 10
-103.553963
 20
9.58097
  0
TEXT
  7
TextStyle03
  8
寸法
  6
CONTINUOUS
 10
-103.95
 20
14.98125
  1
14
 40
3.0
 50
90.0
 72
     5
 11
-103.95
 21
18.16875
  0
ENDBLK
  0
BLOCK
  2
*DIM_0010
 70
    65
 10
0.0
 20
0.0
  0
LINE
  8
寸法
  6
CONTINUOUS
 10
-39.30802
 20
4.323612
 11
-103.553963
 21
4.323612
  0
LINE
  8
寸法
  6
CONTINUOUS
 10
-103.553963
 20
9.58097
 11
-103.553963
 21
4.323612
  0
POINT
  8
寸法
 10
-103.553963
 20
4.323612
  0
TEXT
  7
TextStyle03
  8
寸法
  6
CONTINUOUS
 10
-103.95
 20
4.5125
  1
5.3
 40
3.0
 50
90.0
 72
     5
 11
-103.95
 21
9.3875
  0
ENDBLK
  0
BLOCK
  2
*DIM_0011
 70
    65
 10
0.0
 20
0.0
  0
LINE
  8
寸法
  6
CONTINUOUS
 10
33.59202
 20
69.525163
 11
162.881115
 21
69.525163
  0
LINE
  8
寸法
  6
CONTINUOUS
 10
111.092002
 20
-84.476328
 11
162.881115
 21
-84.476328
  0
LINE
  8
寸法
  6
CONTINUOUS
 10
162.881115
 20
69.525163
 11
162.881115
 21
-84.476328
  0
POINT
  8
寸法
 10
162.881115
 20
69.525163
  0
POINT
  8
寸法
 10
162.881115
 20
-84.476328
  0
TEXT
  7
TextStyle03
  8
寸法
  6
CONTINUOUS
 10
162.5
 20
-9.9375
  1
154
 40
3.0
 50
90.0
 72
     5
 11
162.5
 21
-5.0625
  0
ENDBLK
  0
BLOCK
  2
*DIM_0012
 70
    65
 10
0.0
 20
0.0
  0
LINE
  8
寸法
  6
CONTINUOUS
 10
78.09201
 20
-90.97639
 11
162.881115
 21
-90.97639
  0
LINE
  8
寸法
  6
CONTINUOUS
 10
162.881115
 20
-84.476328
 11
162.881115
 21
-90.97639
  0
POINT
  8
寸法
 10
162.881115
 20
-90.97639
  0
TEXT
  7
TextStyle03
  8
寸法
  6
CONTINUOUS
 10
162.5
 20
-90.1875
  1
6.5
 40
3.0
 50
90.0
 72
     5
 11
162.5
 21
-85.3125
  0
ENDBLK
  0
BLOCK
  2
*DIM_0013
 70
    65
 10
0.0
 20
0.0
  0
LINE
  8
寸法
  6
CONTINUOUS
 10
111.092002
 20
-84.476328
 11
149.519743
 21
-84.476328
  0
LINE
  8
寸法
  6
CONTINUOUS
 10
149.519743
 20
-70.476332
 11
149.519743
 21
-84.476328
  0
POINT
  8
寸法
 10
149.519743
 20
-84.476328
  0
TEXT
  7
TextStyle03
  8
寸法
  6
CONTINUOUS
 10
149.125
 20
-79.09375
  1
14
 40
3.0
 50
90.0
 72
     5
 11
149.125
 21
-75.90625
  0
ENDBLK
  0
BLOCK
  2
*DIM_0014
 70
    65
 10
0.0
 20
0.0
  0
LINE
  8
寸法
  6
CONTINUOUS
 10
33.59202
 20
69.525163
 11
149.519743
 21
69.525163
  0
LINE
  8
寸法
  6
CONTINUOUS
 10
111.092002
 20
-70.476332
 11
149.519743
 21
-70.476332
  0
LINE
  8
寸法
  6
CONTINUOUS
 10
149.519743
 20
69.525163
 11
149.519743
 21
-70.476332
  0
POINT
  8
寸法
 10
149.519743
 20
69.525163
  0
POINT
  8
寸法
 10
149.519743
 20
-70.476332
  0
TEXT
  7
TextStyle03
  8
寸法
  6
CONTINUOUS
 10
149.125
 20
-2.9375
  1
140
 40
3.0
 50
90.0
 72
     5
 11
149.125
 21
1.9375
  0
ENDBLK
  0
BLOCK
  2
*DIM_0015
 70
    65
 10
0.0
 20
0.0
  0
LINE
  8
寸法
  6
CONTINUOUS
 10
106.09201
 20
-65.476332
 11
106.09201
 21
130.019245
  0
LINE
  8
寸法
  6
CONTINUOUS
 10
-61.41239
 20
101.580977
 11
-61.41239
 21
130.019245
  0
LINE
  8
寸法
  6
CONTINUOUS
 10
106.09201
 20
130.019245
 11
-61.41239
 21
130.019245
  0
POINT
  8
寸法
 10
106.09201
 20
130.019245
  0
POINT
  8
寸法
 10
-61.41239
 20
130.019245
  0
TEXT
  7
TextStyle03
  8
寸法
  6
CONTINUOUS
 10
18.2
 20
130.375
  1
167.5
 40
3.0
 72
     5
 11
26.45
 21
130.375
  0
ENDBLK
  0
BLOCK
  2
*DIM_0016
 70
    65
 10
0.0
 20
0.0
  0
LINE
  8
寸法
  6
CONTINUOUS
 10
48.587613
 20
113.103767
 11
106.09201
 21
113.103767
  0
POINT
  8
寸法
 10
48.587613
 20
113.103767
  0
POINT
  8
寸法
 10
106.09201
 20
113.103767
  0
TEXT
  7
TextStyle03
  8
寸法
  6
CONTINUOUS
 10
74.04375
 20
113.45
  1
57.5
 40
3.0
 72
     5
 11
80.60625
 21
113.45
  0
ENDBLK
  0
BLOCK
  2
*GRP_0017
 70
    65
 10
0.0
 20
0.0
  0
POLYLINE
  8
寸法
  6
CONTINUOUS
 66
     1
  0
VERTEX
  8
寸法
 10
1.613625
 20
15.540553
  0
VERTEX
  8
寸法
 10
9.10184
 20
9.549815
  0
VERTEX
  8
寸法
 10
17.110112
 20
9.549815
  0
SEQEND
  0
ENDBLK
  0
BLOCK
  2
*GRP_0018
 70
    65
 10
0.0
 20
0.0
  0
POLYLINE
  8
寸法
  6
CONTINUOUS
 66
     1
  0
VERTEX
  8
寸法
 10
-17.469825
 20
12.357102
  0
VERTEX
  8
寸法
 10
2.65616
 20
0.239387
  0
VERTEX
  8
寸法
 10
17.045003
 20
0.239387
  0
SEQEND
  0
ENDBLK
  0
BLOCK
  2
*GRP_0019
 70
    65
 10
0.0
 20
0.0
  0
POLYLINE
  8
寸法
  6
CONTINUOUS
 66
     1
  0
VERTEX
  8
寸法
 10
-20.042342
 20
36.951675
  0
VERTEX
  8
寸法
 10
-25.41812
 20
40.646938
  0
VERTEX
  8
寸法
 10
-32.946418
 20
40.646938
  0
SEQEND
  0
ENDBLK
  0
BLOCK
  2
*GRP_0020
 70
    65
 10
0.0
 20
0.0
  0
POLYLINE
  8
寸法
  6
CONTINUOUS
 66
     1
  0
VERTEX
  8
寸法
 10
-41.209245
 20
65.320977
  0
VERTEX
  8
寸法
 10
-35.870398
 20
56.053953
  0
VERTEX
  8
寸法
 10
-40.493058
 20
56.053953
  0
SEQEND
  0
ENDBLK
  0
BLOCK
  2
*GRP_0021
 70
    65
 10
0.0
 20
0.0
  0
POLYLINE
  8
寸法
  6
CONTINUOUS
 66
     1
  0
VERTEX
  8
寸法
 10
-14.58035
 20
-6.071587
  0
VERTEX
  8
寸法
 10
-27.918297
 20
-36.719427
  0
VERTEX
  8
寸法
 10
-39.963257
 20
-36.719427
  0
SEQEND
  0
ENDBLK
  0
BLOCK
  2
*GRP_0022
 70
    65
 10
0.0
 20
0.0
  0
POLYLINE
  8
寸法
  6
CONTINUOUS
 66
     1
  0
VERTEX
  8
寸法
 10
38.875585
 20
-92.542993
  0
VERTEX
  8
寸法
 10
49.943928
 20
-107.71313
  0
VERTEX
  8
寸法
 10
62.184212
 20
-107.71313
  0
SEQEND
  0
ENDBLK
  0
BLOCK
  2
*GRP_0023
 70
    65
 10
0.0
 20
0.0
  0
POLYLINE
  8
寸法
  6
CONTINUOUS
 66
     1
  0
VERTEX
  8
寸法
 10
46.135975
 20
39.674102
  0
VERTEX
  8
寸法
 10
58.906295
 20
52.686327
  0
VERTEX
  8
寸法
 10
76.68075
 20
52.686327
  0
SEQEND
  0
ENDBLK
  0
BLOCK
  2
*GRP_0024
 70
    65
 10
0.0
 20
0.0
  0
POLYLINE
  8
寸法
  6
CONTINUOUS
 66
     1
  0
VERTEX
  8
寸法
 10
44.31205
 20
-48.307735
  0
VERTEX
  8
寸法
 10
59.080393
 20
-28.96943
  0
VERTEX
  8
寸法
 10
79.01403
 20
-28.96943
  0
SEQEND
  0
ENDBLK
  0
BLOCK
  2
*GRP_0025
 70
    65
 10
0.0
 20
0.0
  0
POLYLINE
  8
寸法
  6
CONTINUOUS
 66
     1
  0
VERTEX
  8
寸法
 10
57.78993
 20
-63.28651
  0
VERTEX
  8
寸法
 10
63.579855
 20
-45.521405
  0
VERTEX
  8
寸法
 10
73.150715
 20
-45.521405
  0
SEQEND
  0
ENDBLK
  0
BLOCK
  2
*GRP_0026
 70
    65
 10
0.0
 20
0.0
  0
LINE
  8
St
  6
CONTINUOUS
 10
24.291978
 20
-104.269427
 11
21.091975
 21
-107.469438
  0
LINE
  8
St
  6
CONTINUOUS
 10
24.291978
 20
-103.562313
 11
21.091975
 21
-106.762323
  0
ARC
  8
St
  6
CONTINUOUS
 62
   127
 10
24.291971
 20
-94.176377
 40
3.2
 50
90.0
 51
180.0
  0
LINE
  8
St
  6
CONTINUOUS
 10
61.526462
 20
-90.97639
 11
58.326468
 21
-94.176393
  0
LINE
  8
St
  6
CONTINUOUS
 10
60.819355
 20
-90.97639
 11
57.61936
 21
-94.176393
  0
LINE
  8
St
  6
CONTINUOUS
 10
32.88499
 20
-90.97639
 11
29.684995
 21
-94.176393
  0
LINE
  8
St
  6
CONTINUOUS
 10
32.177882
 20
-90.97639
 11
28.977887
 21
-94.176393
  0
LINE
  8
St
  6
CONTINUOUS
 10
16.891998
 20
-90.97639
 11
16.891998
 21
-94.176393
  0
LINE
  8
St
  6
CONTINUOUS
 10
13.392002
 20
-90.97639
 11
13.392002
 21
-94.176393
  0
LINE
  8
St
  6
CONTINUOUS
 10
66.341995
 20
-90.97639
 11
66.341995
 21
-94.176393
  0
LINE
  8
St
  6
CONTINUOUS
 10
69.84199
 20
-90.97639
 11
69.84199
 21
-94.176393
  0
LINE
  8
St
  6
CONTINUOUS
 10
15.142
 20
-96.003482
 11
15.142
 21
-89.346422
  0
LINE
  8
St
  6
CONTINUOUS
 10
68.091993
 20
-96.003482
 11
68.091993
 21
-89.346422
  0
LINE
  8
St
  6
CONTINUOUS
 10
69.84199
 20
-91.776393
 11
66.341995
 21
-91.776393
  0
LINE
  8
St
  6
CONTINUOUS
 10
69.84199
 20
-92.576387
 11
66.341995
 21
-92.576387
  0
LINE
  8
St
  6
CONTINUOUS
 10
69.84199
 20
-93.37639
 11
66.341995
 21
-93.37639
  0
LINE
  8
St
  6
CONTINUOUS
 10
16.891998
 20
-91.776393
 11
13.392002
 21
-91.776393
  0
LINE
  8
St
  6
CONTINUOUS
 10
16.891998
 20
-92.576387
 11
13.392002
 21
-92.576387
  0
LINE
  8
St
  6
CONTINUOUS
 10
16.891998
 20
-93.37639
 11
13.392002
 21
-93.37639
  0
LINE
  8
St
  6
CONTINUOUS
 10
11.285553
 20
-90.97639
 11
11.285553
 21
-94.176393
  0
LINE
  8
St
  6
CONTINUOUS
 62
   127
 10
11.285553
 20
-90.97639
 11
73.092002
 21
-90.97639
  0
LINE
  8
St
  6
CONTINUOUS
 62
   127
 10
11.285553
 20
-94.176393
 11
73.092002
 21
-94.176393
  0
LINE
  8
St
  6
CONTINUOUS
 10
73.092002
 20
-90.97639
 11
73.092002
 21
-94.176393
  0
LINE
  8
St
  6
CONTINUOUS
 10
24.291978
 20
-140.976378
 11
21.091975
 21
-140.976378
  0
LINE
  8
St
  6
CONTINUOUS
 10
24.291978
 20
-130.976372
 11
21.091975
 21
-130.976372
  0
LINE
  8
St
  6
CONTINUOUS
 62
   127
 10
23.491975
 20
-130.976372
 11
23.491975
 21
-140.976378
  0
LINE
  8
St
  6
CONTINUOUS
 62
   127
 10
22.69198
 20
-130.976372
 11
22.69198
 21
-140.976378
  0
LINE
  8
St
  6
CONTINUOUS
 62
   127
 10
21.891978
 20
-130.976372
 11
21.891978
 21
-140.976378
  0
LINE
  8
St
  6
CONTINUOUS
 10
27.42022
 20
-135.976375
 11
17.672387
 21
-135.976375
  0
LINE
  8
St
  6
CONTINUOUS
 10
24.291978
 20
-151.27639
 11
21.091975
 21
-151.27639
  0
LINE
  8
St
  6
CONTINUOUS
 62
   127
 10
24.291978
 20
-94.176393
 11
24.291978
 21
-151.27639
  0
LINE
  8
St
  6
CONTINUOUS
 62
   127
 10
21.091975
 20
-94.176393
 11
21.091975
 21
-151.27639
  0
ENDBLK
  0
BLOCK
  2
*GRP_0027
 70
    65
 10
0.0
 20
0.0
  0
LINE
  8
通り芯
  6
CONTINUOUS
 10
-56.096068
 20
63.580965
 11
-60.720935
 21
63.580965
  0
LINE
  8
通り芯
  6
CONTINUOUS
 10
-59.912435
 20
65.230965
 11
-57.912432
 21
65.230965
  0
LINE
  8
通り芯
  6
CONTINUOUS
 10
-59.912435
 20
61.930965
 11
-57.912432
 21
61.930965
  0
LINE
  8
通り芯
  6
CONTINUOUS
 10
-58.412435
 20
65.230965
 11
-58.412435
 21
61.930965
  0
LINE
  8
通り芯
  6
CONTINUOUS
 10
-58.912438
 20
65.230965
 11
-58.912438
 21
61.930965
  0
LINE
  8
通り芯
  6
CONTINUOUS
 10
-59.412432
 20
65.230965
 11
-59.412432
 21
61.930965
  0
LINE
  8
型材断面
  6
CONTINUOUS
 10
-58.412442
 20
63.580965
 11
-63.288755
 21
63.580965
  0
LINE
  8
型材断面
  6
CONTINUOUS
 10
-61.412435
 20
61.930965
 11
-59.41244
 21
61.930965
  0
LINE
  8
型材断面
  6
CONTINUOUS
 10
-61.412435
 20
65.230965
 11
-59.41244
 21
65.230965
  0
LINE
  8
型材断面
  6
CONTINUOUS
 10
-60.912432
 20
65.230965
 11
-60.912432
 21
61.930965
  0
LINE
  8
型材断面
  6
CONTINUOUS
 10
-60.412438
 20
65.230965
 11
-60.412438
 21
61.930965
  0
LINE
  8
型材断面
  6
CONTINUOUS
 10
-59.912435
 20
65.230965
 11
-59.912435
 21
61.930965
  0
LINE
  8
ボルト／ビス
  6
CONTINUOUS
 10
-61.412435
 20
66.580965
 11
-61.412435
 21
60.580965
  0
LINE
  8
ボルト／ビス
  6
CONTINUOUS
 10
-61.412435
 20
66.580965
 11
-61.912438
 21
66.080962
  0
LINE
  8
ボルト／ビス
  6
CONTINUOUS
 10
-61.412435
 20
60.580965
 11
-61.91243
 21
61.08096
  0
LINE
  8
ボルト／ビス
  6
CONTINUOUS
 10
-61.912438
 20
66.080962
 11
-61.91243
 21
61.08096
  0
LINE
  8
ボルト／ビス
  6
CONTINUOUS
 10
-56.912428
 20
66.580965
 11
-56.912428
 21
60.580965
  0
LINE
  8
ボルト／ビス
  6
CONTINUOUS
 10
-56.912428
 20
66.580965
 11
-57.912432
 21
66.580965
  0
LINE
  8
ボルト／ビス
  6
CONTINUOUS
 10
-56.912428
 20
60.580965
 11
-57.912425
 21
60.580965
  0
LINE
  8
ボルト／ビス
  6
CONTINUOUS
 10
-57.912432
 20
66.580965
 11
-57.912425
 21
60.580965
  0
LINE
  8
ボルト／ビス
  6
CONTINUOUS
 10
-56.912428
 20
65.58096
 11
-56.912428
 21
65.58096
  0
ARC
  8
ボルト／ビス
  6
CONTINUOUS
 10
-56.912432
 20
65.080968
 40
0.5
 50
0.000036
 51
90.0
  0
LINE
  8
ボルト／ビス
  6
CONTINUOUS
 10
-56.412432
 20
65.080965
 11
-56.412425
 21
62.080965
  0
LINE
  8
ボルト／ビス
  6
CONTINUOUS
 10
-56.912428
 20
61.580962
 11
-56.912428
 21
61.580962
  0
ARC
  8
ボルト／ビス
  6
CONTINUOUS
 10
-56.912431
 20
62.080968
 40
0.5
 50
-90.0
 51
0.000041
  0
LINE
  8
ボルト／ビス
  6
CONTINUOUS
 10
-61.412435
 20
65.58096
 11
-57.912432
 21
65.58096
  0
LINE
  8
ボルト／ビス
  6
CONTINUOUS
 10
-61.412435
 20
61.580962
 11
-57.912432
 21
61.580962
  0
ENDBLK
  0
BLOCK
  2
*GRP_0028
 70
    65
 10
0.0
 20
0.0
  0
LINE
  8
通り芯
  6
CONTINUOUS
 10
-56.096068
 20
38.580965
 11
-60.720935
 21
38.580965
  0
LINE
  8
通り芯
  6
CONTINUOUS
 10
-59.912435
 20
40.230965
 11
-57.912432
 21
40.230965
  0
LINE
  8
通り芯
  6
CONTINUOUS
 10
-59.912435
 20
36.930965
 11
-57.912432
 21
36.930965
  0
LINE
  8
通り芯
  6
CONTINUOUS
 10
-58.412435
 20
40.230965
 11
-58.412435
 21
36.930965
  0
LINE
  8
通り芯
  6
CONTINUOUS
 10
-58.912438
 20
40.230965
 11
-58.912438
 21
36.930965
  0
LINE
  8
通り芯
  6
CONTINUOUS
 10
-59.412432
 20
40.230965
 11
-59.412432
 21
36.930965
  0
LINE
  8
型材断面
  6
CONTINUOUS
 10
-58.412442
 20
38.580965
 11
-63.288755
 21
38.580965
  0
LINE
  8
型材断面
  6
CONTINUOUS
 10
-61.412435
 20
36.930965
 11
-59.41244
 21
36.930965
  0
LINE
  8
型材断面
  6
CONTINUOUS
 10
-61.412435
 20
40.230965
 11
-59.41244
 21
40.230965
  0
LINE
  8
型材断面
  6
CONTINUOUS
 10
-60.912432
 20
40.230965
 11
-60.912432
 21
36.930965
  0
LINE
  8
型材断面
  6
CONTINUOUS
 10
-60.412438
 20
40.230965
 11
-60.412438
 21
36.930965
  0
LINE
  8
型材断面
  6
CONTINUOUS
 10
-59.912435
 20
40.230965
 11
-59.912435
 21
36.930965
  0
LINE
  8
ボルト／ビス
  6
CONTINUOUS
 10
-61.412435
 20
41.580965
 11
-61.412435
 21
35.580965
  0
LINE
  8
ボルト／ビス
  6
CONTINUOUS
 10
-61.412435
 20
41.580965
 11
-61.912438
 21
41.080962
  0
LINE
  8
ボルト／ビス
  6
CONTINUOUS
 10
-61.412435
 20
35.580965
 11
-61.91243
 21
36.08096
  0
LINE
  8
ボルト／ビス
  6
CONTINUOUS
 10
-61.912438
 20
41.080962
 11
-61.91243
 21
36.08096
  0
LINE
  8
ボルト／ビス
  6
CONTINUOUS
 10
-56.912428
 20
41.580965
 11
-56.912428
 21
35.580965
  0
LINE
  8
ボルト／ビス
  6
CONTINUOUS
 10
-56.912428
 20
41.580965
 11
-57.912432
 21
41.580965
  0
LINE
  8
ボルト／ビス
  6
CONTINUOUS
 10
-56.912428
 20
35.580965
 11
-57.912425
 21
35.580965
  0
LINE
  8
ボルト／ビス
  6
CONTINUOUS
 10
-57.912432
 20
41.580965
 11
-57.912425
 21
35.580965
  0
LINE
  8
ボルト／ビス
  6
CONTINUOUS
 10
-56.912428
 20
40.58096
 11
-56.912428
 21
40.58096
  0
ARC
  8
ボルト／ビス
  6
CONTINUOUS
 10
-56.912432
 20
40.080968
 40
0.5
 50
0.000036
 51
90.0
  0
LINE
  8
ボルト／ビス
  6
CONTINUOUS
 10
-56.412432
 20
40.080965
 11
-56.412425
 21
37.080965
  0
LINE
  8
ボルト／ビス
  6
CONTINUOUS
 10
-56.912428
 20
36.580962
 11
-56.912428
 21
36.580962
  0
ARC
  8
ボルト／ビス
  6
CONTINUOUS
 10
-56.912431
 20
37.080968
 40
0.5
 50
-90.0
 51
0.000041
  0
LINE
  8
ボルト／ビス
  6
CONTINUOUS
 10
-61.412435
 20
40.58096
 11
-57.912432
 21
40.58096
  0
LINE
  8
ボルト／ビス
  6
CONTINUOUS
 10
-61.412435
 20
36.580962
 11
-57.912432
 21
36.580962
  0
ENDBLK
  0
BLOCK
  2
*GRP_0029
 70
    65
 10
0.0
 20
0.0
  0
LINE
  8
通り芯
  6
CONTINUOUS
 10
-32.412438
 20
28.897333
 11
-32.412438
 21
24.272465
  0
LINE
  8
通り芯
  6
CONTINUOUS
 10
-34.062438
 20
25.080965
 11
-34.062438
 21
27.080968
  0
LINE
  8
通り芯
  6
CONTINUOUS
 10
-30.762438
 20
25.080965
 11
-30.762438
 21
27.080968
  0
LINE
  8
通り芯
  6
CONTINUOUS
 10
-34.062438
 20
26.580965
 11
-30.762438
 21
26.580965
  0
LINE
  8
通り芯
  6
CONTINUOUS
 10
-34.062438
 20
26.080962
 11
-30.762438
 21
26.080962
  0
LINE
  8
通り芯
  6
CONTINUOUS
 10
-34.062438
 20
25.580968
 11
-30.762438
 21
25.580968
  0
LINE
  8
型材断面
  6
CONTINUOUS
 10
-32.412438
 20
26.580957
 11
-32.412438
 21
21.704645
  0
LINE
  8
型材断面
  6
CONTINUOUS
 10
-30.762438
 20
23.580965
 11
-30.762438
 21
25.58096
  0
LINE
  8
型材断面
  6
CONTINUOUS
 10
-34.062438
 20
23.580965
 11
-34.062438
 21
25.58096
  0
LINE
  8
型材断面
  6
CONTINUOUS
 10
-34.062438
 20
24.080968
 11
-30.762438
 21
24.080968
  0
LINE
  8
型材断面
  6
CONTINUOUS
 10
-34.062438
 20
24.580962
 11
-30.762438
 21
24.580962
  0
LINE
  8
型材断面
  6
CONTINUOUS
 10
-34.062438
 20
25.080965
 11
-30.762438
 21
25.080965
  0
LINE
  8
ボルト／ビス
  6
CONTINUOUS
 10
-35.412438
 20
23.580965
 11
-29.412438
 21
23.580965
  0
LINE
  8
ボルト／ビス
  6
CONTINUOUS
 10
-35.412438
 20
23.580965
 11
-34.912435
 21
23.080962
  0
LINE
  8
ボルト／ビス
  6
CONTINUOUS
 10
-29.412438
 20
23.580965
 11
-29.912432
 21
23.08097
  0
LINE
  8
ボルト／ビス
  6
CONTINUOUS
 10
-34.912435
 20
23.080962
 11
-29.912432
 21
23.08097
  0
LINE
  8
ボルト／ビス
  6
CONTINUOUS
 10
-35.412438
 20
28.080972
 11
-29.412438
 21
28.080972
  0
LINE
  8
ボルト／ビス
  6
CONTINUOUS
 10
-35.412438
 20
28.080972
 11
-35.412438
 21
27.080968
  0
LINE
  8
ボルト／ビス
  6
CONTINUOUS
 10
-29.412438
 20
28.080972
 11
-29.412438
 21
27.080975
  0
LINE
  8
ボルト／ビス
  6
CONTINUOUS
 10
-35.412438
 20
27.080968
 11
-29.412438
 21
27.080975
  0
LINE
  8
ボルト／ビス
  6
CONTINUOUS
 10
-34.412432
 20
28.080972
 11
-34.412432
 21
28.080972
  0
ARC
  8
ボルト／ビス
  6
CONTINUOUS
 10
-33.912441
 20
28.080967
 40
0.5
 50
90.000036
 51
180.0
  0
LINE
  8
ボルト／ビス
  6
CONTINUOUS
 10
-33.912438
 20
28.580968
 11
-30.912438
 21
28.580975
  0
LINE
  8
ボルト／ビス
  6
CONTINUOUS
 10
-30.412435
 20
28.080972
 11
-30.412435
 21
28.080972
  0
ARC
  8
ボルト／ビス
  6
CONTINUOUS
 10
-30.912441
 20
28.080968
 40
0.5
 50
0.0
 51
90.000041
  0
LINE
  8
ボルト／ビス
  6
CONTINUOUS
 10
-34.412432
 20
23.580965
 11
-34.412432
 21
27.080968
  0
LINE
  8
ボルト／ビス
  6
CONTINUOUS
 10
-30.412435
 20
23.580965
 11
-30.412435
 21
27.080968
  0
ENDBLK
  0
BLOCK
  2
*GRP_0030
 70
    65
 10
0.0
 20
0.0
  0
LINE
  8
ボルト／ビス
  6
CONTINUOUS
 62
    64
 10
-42.67499
 20
75.013213
 11
-41.86898
 21
75.689532
  0
ARC
  8
ボルト／ビス
  6
CONTINUOUS
 62
    64
 10
-40.776232
 20
74.387263
 40
1.7
 50
45.0
 51
130.000011
  0
LINE
  8
ボルト／ビス
  6
CONTINUOUS
 62
    64
 10
-39.57416
 20
75.589348
 11
-38.361635
 21
74.376822
  0
LINE
  8
ボルト／ビス
  6
CONTINUOUS
 62
    64
 10
-37.725238
 20
70.063467
 11
-37.048917
 21
70.86947
  0
ARC
  8
ボルト／ビス
  6
CONTINUOUS
 62
    64
 10
-38.351185
 20
71.962217
 40
1.7
 50
319.999989
 51
405.0
  0
LINE
  8
ボルト／ビス
  6
CONTINUOUS
 62
    64
 10
-37.14911
 20
73.164298
 11
-38.361635
 21
74.376822
  0
LINE
  8
ボルト／ビス
  6
CONTINUOUS
 62
    64
 10
-40.328488
 20
75.799332
 11
-40.157255
 21
75.970565
  0
LINE
  8
ボルト／ビス
  6
CONTINUOUS
 62
    64
 10
-39.588455
 20
74.139942
 11
-39.093485
 21
73.644973
  0
LINE
  8
ボルト／ビス
  6
CONTINUOUS
 62
    64
 10
-39.411628
 20
74.882465
 11
-40.328488
 21
75.799332
  0
LINE
  8
ボルト／ビス
  6
CONTINUOUS
 62
    64
 10
-39.588455
 20
74.139942
 11
-39.41162
 21
74.316777
  0
ARC
  8
ボルト／ビス
  6
CONTINUOUS
 62
    64
 10
-39.694456
 20
74.599627
 40
0.4
 50
315.0
 51
405.0
  0
LINE
  8
ボルト／ビス
  6
CONTINUOUS
 62
    64
 10
-36.939125
 20
72.40997
 11
-36.767893
 21
72.581202
  0
LINE
  8
ボルト／ビス
  6
CONTINUOUS
 62
    64
 10
-38.598515
 20
73.149995
 11
-39.093485
 21
73.644973
  0
LINE
  8
ボルト／ビス
  6
CONTINUOUS
 62
    64
 10
-37.855985
 20
73.32683
 11
-36.939125
 21
72.40997
  0
LINE
  8
ボルト／ビス
  6
CONTINUOUS
 62
    64
 10
-38.598515
 20
73.149995
 11
-38.421673
 21
73.326837
  0
ARC
  8
ボルト／ビス
  6
CONTINUOUS
 62
    64
 10
-38.138821
 20
73.043992
 40
0.4
 50
45.0
 51
135.0
  0
LINE
  8
ボルト／ビス
  6
CONTINUOUS
 62
    64
 10
-42.67499
 20
75.013213
 11
-37.725238
 21
70.063467
  0
LINE
  8
ボルト／ビス
  6
CONTINUOUS
 62
    64
 10
-52.574488
 20
62.9924
 11
-52.57448
 21
62.285292
  0
LINE
  8
ボルト／ビス
  6
CONTINUOUS
 62
    64
 10
-49.746058
 20
60.16397
 11
-50.453157
 21
60.16397
  0
LINE
  8
ボルト／ビス
  6
CONTINUOUS
 62
    64
 10
-52.574488
 20
62.9924
 11
-49.746058
 21
60.16397
  0
LINE
  8
ボルト／ビス
  6
CONTINUOUS
 62
    64
 10
-52.57448
 20
62.285292
 11
-50.453157
 21
60.16397
  0
LINE
  8
ボルト／ビス
  6
CONTINUOUS
 62
    64
 10
-38.785895
 20
71.124125
 11
-49.746058
 21
60.16397
  0
LINE
  8
ボルト／ビス
  6
CONTINUOUS
 62
    64
 10
-41.614333
 20
73.952555
 11
-52.574488
 21
62.9924
  0
LINE
  8
ボルト／ビス
  6
CONTINUOUS
 62
    64
 10
-41.260775
 20
73.598998
 11
-52.57448
 21
62.285292
  0
LINE
  8
ボルト／ビス
  6
CONTINUOUS
 62
    64
 10
-39.139452
 20
71.477683
 11
-50.453157
 21
60.16397
  0
LINE
  8
ボルト／ビス
  6
DASHDOT
 62
    64
 10
-36.240312
 20
76.498137
 11
-53.635138
 21
59.103312
  0
ENDBLK
  0
BLOCK
  2
*GRP_0031
 70
    65
 10
0.0
 20
0.0
  0
LINE
  8
ボルト／ビス
  6
CONTINUOUS
 62
    64
 10
-13.012535
 20
32.980962
 11
-13.104238
 21
31.9328
  0
ARC
  8
ボルト／ビス
  6
CONTINUOUS
 62
    64
 10
-14.797756
 20
32.080965
 40
1.7
 50
270.0
 51
355.000011
  0
LINE
  8
ボルト／ビス
  6
CONTINUOUS
 62
    64
 10
-14.797768
 20
30.380968
 11
-16.512537
 21
30.380968
  0
LINE
  8
ボルト／ビス
  6
CONTINUOUS
 62
    64
 10
-20.012532
 20
32.980962
 11
-19.92083
 21
31.9328
  0
ARC
  8
ボルト／ビス
  6
CONTINUOUS
 62
    64
 10
-18.227289
 20
32.080965
 40
1.7
 50
184.999989
 51
270.0
  0
LINE
  8
ボルト／ビス
  6
CONTINUOUS
 62
    64
 10
-18.2273
 20
30.380968
 11
-16.512537
 21
30.380968
  0
LINE
  8
ボルト／ビス
  6
CONTINUOUS
 62
    64
 10
-14.115898
 20
30.765868
 11
-14.115898
 21
30.523707
  0
LINE
  8
ボルト／ビス
  6
CONTINUOUS
 62
    64
 10
-15.812532
 20
31.415952
 11
-16.512537
 21
31.415952
  0
LINE
  8
ボルト／ビス
  6
CONTINUOUS
 62
    64
 10
-15.412535
 20
30.765868
 11
-14.115898
 21
30.765868
  0
LINE
  8
ボルト／ビス
  6
CONTINUOUS
 62
    64
 10
-15.812532
 20
31.415952
 11
-15.812532
 21
31.165872
  0
ARC
  8
ボルト／ビス
  6
CONTINUOUS
 62
    64
 10
-15.412522
 20
31.16587
 40
0.4
 50
180.0
 51
270.0
  0
LINE
  8
ボルト／ビス
  6
CONTINUOUS
 62
    64
 10
-18.909177
 20
30.765868
 11
-18.909177
 21
30.523707
  0
LINE
  8
ボルト／ビス
  6
CONTINUOUS
 62
    64
 10
-17.212535
 20
31.415952
 11
-16.512537
 21
31.415952
  0
LINE
  8
ボルト／ビス
  6
CONTINUOUS
 62
    64
 10
-17.612532
 20
30.765868
 11
-18.909177
 21
30.765868
  0
LINE
  8
ボルト／ビス
  6
CONTINUOUS
 62
    64
 10
-17.212535
 20
31.415952
 11
-17.212535
 21
31.165872
  0
ARC
  8
ボルト／ビス
  6
CONTINUOUS
 62
    64
 10
-17.612522
 20
31.16587
 40
0.4
 50
270.0
 51
360.0
  0
LINE
  8
ボルト／ビス
  6
CONTINUOUS
 62
    64
 10
-13.012535
 20
32.980962
 11
-20.012532
 21
32.980962
  0
LINE
  8
ボルト／ビス
  6
CONTINUOUS
 62
    64
 10
-14.512535
 20
44.480968
 11
-15.012537
 21
44.980962
  0
LINE
  8
ボルト／ビス
  6
CONTINUOUS
 62
    64
 10
-18.512532
 20
44.480968
 11
-18.012537
 21
44.980962
  0
LINE
  8
ボルト／ビス
  6
CONTINUOUS
 62
    64
 10
-14.512535
 20
44.480968
 11
-18.512532
 21
44.480968
  0
LINE
  8
ボルト／ビス
  6
CONTINUOUS
 62
    64
 10
-15.012537
 20
44.980962
 11
-18.012537
 21
44.980962
  0
LINE
  8
ボルト／ビス
  6
CONTINUOUS
 62
    64
 10
-15.012537
 20
32.980962
 11
-15.012537
 21
44.980962
  0
LINE
  8
ボルト／ビス
  6
CONTINUOUS
 62
    64
 10
-18.012537
 20
32.980962
 11
-18.012537
 21
44.980962
  0
LINE
  8
ボルト／ビス
  6
CONTINUOUS
 62
    64
 10
-18.512532
 20
32.980962
 11
-18.512532
 21
44.480968
  0
LINE
  8
ボルト／ビス
  6
CONTINUOUS
 62
    64
 10
-14.512535
 20
32.980962
 11
-14.512535
 21
44.480968
  0
LINE
  8
ボルト／ビス
  6
DASHDOT
 62
    64
 10
-16.512537
 20
27.380968
 11
-16.512537
 21
47.980962
  0
ENDBLK
  0
BLOCK
  2
*GRP_0032
 70
    65
 10
0.0
 20
0.0
  0
LINE
  8
型材断面
  6
CONTINUOUS
 62
    47
 10
6.691975
 20
-95.97601
 11
8.691978
 21
-95.97601
  0
LINE
  8
型材断面
  6
CONTINUOUS
 62
    47
 10
8.691978
 20
-95.97601
 11
8.691978
 21
-97.47601
  0
LINE
  8
型材断面
  6
CONTINUOUS
 62
    47
 10
3.691975
 20
-99.97456
 11
3.991975
 21
-100.27456
  0
LINE
  8
型材断面
  6
CONTINUOUS
 62
    47
 10
3.691975
 20
-99.97456
 11
3.391975
 21
-100.27456
  0
LINE
  8
型材断面
  6
CONTINUOUS
 62
    47
 10
6.691975
 20
-95.97601
 11
6.132272
 21
-98.77456
  0
LINE
  8
型材断面
  6
CONTINUOUS
 62
    47
 10
8.691978
 20
-97.47601
 11
7.691972
 21
-97.47601
  0
LINE
  8
型材断面
  6
CONTINUOUS
 62
    47
 10
7.691972
 20
-97.47601
 11
7.691972
 21
-100.27456
  0
LINE
  8
型材断面
  6
CONTINUOUS
 62
    47
 10
3.991975
 20
-100.27456
 11
7.691972
 21
-100.27456
  0
LINE
  8
型材断面
  6
CONTINUOUS
 62
    47
 10
-18.712872
 20
9.62399
 11
-18.112872
 21
10.22399
  0
LINE
  8
型材断面
  6
CONTINUOUS
 62
    47
 10
-16.407972
 20
10.22399
 11
-18.112872
 21
10.22399
  0
LINE
  8
型材断面
  6
CONTINUOUS
 62
    47
 10
-18.712872
 20
9.62399
 11
-18.712872
 21
9.02399
  0
LINE
  8
型材断面
  6
CONTINUOUS
 62
    47
 10
-23.812872
 20
9.62399
 11
-23.812872
 21
9.02399
  0
LINE
  8
型材断面
  6
CONTINUOUS
 62
    47
 10
-23.812872
 20
9.62399
 11
-24.412872
 21
10.22399
  0
LINE
  8
型材断面
  6
CONTINUOUS
 62
    47
 10
-18.712872
 20
9.02399
 11
-17.607972
 21
9.02399
  0
LINE
  8
型材断面
  6
CONTINUOUS
 62
    47
 10
-17.607972
 20
9.02399
 11
-17.607972
 21
6.523985
  0
LINE
  8
型材断面
  6
CONTINUOUS
 62
    47
 10
-23.812872
 20
9.02399
 11
-24.912875
 21
9.02399
  0
LINE
  8
型材断面
  6
CONTINUOUS
 62
    47
 10
-24.912875
 20
9.02399
 11
-24.912875
 21
6.523985
  0
LINE
  8
型材断面
  6
CONTINUOUS
 62
    47
 10
-17.607972
 20
6.523985
 11
-24.912875
 21
6.523985
  0
LINE
  8
型材断面
  6
CONTINUOUS
 62
    47
 10
-18.407975
 20
5.023985
 11
-26.412875
 21
5.023985
  0
LINE
  8
型材断面
  6
CONTINUOUS
 62
    47
 10
-26.412875
 20
5.023985
 11
-26.412875
 21
8.72399
  0
LINE
  8
型材断面
  6
CONTINUOUS
 62
    47
 10
-24.412872
 20
10.22399
 11
-28.407972
 21
10.22399
  0
LINE
  8
型材断面
  6
CONTINUOUS
 62
    47
 10
-26.412875
 20
8.72399
 11
-27.786672
 21
8.72399
  0
LINE
  8
型材断面
  6
CONTINUOUS
 62
    47
 10
-28.407972
 20
10.22399
 11
-34.308028
 21
4.323987
  0
LINE
  8
型材断面
  6
CONTINUOUS
 62
    47
 10
-16.407972
 20
-3.974515
 11
-16.407972
 21
-5.97451
  0
LINE
  8
型材断面
  6
CONTINUOUS
 62
    47
 10
-17.907972
 20
-5.97451
 11
-17.907972
 21
-5.20426
  0
LINE
  8
型材断面
  6
CONTINUOUS
 62
    47
 10
-16.407972
 20
-5.97451
 11
-17.907972
 21
-5.97451
  0
LINE
  8
型材断面
  6
CONTINUOUS
 62
    47
 10
-21.207972
 20
1.425485
 11
-21.207972
 21
-3.374515
  0
LINE
  8
型材断面
  6
CONTINUOUS
 62
    47
 10
-20.707978
 20
1.925488
 11
-21.207972
 21
1.425485
  0
LINE
  8
型材断面
  6
CONTINUOUS
 62
    47
 10
-20.707978
 20
-3.87451
 11
-21.207972
 21
-3.374515
  0
LINE
  8
型材断面
  6
CONTINUOUS
 62
    47
 10
-20.707978
 20
1.925488
 11
-20.707978
 21
2.69519
  0
LINE
  8
型材断面
  6
CONTINUOUS
 62
    47
 10
-16.407972
 20
-3.974515
 11
-19.207978
 21
-3.414513
  0
LINE
  8
型材断面
  6
CONTINUOUS
 62
    47
 10
-20.707978
 20
-3.87451
 11
-20.707978
 21
-4.644212
  0
LINE
  8
型材断面
  6
CONTINUOUS
 62
    47
 10
-17.907972
 20
-5.20426
 11
-20.707978
 21
-4.644212
  0
LINE
  8
型材断面
  6
CONTINUOUS
 62
    47
 10
-19.507978
 20
-0.974515
 11
-19.207978
 21
-0.674515
  0
LINE
  8
型材断面
  6
CONTINUOUS
 62
    47
 10
-19.507978
 20
-0.974515
 11
-19.207978
 21
-1.274515
  0
LINE
  8
型材断面
  6
CONTINUOUS
 62
    47
 10
-19.207978
 20
1.46549
 11
-19.207978
 21
-0.674515
  0
LINE
  8
型材断面
  6
CONTINUOUS
 62
    47
 10
-19.207978
 20
-1.274515
 11
-19.207978
 21
-3.414513
  0
LINE
  8
型材断面
  6
CONTINUOUS
 62
    47
 10
-18.407975
 20
5.023985
 11
-18.407975
 21
3.155187
  0
LINE
  8
型材断面
  6
CONTINUOUS
 62
    47
 10
-20.707978
 20
2.69519
 11
-18.407975
 21
3.155187
  0
LINE
  8
型材断面
  6
CONTINUOUS
 62
    47
 10
-16.407972
 20
10.22399
 11
-16.407972
 21
2.025485
  0
LINE
  8
型材断面
  6
CONTINUOUS
 62
    47
 10
-19.207978
 20
1.46549
 11
-16.407972
 21
2.025485
  0
LINE
  8
型材断面
  6
CONTINUOUS
 62
    47
 10
-27.786672
 20
8.72399
 11
-28.808022
 21
7.70264
  0
LINE
  8
型材断面
  6
CONTINUOUS
 62
    47
 10
-30.308022
 20
6.202685
 11
-32.808028
 21
3.702687
  0
LINE
  8
型材断面
  6
CONTINUOUS
 62
    47
 10
-28.808022
 20
7.70264
 11
-28.808022
 21
1.52549
  0
LINE
  8
型材断面
  6
CONTINUOUS
 62
    47
 10
-28.808022
 20
1.52549
 11
-30.308022
 21
1.52549
  0
LINE
  8
型材断面
  6
CONTINUOUS
 62
    47
 10
-30.308022
 20
6.202685
 11
-30.308022
 21
1.52549
  0
LINE
  8
型材断面
  6
CONTINUOUS
 62
    47
 10
-0.357725
 20
-97.47601
 11
-0.357725
 21
-98.77456
  0
LINE
  8
型材断面
  6
CONTINUOUS
 62
    47
 10
1.251678
 20
-98.77456
 11
0.691975
 21
-95.97601
  0
LINE
  8
型材断面
  6
CONTINUOUS
 62
    47
 10
6.132272
 20
-98.77456
 11
1.251678
 21
-98.77456
  0
LINE
  8
型材断面
  6
CONTINUOUS
 62
    47
 10
-34.008028
 20
-107.276012
 11
-34.308028
 21
-107.576012
  0
LINE
  8
型材断面
  6
CONTINUOUS
 62
    47
 10
-34.308028
 20
-112.77601
 11
-34.308028
 21
-107.576012
  0
LINE
  8
型材断面
  6
CONTINUOUS
 62
    47
 10
-34.008028
 20
-107.276012
 11
-34.308028
 21
-106.976012
  0
LINE
  8
型材断面
  6
CONTINUOUS
 62
    47
 10
-34.308028
 20
4.323987
 11
-34.308028
 21
-106.976012
  0
LINE
  8
型材断面
  6
CONTINUOUS
 62
    47
 10
-32.808028
 20
3.702687
 11
-32.808028
 21
-111.27601
  0
LINE
  8
型材断面
  6
CONTINUOUS
 62
    47
 10
-32.808028
 20
-111.27601
 11
-2.808028
 21
-111.27601
  0
LINE
  8
型材断面
  6
CONTINUOUS
 62
    47
 10
-1.308028
 20
-100.27456
 11
-1.308028
 21
-112.77601
  0
LINE
  8
型材断面
  6
CONTINUOUS
 62
    47
 10
-7.308028
 20
-122.876012
 11
-9.308022
 21
-122.876012
  0
LINE
  8
型材断面
  6
CONTINUOUS
 62
    47
 10
-7.308028
 20
-122.876012
 11
-7.308028
 21
-112.77601
  0
LINE
  8
型材断面
  6
CONTINUOUS
 62
    47
 10
-1.308028
 20
-112.77601
 11
-7.308028
 21
-112.77601
  0
LINE
  8
型材断面
  6
CONTINUOUS
 62
    47
 10
-9.308022
 20
-122.876012
 11
-9.308022
 21
-112.77601
  0
LINE
  8
型材断面
  6
CONTINUOUS
 62
    47
 10
-34.308028
 20
-112.77601
 11
-9.308022
 21
-112.77601
  0
LINE
  8
型材断面
  6
CONTINUOUS
 62
    47
 10
0.691975
 20
-95.97601
 11
-1.308028
 21
-95.97601
  0
LINE
  8
型材断面
  6
CONTINUOUS
 62
    47
 10
-1.308028
 20
-95.97601
 11
-1.308028
 21
-97.47601
  0
LINE
  8
型材断面
  6
CONTINUOUS
 62
    47
 10
-0.357725
 20
-97.47601
 11
-1.308028
 21
-97.47601
  0
LINE
  8
型材断面
  6
CONTINUOUS
 62
    47
 10
-6.808025
 20
-102.274562
 11
-5.308025
 21
-102.274562
  0
LINE
  8
型材断面
  6
CONTINUOUS
 62
    47
 10
-6.808025
 20
-102.274562
 11
-6.808025
 21
-98.77456
  0
LINE
  8
型材断面
  6
CONTINUOUS
 62
    47
 10
-0.357725
 20
-98.77456
 11
-6.808025
 21
-98.77456
  0
LINE
  8
型材断面
  6
CONTINUOUS
 62
    47
 10
-2.808028
 20
-111.27601
 11
-2.808028
 21
-100.27456
  0
LINE
  8
型材断面
  6
CONTINUOUS
 62
    47
 10
3.391975
 20
-100.27456
 11
-1.308028
 21
-100.27456
  0
LINE
  8
型材断面
  6
CONTINUOUS
 62
    47
 10
-2.808028
 20
-100.27456
 11
-5.308025
 21
-100.27456
  0
LINE
  8
型材断面
  6
CONTINUOUS
 62
    47
 10
-5.308025
 20
-102.274562
 11
-5.308025
 21
-100.27456
  0
ENDBLK
  0
BLOCK
  2
*GRP_0033
 70
    65
 10
0.0
 20
0.0
  0
LINE
  8
型材断面
  6
DOT
 10
-32.808028
 20
-111.27601
 11
-34.308028
 21
-111.27601
  0
LINE
  8
型材断面
  6
DOT
 10
-32.808028
 20
-103.276008
 11
-34.308028
 21
-103.276008
  0
LINE
  8
型材断面
  6
DOT
 10
-33.933028
 20
-103.276008
 11
-33.933028
 21
-111.27601
  0
LINE
  8
型材断面
  6
DOT
 10
-33.558028
 20
-103.276008
 11
-33.558028
 21
-111.27601
  0
LINE
  8
型材断面
  6
DOT
 10
-33.183028
 20
-103.276008
 11
-33.183028
 21
-111.27601
  0
ENDBLK
  0
BLOCK
  2
*GRP_0034
 70
    65
 10
0.0
 20
0.0
  0
LINE
  8
型材断面
  6
DOT
 10
-4.40798
 20
72.525155
 11
-6.407975
 21
72.525155
  0
LINE
  8
型材断面
  6
DOT
 10
-4.40798
 20
64.525152
 11
-6.407975
 21
64.525152
  0
LINE
  8
型材断面
  6
DOT
 10
-4.80797
 20
64.525152
 11
-4.80797
 21
72.525155
  0
LINE
  8
型材断面
  6
DOT
 10
-5.207975
 20
64.525152
 11
-5.207975
 21
72.525155
  0
LINE
  8
型材断面
  6
DOT
 10
-5.607972
 20
64.525152
 11
-5.607972
 21
72.525155
  0
LINE
  8
型材断面
  6
DOT
 10
-6.007978
 20
64.525152
 11
-6.007978
 21
72.525155
  0
ENDBLK
  0
BLOCK
  2
*GRP_0035
 70
    65
 10
0.0
 20
0.0
  0
LINE
  8
型材断面
  6
DOT
 10
-33.907978
 20
46.825152
 11
-32.607972
 21
46.825152
  0
LINE
  8
型材断面
  6
DOT
 10
-33.907978
 20
54.825155
 11
-32.607972
 21
54.825155
  0
LINE
  8
型材断面
  6
DOT
 10
-33.58298
 20
46.825152
 11
-33.58298
 21
54.825155
  0
LINE
  8
型材断面
  6
DOT
 10
-33.257975
 20
46.825152
 11
-33.257975
 21
54.825155
  0
LINE
  8
型材断面
  6
DOT
 10
-32.932978
 20
46.825152
 11
-32.932978
 21
54.825155
  0
ENDBLK
  0
BLOCK
  2
*GRP_0036
 70
    65
 10
0.0
 20
0.0
  0
LINE
  8
型材断面
  6
DOT
 10
-25.846198
 20
72.326427
 11
-24.926967
 21
71.407167
  0
LINE
  8
型材断面
  6
DOT
 10
-20.18924
 20
77.983182
 11
-19.270032
 21
77.063938
  0
LINE
  8
型材断面
  6
DOT
 10
-25.61639
 20
72.096613
 11
-19.959447
 21
77.753383
  0
LINE
  8
型材断面
  6
DOT
 10
-25.38659
 20
71.866805
 11
-19.729648
 21
77.523575
  0
LINE
  8
型材断面
  6
DOT
 10
-25.156775
 20
71.636982
 11
-19.49984
 21
77.293752
  0
ENDBLK
  0
BLOCK
  2
*GRP_0037
 70
    65
 10
0.0
 20
0.0
  0
LINE
  8
型材断面
  6
CONTINUOUS
 62
    47
 10
-56.912277
 20
85.08083
 11
-56.21228
 21
85.080777
  0
LINE
  8
型材断面
  6
CONTINUOUS
 62
    47
 10
-56.21228
 20
84.080833
 11
-56.21228
 21
85.080777
  0
LINE
  8
型材断面
  6
CONTINUOUS
 62
    47
 10
-53.912277
 20
84.08078
 11
-56.21228
 21
84.080833
  0
LINE
  8
型材断面
  6
CONTINUOUS
 62
    47
 10
-58.612317
 20
88.880788
 11
-58.912265
 21
89.18078
  0
LINE
  8
型材断面
  6
CONTINUOUS
 62
    47
 10
-58.612317
 20
88.880788
 11
-58.912273
 21
88.580833
  0
ARC
  8
型材断面
  6
CONTINUOUS
 62
    47
 10
-58.412341
 20
92.380747
 40
0.5
 50
90.000009
 51
180.000009
  0
LINE
  8
型材断面
  6
CONTINUOUS
 62
    47
 10
-58.41227
 20
92.880665
 11
-57.412273
 21
92.880717
  0
ARC
  8
型材断面
  6
CONTINUOUS
 62
    47
 10
-57.412341
 20
92.380747
 40
0.5
 50
0.000009
 51
90.000009
  0
LINE
  8
型材断面
  6
CONTINUOUS
 62
    47
 10
-58.912265
 20
89.18078
 11
-58.912265
 21
92.380775
  0
LINE
  8
型材断面
  6
CONTINUOUS
 62
    47
 10
-56.912277
 20
85.08083
 11
-56.91227
 21
92.380775
  0
LINE
  8
型材断面
  6
CONTINUOUS
 62
    47
 10
-58.912273
 20
88.580833
 11
-58.91228
 21
82.580892
  0
LINE
  8
型材断面
  6
CONTINUOUS
 62
    47
 10
-61.412405
 20
82.58096
 11
-58.91228
 21
82.580892
  0
ARC
  8
型材断面
  6
CONTINUOUS
 62
    47
 10
-53.412259
 20
92.380969
 40
0.5
 50
90.0
 51
179.999951
  0
LINE
  8
型材断面
  6
CONTINUOUS
 62
    47
 10
-51.912267
 20
90.88079
 11
-52.412277
 21
91.3808
  0
LINE
  8
型材断面
  6
CONTINUOUS
 62
    47
 10
-51.912267
 20
86.880785
 11
-52.412277
 21
86.380775
  0
LINE
  8
型材断面
  6
CONTINUOUS
 62
    47
 10
-51.912267
 20
90.88079
 11
-51.912275
 21
86.880777
  0
LINE
  8
型材断面
  6
CONTINUOUS
 62
    47
 10
-53.412267
 20
92.88098
 11
-52.91228
 21
92.88098
  0
LINE
  8
型材断面
  6
CONTINUOUS
 62
    47
 10
-52.412277
 20
91.3808
 11
-52.412277
 21
92.380977
  0
ARC
  8
型材断面
  6
CONTINUOUS
 62
    47
 10
-52.912264
 20
92.380969
 40
0.5
 50
0.0
 51
90.0
  0
LINE
  8
型材断面
  6
CONTINUOUS
 62
    47
 10
-57.71228
 20
82.880862
 11
-57.71228
 21
81.380862
  0
LINE
  8
型材断面
  6
CONTINUOUS
 62
    47
 10
-57.71228
 20
81.380862
 11
-59.912435
 21
81.380923
  0
LINE
  8
型材断面
  6
CONTINUOUS
 62
    47
 10
-52.412277
 20
86.380775
 11
-52.412277
 21
84.080743
  0
LINE
  8
型材断面
  6
CONTINUOUS
 62
    47
 10
-50.112432
 20
73.780655
 11
-59.912435
 21
73.780925
  0
LINE
  8
型材断面
  6
CONTINUOUS
 62
    47
 10
-59.912435
 20
81.380923
 11
-59.912435
 21
73.780925
  0
LINE
  8
型材断面
  6
CONTINUOUS
 62
    47
 10
-23.412537
 20
21.08096
 11
-23.412537
 21
23.580965
  0
ARC
  8
型材断面
  6
CONTINUOUS
 62
    47
 10
-20.912534
 20
16.180955
 40
0.5
 50
270.0
 51
360.0
  0
LINE
  8
型材断面
  6
CONTINUOUS
 62
    47
 10
-20.412537
 20
16.180962
 11
-20.412537
 21
16.680965
  0
ARC
  8
型材断面
  6
CONTINUOUS
 62
    47
 10
-20.912534
 20
16.680955
 40
0.5
 50
0.0
 51
90.0
  0
LINE
  8
型材断面
  6
CONTINUOUS
 62
    47
 10
-23.412537
 20
16.180962
 11
-23.412537
 21
19.58096
  0
LINE
  8
型材断面
  6
CONTINUOUS
 62
    47
 10
-22.912543
 20
15.68096
 11
-20.91254
 21
15.68096
  0
ARC
  8
型材断面
  6
CONTINUOUS
 62
    47
 10
-22.912534
 20
16.180955
 40
0.5
 50
180.0
 51
270.0
  0
LINE
  8
型材断面
  6
CONTINUOUS
 62
    47
 10
-20.91254
 20
17.18096
 11
-21.912537
 21
17.18096
  0
LINE
  8
型材断面
  6
CONTINUOUS
 62
    47
 10
-23.412537
 20
21.08096
 11
-25.912543
 21
21.08096
  0
LINE
  8
型材断面
  6
CONTINUOUS
 62
    47
 10
-25.912543
 20
21.08096
 11
-25.912543
 21
19.58096
  0
LINE
  8
型材断面
  6
CONTINUOUS
 62
    47
 10
-23.412537
 20
19.58096
 11
-25.912543
 21
19.58096
  0
LINE
  8
型材断面
  6
CONTINUOUS
 62
    47
 10
-57.41243
 20
72.580925
 11
-57.41243
 21
71.08085
  0
LINE
  8
型材断面
  6
CONTINUOUS
 62
    47
 10
-57.41243
 20
71.08085
 11
-56.412432
 21
71.080827
  0
LINE
  8
型材断面
  6
CONTINUOUS
 62
    47
 10
-56.412432
 20
72.580925
 11
-56.412432
 21
71.080827
  0
LINE
  8
型材断面
  6
CONTINUOUS
 62
    47
 10
-59.912435
 20
72.580925
 11
-57.41243
 21
72.58085
  0
LINE
  8
型材断面
  6
CONTINUOUS
 62
    47
 10
-53.612413
 20
88.880788
 11
-53.91236
 21
89.18078
  0
LINE
  8
型材断面
  6
CONTINUOUS
 62
    47
 10
-53.612413
 20
88.880788
 11
-53.912367
 21
88.580833
  0
LINE
  8
型材断面
  6
CONTINUOUS
 62
    47
 10
-53.91227
 20
92.380977
 11
-53.91227
 21
89.18069
  0
LINE
  8
型材断面
  6
CONTINUOUS
 62
    47
 10
-53.91227
 20
88.580923
 11
-53.912277
 21
84.08078
  0
LINE
  8
型材断面
  6
CONTINUOUS
 62
    47
 10
-43.0286
 20
65.467385
 11
-45.149922
 21
64.05317
  0
LINE
  8
型材断面
  6
CONTINUOUS
 62
    47
 10
-48.685452
 20
67.588708
 11
-47.27126
 21
69.709993
  0
LINE
  8
型材断面
  6
CONTINUOUS
 62
    47
 10
-45.98165
 20
62.056467
 11
-43.181502
 21
63.923233
  0
LINE
  8
型材断面
  6
CONTINUOUS
 62
    47
 10
-43.181502
 20
63.923233
 11
-42.462913
 21
63.204643
  0
LINE
  8
型材断面
  6
CONTINUOUS
 62
    47
 10
-42.462913
 20
63.204643
 11
-41.614385
 21
64.05317
  0
LINE
  8
型材断面
  6
CONTINUOUS
 62
    47
 10
-43.0286
 20
65.467385
 11
-41.614385
 21
64.05317
  0
LINE
  8
型材断面
  6
CONTINUOUS
 62
    47
 10
-45.98165
 20
62.056467
 11
-50.682155
 21
66.75698
  0
LINE
  8
型材断面
  6
CONTINUOUS
 62
    47
 10
-50.682155
 20
66.75698
 11
-48.985115
 21
69.302548
  0
LINE
  8
型材断面
  6
CONTINUOUS
 62
    47
 10
-47.129825
 20
65.608805
 11
-47.129825
 21
66.033072
  0
LINE
  8
型材断面
  6
CONTINUOUS
 62
    47
 10
-47.129825
 20
65.608805
 11
-46.705558
 21
65.608805
  0
LINE
  8
型材断面
  6
CONTINUOUS
 62
    47
 10
-48.685452
 20
67.588708
 11
-47.129825
 21
66.033072
  0
LINE
  8
型材断面
  6
CONTINUOUS
 62
    47
 10
-46.705558
 20
65.608805
 11
-45.149922
 21
64.05317
  0
LINE
  8
型材断面
  6
CONTINUOUS
 62
    47
 10
-47.27126
 20
69.709993
 11
-48.912432
 21
71.351217
  0
LINE
  8
型材断面
  6
CONTINUOUS
 62
    47
 10
-48.985115
 20
69.302548
 11
-50.412432
 21
70.729918
  0
LINE
  8
型材断面
  6
CONTINUOUS
 62
    47
 10
-50.412432
 20
70.729918
 11
-50.412432
 21
72.580662
  0
LINE
  8
型材断面
  6
CONTINUOUS
 62
    47
 10
-56.412432
 20
72.580827
 11
-50.412432
 21
72.580662
  0
LINE
  8
型材断面
  6
CONTINUOUS
 62
    47
 10
-57.71228
 20
82.880862
 11
-52.239582
 21
82.88075
  0
LINE
  8
型材断面
  6
CONTINUOUS
 62
    47
 10
-52.412277
 20
84.080743
 11
-51.742512
 21
84.080727
  0
LINE
  8
型材断面
  6
CONTINUOUS
 62
    47
 10
-52.239582
 20
82.88075
 11
-50.112432
 21
80.753593
  0
LINE
  8
型材断面
  6
CONTINUOUS
 62
    47
 10
-50.112432
 20
73.780655
 11
-50.112432
 21
80.753593
  0
LINE
  8
型材断面
  6
CONTINUOUS
 62
    47
 10
-48.912432
 20
71.351217
 11
-48.912432
 21
80.12258
  0
LINE
  8
型材断面
  6
CONTINUOUS
 62
    47
 10
-48.912432
 20
80.12258
 11
-48.348395
 21
80.686617
  0
LINE
  8
型材断面
  6
CONTINUOUS
 62
    47
 10
-51.742512
 20
84.080727
 11
-48.348395
 21
80.686617
  0
LINE
  8
型材断面
  6
CONTINUOUS
 62
    47
 10
-16.212537
 20
32.980962
 11
-16.512537
 21
33.280962
  0
LINE
  8
型材断面
  6
CONTINUOUS
 62
    47
 10
-16.512537
 20
33.280962
 11
-16.812537
 21
32.980962
  0
LINE
  8
型材断面
  6
CONTINUOUS
 62
    47
 10
-13.012543
 20
34.480962
 11
-13.012543
 21
32.980962
  0
LINE
  8
型材断面
  6
CONTINUOUS
 62
    47
 10
-16.212537
 20
32.980962
 11
-13.012543
 21
32.980962
  0
LINE
  8
型材断面
  6
CONTINUOUS
 62
    47
 10
-26.91254
 20
32.48096
 11
-26.91254
 21
35.48096
  0
LINE
  8
型材断面
  6
CONTINUOUS
 62
    47
 10
-25.912543
 20
33.98096
 11
-25.912543
 21
32.48096
  0
LINE
  8
型材断面
  6
CONTINUOUS
 62
    47
 10
-26.91254
 20
32.48096
 11
-25.912543
 21
32.48096
  0
LINE
  8
型材断面
  6
CONTINUOUS
 62
    47
 10
-21.912537
 20
17.18096
 11
-21.912537
 21
32.980962
  0
LINE
  8
型材断面
  6
CONTINUOUS
 62
    47
 10
-16.812537
 20
32.980962
 11
-21.912537
 21
32.980962
  0
LINE
  8
型材断面
  6
CONTINUOUS
 62
    47
 10
-23.412537
 20
25.080965
 11
-23.412537
 21
33.98096
  0
LINE
  8
型材断面
  6
CONTINUOUS
 62
    47
 10
-25.912543
 20
33.98096
 11
-23.412537
 21
33.98096
  0
LINE
  8
型材断面
  6
CONTINUOUS
 62
    47
 10
-13.012543
 20
34.480962
 11
-22.212537
 21
34.480962
  0
LINE
  8
型材断面
  6
CONTINUOUS
 62
    47
 10
-22.212537
 20
34.480962
 11
-22.212537
 21
35.48096
  0
LINE
  8
型材断面
  6
CONTINUOUS
 62
    47
 10
-26.91254
 20
35.48096
 11
-22.212537
 21
35.48096
  0
LINE
  8
型材断面
  6
CONTINUOUS
 62
    47
 10
-61.412435
 20
82.58096
 11
-61.412435
 21
23.580965
  0
LINE
  8
型材断面
  6
CONTINUOUS
 62
    47
 10
-44.41244
 20
23.580965
 11
-61.412435
 21
23.580965
  0
LINE
  8
型材断面
  6
CONTINUOUS
 62
    47
 10
-59.912435
 20
72.580925
 11
-59.912435
 21
25.080965
  0
LINE
  8
型材断面
  6
CONTINUOUS
 62
    47
 10
-23.412537
 20
25.080965
 11
-59.912435
 21
25.080965
  0
LINE
  8
型材断面
  6
CONTINUOUS
 62
    47
 10
-42.412438
 20
9.580962
 11
-44.41244
 21
9.580962
  0
LINE
  8
型材断面
  6
CONTINUOUS
 62
    47
 10
-44.41244
 20
23.580965
 11
-44.41244
 21
9.580962
  0
LINE
  8
型材断面
  6
CONTINUOUS
 62
    47
 10
-42.412438
 20
9.580962
 11
-42.412438
 21
23.580965
  0
LINE
  8
型材断面
  6
CONTINUOUS
 62
    47
 10
-23.412537
 20
23.580965
 11
-42.412438
 21
23.580965
  0
ENDBLK
  0
BLOCK
  2
*GRP_0038
 70
    65
 10
0.0
 20
0.0
  0
LINE
  8
型材断面
  6
DOT
 10
-59.912428
 20
25.080965
 11
-61.412428
 21
25.080965
  0
LINE
  8
型材断面
  6
DOT
 10
-59.912428
 20
33.080968
 11
-61.412428
 21
33.080968
  0
LINE
  8
型材断面
  6
DOT
 10
-61.037428
 20
33.080968
 11
-61.037428
 21
25.080965
  0
LINE
  8
型材断面
  6
DOT
 10
-60.662428
 20
33.080968
 11
-60.662428
 21
25.080965
  0
LINE
  8
型材断面
  6
DOT
 10
-60.287428
 20
33.080968
 11
-60.287428
 21
25.080965
  0
ENDBLK
  0
BLOCK
  2
*GRP_0039
 70
    65
 10
0.0
 20
0.0
  0
ARC
  8
型材断面
  6
CONTINUOUS
 62
    47
 10
65.842048
 20
-90.226012
 40
0.75
 50
90.0
 51
180.0
  0
LINE
  8
型材断面
  6
CONTINUOUS
 62
    47
 10
65.092082
 20
-90.226015
 11
65.092082
 21
-90.226015
  0
ARC
  8
型材断面
  6
CONTINUOUS
 62
    47
 10
65.842048
 20
-90.226012
 40
0.75
 50
180.0
 51
270.0
  0
LINE
  8
型材断面
  6
CONTINUOUS
 62
    47
 10
71.092082
 20
-84.475968
 11
71.092082
 21
-89.476015
  0
LINE
  8
型材断面
  6
CONTINUOUS
 62
    47
 10
65.842082
 20
-89.476015
 11
71.092082
 21
-89.476015
  0
LINE
  8
型材断面
  6
CONTINUOUS
 62
    47
 10
65.842082
 20
-90.976015
 11
73.092085
 21
-90.976015
  0
LINE
  8
型材断面
  6
CONTINUOUS
 62
    47
 10
73.092085
 20
-84.475968
 11
73.092085
 21
-90.976015
  0
LINE
  8
型材断面
  6
CONTINUOUS
 62
    47
 10
73.092085
 20
-84.475968
 11
106.092085
 21
-84.475968
  0
LINE
  8
型材断面
  6
CONTINUOUS
 62
    47
 10
106.092085
 20
-70.475965
 11
106.092085
 21
-84.475968
  0
LINE
  8
型材断面
  6
CONTINUOUS
 62
    47
 10
106.092085
 20
-70.475965
 11
104.09203
 21
-70.475965
  0
ARC
  8
型材断面
  6
CONTINUOUS
 62
    47
 10
17.342048
 20
-90.226012
 40
0.75
 50
0.0
 51
90.0
  0
LINE
  8
型材断面
  6
CONTINUOUS
 62
    47
 10
18.09208
 20
-90.226015
 11
18.09208
 21
-90.226015
  0
ARC
  8
型材断面
  6
CONTINUOUS
 62
    47
 10
17.342048
 20
-90.226012
 40
0.75
 50
-90.0
 51
0.0
  0
LINE
  8
型材断面
  6
CONTINUOUS
 62
    47
 10
-1.307967
 20
-89.476015
 11
-1.307967
 21
-90.976015
  0
LINE
  8
型材断面
  6
CONTINUOUS
 62
    47
 10
1.19203
 20
-88.476018
 11
0.192032
 21
-89.476015
  0
LINE
  8
型材断面
  6
CONTINUOUS
 62
    47
 10
-1.307967
 20
-89.476015
 11
0.192032
 21
-89.476015
  0
LINE
  8
型材断面
  6
CONTINUOUS
 62
    47
 10
17.34208
 20
-90.976015
 11
3.992035
 21
-90.976015
  0
LINE
  8
型材断面
  6
CONTINUOUS
 62
    47
 10
3.392035
 20
-90.976015
 11
-1.307967
 21
-90.976015
  0
LINE
  8
型材断面
  6
CONTINUOUS
 62
    47
 10
3.692035
 20
-90.676015
 11
3.992035
 21
-90.976015
  0
LINE
  8
型材断面
  6
CONTINUOUS
 62
    47
 10
3.692035
 20
-90.676015
 11
3.392035
 21
-90.976015
  0
LINE
  8
型材断面
  6
CONTINUOUS
 62
    47
 10
7.19203
 20
-84.475968
 11
7.19203
 21
-88.476018
  0
LINE
  8
型材断面
  6
CONTINUOUS
 62
    47
 10
1.19203
 20
-88.476018
 11
7.19203
 21
-88.476018
  0
LINE
  8
型材断面
  6
CONTINUOUS
 62
    47
 10
71.092082
 20
-84.475968
 11
9.192032
 21
-84.475968
  0
LINE
  8
型材断面
  6
CONTINUOUS
 62
    47
 10
17.34208
 20
-89.476015
 11
9.192032
 21
-89.476015
  0
LINE
  8
型材断面
  6
CONTINUOUS
 62
    47
 10
9.192032
 20
-84.475968
 11
9.192032
 21
-89.476015
  0
LINE
  8
型材断面
  6
CONTINUOUS
 62
    47
 10
-9.407915
 20
11.025538
 11
-9.407915
 21
6.525538
  0
LINE
  8
型材断面
  6
CONTINUOUS
 62
    47
 10
7.19203
 20
-84.475968
 11
-9.407915
 21
-84.475968
  0
LINE
  8
型材断面
  6
CONTINUOUS
 62
    47
 10
-11.40797
 20
13.025533
 11
-8.955418
 21
13.025533
  0
LINE
  8
型材断面
  6
CONTINUOUS
 62
    47
 10
3.59203
 20
13.025533
 11
0.192085
 21
13.025533
  0
LINE
  8
型材断面
  6
CONTINUOUS
 62
    47
 10
-0.407915
 20
12.425533
 11
0.192085
 21
13.025533
  0
LINE
  8
型材断面
  6
CONTINUOUS
 62
    47
 10
-0.407915
 20
12.425533
 11
-0.407915
 21
11.025538
  0
LINE
  8
型材断面
  6
CONTINUOUS
 62
    47
 10
2.09203
 20
11.025538
 11
-0.407915
 21
11.025538
  0
LINE
  8
型材断面
  6
CONTINUOUS
 62
    47
 10
-8.40797
 20
12.425533
 11
-8.40797
 21
11.025538
  0
LINE
  8
型材断面
  6
CONTINUOUS
 62
    47
 10
-9.460467
 20
11.025538
 11
-8.40797
 21
11.025538
  0
LINE
  8
型材断面
  6
CONTINUOUS
 62
    47
 10
-8.40797
 20
12.425533
 11
-9.00797
 21
13.025533
  0
LINE
  8
型材断面
  6
CONTINUOUS
 62
    47
 10
2.09203
 20
11.025538
 11
2.09203
 21
6.525538
  0
LINE
  8
型材断面
  6
CONTINUOUS
 62
    47
 10
-9.407915
 20
6.525538
 11
2.09203
 21
6.525538
  0
LINE
  8
型材断面
  6
CONTINUOUS
 62
    47
 10
27.09208
 20
-82.475965
 11
-9.407915
 21
-82.475965
  0
LINE
  8
型材断面
  6
CONTINUOUS
 62
    47
 10
104.09203
 20
-70.475965
 11
104.09203
 21
-82.475965
  0
LINE
  8
型材断面
  6
CONTINUOUS
 62
    47
 10
28.59208
 20
-82.475965
 11
104.09203
 21
-82.475965
  0
LINE
  8
型材断面
  6
CONTINUOUS
 62
    47
 10
-9.407915
 20
-7.975968
 11
27.09208
 21
-7.975968
  0
LINE
  8
型材断面
  6
CONTINUOUS
 62
    47
 10
28.59208
 20
-82.475965
 11
28.59208
 21
-3.475968
  0
LINE
  8
型材断面
  6
CONTINUOUS
 62
    47
 10
28.59208
 20
-3.475968
 11
27.09208
 21
-3.475968
  0
LINE
  8
型材断面
  6
CONTINUOUS
 62
    47
 10
-9.407915
 20
-6.475968
 11
27.09208
 21
-6.475968
  0
LINE
  8
型材断面
  6
CONTINUOUS
 62
    47
 10
27.09208
 20
-6.475968
 11
27.09208
 21
-3.475968
  0
LINE
  8
型材断面
  6
CONTINUOUS
 62
    47
 10
-11.10797
 20
-78.475968
 11
-11.40797
 21
-78.175968
  0
LINE
  8
型材断面
  6
CONTINUOUS
 62
    47
 10
-11.10797
 20
-78.475968
 11
-11.40797
 21
-78.775968
  0
LINE
  8
型材断面
  6
CONTINUOUS
 62
    47
 10
-11.40797
 20
-78.775968
 11
-11.40797
 21
-90.976015
  0
LINE
  8
型材断面
  6
CONTINUOUS
 62
    47
 10
-10.40792
 20
-90.976015
 11
-11.40797
 21
-90.976015
  0
LINE
  8
型材断面
  6
CONTINUOUS
 62
    47
 10
-9.407915
 20
-84.475968
 11
-9.407915
 21
-89.976018
  0
LINE
  8
型材断面
  6
CONTINUOUS
 62
    47
 10
-10.40792
 20
-90.976015
 11
-9.407915
 21
-89.976018
  0
ARC
  8
型材断面
  6
CONTINUOUS
 62
    47
 10
-5.258133
 20
-2.504386
 40
0.5
 50
59.998835
 51
137.160733
  0
LINE
  8
型材断面
  6
CONTINUOUS
 62
    47
 10
-5.008115
 20
-2.071367
 11
-4.566065
 21
-2.326615
  0
ARC
  8
型材断面
  6
CONTINUOUS
 62
    47
 10
-4.816101
 20
-2.759604
 40
0.5
 50
-40.47561
 51
59.998682
  0
ARC
  8
型材断面
  6
CONTINUOUS
 62
    47
 10
-6.907977
 20
-0.974512
 40
1.75
 50
42.839267
 51
317.160733
  0
ARC
  8
型材断面
  6
CONTINUOUS
 62
    47
 10
-5.258133
 20
0.555362
 40
0.5
 50
222.839266
 51
300.001165
  0
LINE
  8
型材断面
  6
CONTINUOUS
 62
    47
 10
-5.008115
 20
0.122337
 11
-4.566065
 21
0.377585
  0
ARC
  8
型材断面
  6
CONTINUOUS
 62
    47
 10
-4.816101
 20
0.81058
 40
0.5
 50
300.001318
 51
400.47561
  0
LINE
  8
型材断面
  6
CONTINUOUS
 62
    47
 10
-9.407915
 20
2.197685
 11
-9.407915
 21
5.025538
  0
ARC
  8
型材断面
  6
CONTINUOUS
 62
    47
 10
-6.907977
 20
-0.974512
 40
3.25
 50
40.47561
 51
122.23005
  0
ARC
  8
型材断面
  6
CONTINUOUS
 62
    47
 10
-8.907927
 20
2.197664
 40
0.5
 50
180.0
 51
302.230049
  0
LINE
  8
型材断面
  6
CONTINUOUS
 62
    47
 10
-9.407915
 20
-4.146715
 11
-9.407915
 21
-6.475968
  0
ARC
  8
型材断面
  6
CONTINUOUS
 62
    47
 10
-6.907977
 20
-0.974512
 40
3.25
 50
237.76995
 51
319.52439
  0
ARC
  8
型材断面
  6
CONTINUOUS
 62
    47
 10
-8.907927
 20
-4.146688
 40
0.5
 50
57.76995
 51
180.0
  0
ARC
  8
型材断面
  6
CONTINUOUS
 62
    47
 10
-5.258133
 20
-71.005836
 40
0.5
 50
59.998835
 51
137.160733
  0
LINE
  8
型材断面
  6
CONTINUOUS
 62
    47
 10
-5.008115
 20
-70.572812
 11
-4.566065
 21
-70.828068
  0
ARC
  8
型材断面
  6
CONTINUOUS
 62
    47
 10
-4.816101
 20
-71.261054
 40
0.5
 50
-40.47561
 51
59.998682
  0
ARC
  8
型材断面
  6
CONTINUOUS
 62
    47
 10
-6.907977
 20
-69.475962
 40
1.75
 50
42.839267
 51
317.160733
  0
ARC
  8
型材断面
  6
CONTINUOUS
 62
    47
 10
-5.258133
 20
-67.946088
 40
0.5
 50
222.839266
 51
300.001165
  0
LINE
  8
型材断面
  6
CONTINUOUS
 62
    47
 10
-5.008115
 20
-68.379115
 11
-4.566065
 21
-68.123867
  0
ARC
  8
型材断面
  6
CONTINUOUS
 62
    47
 10
-4.816101
 20
-67.69087
 40
0.5
 50
300.001318
 51
400.47561
  0
LINE
  8
型材断面
  6
CONTINUOUS
 62
    47
 10
-9.407915
 20
-82.475965
 11
-9.407915
 21
-72.648168
  0
ARC
  8
型材断面
  6
CONTINUOUS
 62
    47
 10
-6.907977
 20
-69.475962
 40
3.25
 50
237.76995
 51
319.52439
  0
ARC
  8
型材断面
  6
CONTINUOUS
 62
    47
 10
-8.907927
 20
-72.648138
 40
0.5
 50
57.769951
 51
180.0
  0
LINE
  8
型材断面
  6
CONTINUOUS
 62
    47
 10
-9.407915
 20
-66.303767
 11
-9.407915
 21
-7.975968
  0
ARC
  8
型材断面
  6
CONTINUOUS
 62
    47
 10
-6.907977
 20
-69.475962
 40
3.25
 50
40.47561
 51
122.23005
  0
ARC
  8
型材断面
  6
CONTINUOUS
 62
    47
 10
-8.907927
 20
-66.303786
 40
0.5
 50
180.0
 51
302.23005
  0
LINE
  8
型材断面
  6
CONTINUOUS
 62
    47
 10
27.09208
 20
-82.475965
 11
27.09208
 21
-72.648168
  0
ARC
  8
型材断面
  6
CONTINUOUS
 62
    47
 10
22.942278
 20
-23.005836
 40
0.5
 50
42.839267
 51
120.001165
  0
ARC
  8
型材断面
  6
CONTINUOUS
 62
    47
 10
24.592123
 20
-21.475962
 40
1.75
 50
222.839267
 51
497.160733
  0
ARC
  8
型材断面
  6
CONTINUOUS
 62
    47
 10
22.942278
 20
-19.946088
 40
0.5
 50
239.998835
 51
317.160734
  0
LINE
  8
型材断面
  6
CONTINUOUS
 62
    47
 10
22.69228
 20
-20.379115
 11
22.25023
 21
-20.123867
  0
ARC
  8
型材断面
  6
CONTINUOUS
 62
    47
 10
22.500246
 20
-19.69087
 40
0.5
 50
139.52439
 51
239.998682
  0
LINE
  8
型材断面
  6
CONTINUOUS
 62
    47
 10
27.09208
 20
-18.303767
 11
27.09208
 21
-7.975968
  0
ARC
  8
型材断面
  6
CONTINUOUS
 62
    47
 10
24.592123
 20
-21.475962
 40
3.25
 50
57.76995
 51
139.52439
  0
ARC
  8
型材断面
  6
CONTINUOUS
 62
    47
 10
26.592073
 20
-18.303786
 40
0.5
 50
237.769951
 51
360.0
  0
LINE
  8
型材断面
  6
CONTINUOUS
 62
    47
 10
27.09208
 20
-66.303767
 11
27.09208
 21
-24.648168
  0
ARC
  8
型材断面
  6
CONTINUOUS
 62
    47
 10
26.592073
 20
-24.648138
 40
0.5
 50
0.0
 51
122.23005
  0
LINE
  8
型材断面
  6
CONTINUOUS
 62
    47
 10
22.69228
 20
-22.572812
 11
22.092085
 21
-22.919365
  0
LINE
  8
型材断面
  6
CONTINUOUS
 62
    47
 10
22.092085
 20
-22.919365
 11
22.092085
 21
-26.275968
  0
LINE
  8
型材断面
  6
CONTINUOUS
 62
    47
 10
22.092085
 20
-26.275968
 11
23.592085
 21
-26.275968
  0
ARC
  8
型材断面
  6
CONTINUOUS
 62
    47
 10
24.592123
 20
-21.475962
 40
3.25
 50
252.078861
 51
302.230049
  0
LINE
  8
型材断面
  6
CONTINUOUS
 62
    47
 10
23.592085
 20
-24.568263
 11
23.592085
 21
-26.275968
  0
ARC
  8
型材断面
  6
CONTINUOUS
 62
    47
 10
22.942278
 20
-67.946088
 40
0.5
 50
239.998835
 51
317.160733
  0
ARC
  8
型材断面
  6
CONTINUOUS
 62
    47
 10
24.592123
 20
-69.475962
 40
1.75
 50
222.839267
 51
497.160733
  0
ARC
  8
型材断面
  6
CONTINUOUS
 62
    47
 10
22.942278
 20
-71.005836
 40
0.5
 50
42.839266
 51
120.001165
  0
LINE
  8
型材断面
  6
CONTINUOUS
 62
    47
 10
22.69228
 20
-70.572812
 11
22.25023
 21
-70.828068
  0
ARC
  8
型材断面
  6
CONTINUOUS
 62
    47
 10
22.500246
 20
-71.261054
 40
0.5
 50
120.001318
 51
220.47561
  0
ARC
  8
型材断面
  6
CONTINUOUS
 62
    47
 10
24.592123
 20
-69.475962
 40
3.25
 50
220.47561
 51
302.23005
  0
ARC
  8
型材断面
  6
CONTINUOUS
 62
    47
 10
26.592073
 20
-72.648138
 40
0.5
 50
0.0
 51
122.230049
  0
ARC
  8
型材断面
  6
CONTINUOUS
 62
    47
 10
26.592073
 20
-66.303786
 40
0.5
 50
-122.23005
 51
0.0
  0
LINE
  8
型材断面
  6
CONTINUOUS
 62
    47
 10
22.69228
 20
-68.379115
 11
22.092085
 21
-68.032563
  0
LINE
  8
型材断面
  6
CONTINUOUS
 62
    47
 10
22.092085
 20
-68.032563
 11
22.092085
 21
-64.675968
  0
LINE
  8
型材断面
  6
CONTINUOUS
 62
    47
 10
22.092085
 20
-64.675968
 11
23.592085
 21
-64.675968
  0
ARC
  8
型材断面
  6
CONTINUOUS
 62
    47
 10
24.592123
 20
-69.475962
 40
3.25
 50
57.769951
 51
107.921139
  0
LINE
  8
型材断面
  6
CONTINUOUS
 62
    47
 10
23.592085
 20
-66.383665
 11
23.592085
 21
-64.675968
  0
LINE
  8
型材断面
  6
CONTINUOUS
 62
    47
 10
-9.407915
 20
5.025538
 11
3.59203
 21
5.025538
  0
LINE
  8
型材断面
  6
CONTINUOUS
 62
    47
 10
3.59203
 20
13.025533
 11
3.59203
 21
5.025538
  0
LINE
  8
型材断面
  6
CONTINUOUS
 62
    47
 10
-11.10797
 20
-9.975962
 11
-11.40797
 21
-9.675962
  0
LINE
  8
型材断面
  6
CONTINUOUS
 62
    47
 10
-11.10797
 20
-9.975962
 11
-11.40797
 21
-10.275962
  0
LINE
  8
型材断面
  6
CONTINUOUS
 62
    47
 10
-11.10797
 20
-75.675962
 11
-11.40797
 21
-75.375962
  0
LINE
  8
型材断面
  6
CONTINUOUS
 62
    47
 10
-11.10797
 20
-75.675962
 11
-11.40797
 21
-75.975962
  0
LINE
  8
型材断面
  6
CONTINUOUS
 62
    47
 10
-11.40797
 20
-75.975962
 11
-11.40797
 21
-78.175968
  0
LINE
  8
型材断面
  6
CONTINUOUS
 62
    47
 10
-11.40797
 20
13.025533
 11
-11.40797
 21
-9.675962
  0
LINE
  8
型材断面
  6
CONTINUOUS
 62
    47
 10
-11.40797
 20
-10.275962
 11
-11.40797
 21
-75.375962
  0
ENDBLK
  0
BLOCK
  2
*GRP_0040
 70
    65
 10
0.0
 20
0.0
  0
LINE
  8
型材断面
  6
CONTINUOUS
 62
    47
 10
19.587632
 20
64.52522
 11
27.092035
 21
64.52522
  0
LINE
  8
型材断面
  6
CONTINUOUS
 62
    47
 10
23.592032
 20
63.02522
 11
23.592032
 21
61.52522
  0
LINE
  8
型材断面
  6
CONTINUOUS
 62
    47
 10
23.592032
 20
22.025225
 11
23.592032
 21
23.525217
  0
LINE
  8
型材断面
  6
CONTINUOUS
 62
    47
 10
28.592035
 20
20.525217
 11
28.592035
 21
69.525223
  0
LINE
  8
型材断面
  6
CONTINUOUS
 62
    47
 10
27.092035
 20
63.02522
 11
23.592032
 21
63.02522
  0
LINE
  8
型材断面
  6
CONTINUOUS
 62
    47
 10
22.592035
 20
63.02522
 11
-4.407957
 21
63.02522
  0
LINE
  8
型材断面
  6
CONTINUOUS
 62
    47
 10
22.592035
 20
63.02522
 11
22.592035
 21
61.52522
  0
LINE
  8
型材断面
  6
CONTINUOUS
 62
    47
 10
22.592035
 20
61.52522
 11
23.592032
 21
61.52522
  0
LINE
  8
型材断面
  6
CONTINUOUS
 62
    47
 10
-4.407957
 20
20.525217
 11
28.592035
 21
20.525217
  0
LINE
  8
型材断面
  6
CONTINUOUS
 62
    47
 10
-4.407957
 20
63.02522
 11
-4.407957
 21
22.025217
  0
LINE
  8
型材断面
  6
CONTINUOUS
 62
    47
 10
27.092035
 20
63.02522
 11
27.092035
 21
22.025217
  0
LINE
  8
型材断面
  6
CONTINUOUS
 62
    47
 10
23.592032
 20
23.525217
 11
22.592035
 21
23.525217
  0
LINE
  8
型材断面
  6
CONTINUOUS
 62
    47
 10
22.592035
 20
22.025225
 11
22.592035
 21
23.525217
  0
LINE
  8
型材断面
  6
CONTINUOUS
 62
    47
 10
-4.407957
 20
22.025217
 11
22.592035
 21
22.025217
  0
LINE
  8
型材断面
  6
CONTINUOUS
 62
    47
 10
23.592032
 20
22.025217
 11
27.092035
 21
22.025217
  0
LINE
  8
型材断面
  6
CONTINUOUS
 62
    47
 10
27.092035
 20
64.52522
 11
27.092035
 21
69.525223
  0
LINE
  8
型材断面
  6
CONTINUOUS
 62
    47
 10
27.092035
 20
69.525223
 11
28.592035
 21
69.525223
  0
ARC
  8
型材断面
  6
DOT
 62
    47
 10
-5.907963
 20
17.725233
 40
0.5
 50
180.0
 51
270.0
  0
LINE
  8
型材断面
  6
CONTINUOUS
 62
    47
 10
-4.907953
 20
17.225225
 11
-5.907957
 21
17.225225
  0
LINE
  8
型材断面
  6
CONTINUOUS
 62
    47
 10
-4.407957
 20
20.525217
 11
-4.407957
 21
17.725228
  0
ARC
  8
型材断面
  6
DOT
 62
    47
 10
-4.90796
 20
17.725233
 40
0.5
 50
270.0
 51
360.0
  0
LINE
  8
型材断面
  6
CONTINUOUS
 62
    47
 10
19.587632
 20
64.52522
 11
-4.407957
 21
64.52522
  0
LINE
  8
型材断面
  6
CONTINUOUS
 62
    47
 10
-4.407957
 20
64.52522
 11
-4.407957
 21
83.415462
  0
LINE
  8
型材断面
  6
CONTINUOUS
 62
    47
 10
-19.012018
 20
40.025225
 11
-18.112018
 21
41.225225
  0
LINE
  8
型材断面
  6
CONTINUOUS
 62
    47
 10
-14.012022
 20
40.025225
 11
-14.912022
 21
41.225225
  0
LINE
  8
型材断面
  6
CONTINUOUS
 62
    47
 10
-14.012022
 20
40.025225
 11
-13.012018
 21
40.025225
  0
LINE
  8
型材断面
  6
CONTINUOUS
 62
    47
 10
-19.012018
 20
40.025225
 11
-20.012022
 21
40.025225
  0
LINE
  8
型材断面
  6
CONTINUOUS
 62
    47
 10
-13.012018
 20
41.525225
 11
-13.412022
 21
41.525225
  0
LINE
  8
型材断面
  6
CONTINUOUS
 62
    47
 10
-13.012018
 20
40.025225
 11
-13.012018
 21
41.525225
  0
LINE
  8
型材断面
  6
CONTINUOUS
 62
    47
 10
-19.612018
 20
41.525225
 11
-20.012022
 21
41.525225
  0
LINE
  8
型材断面
  6
CONTINUOUS
 62
    47
 10
-20.012022
 20
40.025225
 11
-20.012022
 21
41.525225
  0
LINE
  8
型材断面
  6
CONTINUOUS
 62
    47
 10
-13.412022
 20
41.525225
 11
-13.412022
 21
45.525223
  0
LINE
  8
型材断面
  6
CONTINUOUS
 62
    47
 10
-6.40796
 20
45.525223
 11
-13.412022
 21
45.525223
  0
LINE
  8
型材断面
  6
CONTINUOUS
 62
    47
 10
-19.612018
 20
41.525225
 11
-19.612018
 21
45.525223
  0
LINE
  8
型材断面
  6
CONTINUOUS
 62
    47
 10
-33.907963
 20
45.525223
 11
-19.612018
 21
45.525223
  0
LINE
  8
型材断面
  6
CONTINUOUS
 62
    47
 10
-18.112018
 20
41.225225
 11
-18.112018
 21
45.525223
  0
LINE
  8
型材断面
  6
CONTINUOUS
 62
    47
 10
-14.912022
 20
41.225225
 11
-14.912022
 21
45.525223
  0
LINE
  8
型材断面
  6
CONTINUOUS
 62
    47
 10
-32.77553
 20
72.184835
 11
-33.482622
 21
72.184857
  0
LINE
  8
型材断面
  6
CONTINUOUS
 62
    47
 10
-32.77553
 20
72.184835
 11
-32.775515
 21
72.891935
  0
LINE
  8
型材断面
  6
CONTINUOUS
 62
    47
 10
-33.482622
 20
72.184857
 11
-36.664647
 21
69.002915
  0
LINE
  8
型材断面
  6
CONTINUOUS
 62
    47
 10
-44.44274
 20
75.36698
 11
-43.735625
 21
76.074072
  0
LINE
  8
型材断面
  6
CONTINUOUS
 62
    47
 10
-44.44274
 20
75.36698
 11
-44.442755
 21
73.952765
  0
LINE
  8
型材断面
  6
CONTINUOUS
 62
    47
 10
-44.442755
 20
73.952765
 11
-37.725335
 21
67.235158
  0
LINE
  8
型材断面
  6
CONTINUOUS
 62
    47
 10
-37.725335
 20
67.235158
 11
-35.604013
 21
67.235135
  0
LINE
  8
型材断面
  6
CONTINUOUS
 62
    47
 10
-32.775515
 20
72.891942
 11
-29.593483
 21
76.073892
  0
LINE
  8
型材断面
  6
CONTINUOUS
 62
    47
 10
-4.407957
 20
83.415462
 11
-13.117962
 21
92.125288
  0
LINE
  8
型材断面
  6
CONTINUOUS
 62
    47
 10
-17.714247
 20
80.45819
 11
-20.189142
 21
82.933033
  0
LINE
  8
型材断面
  6
CONTINUOUS
 62
    47
 10
-18.77492
 20
79.397547
 11
-22.310495
 21
82.93304
  0
LINE
  8
型材断面
  6
CONTINUOUS
 62
    47
 10
-20.189142
 20
82.933033
 11
-18.421347
 21
84.700775
  0
LINE
  8
型材断面
  6
CONTINUOUS
 62
    47
 10
-14.885765
 20
88.236253
 11
-13.11797
 21
90.003995
  0
LINE
  8
型材断面
  6
CONTINUOUS
 62
    47
 10
-10.643067
 20
87.529153
 11
-13.11797
 21
90.003995
  0
LINE
  8
型材断面
  6
CONTINUOUS
 62
    47
 10
-25.846183
 20
72.326495
 11
-18.77492
 21
79.397547
  0
LINE
  8
型材断面
  6
CONTINUOUS
 62
    47
 10
-17.714247
 20
80.45819
 11
-10.643067
 21
87.529153
  0
LINE
  8
型材断面
  6
CONTINUOUS
 62
    47
 10
-15.522163
 20
89.721162
 11
-13.117872
 21
92.125377
  0
LINE
  8
型材断面
  6
CONTINUOUS
 62
    47
 10
-15.52217
 20
88.872643
 11
-14.885765
 21
88.236253
  0
LINE
  8
型材断面
  6
CONTINUOUS
 62
    47
 10
-15.522163
 20
89.721162
 11
-15.52217
 21
88.872643
  0
LINE
  8
型材断面
  6
CONTINUOUS
 62
    47
 10
-19.906295
 20
85.337165
 11
-22.310495
 21
82.93304
  0
LINE
  8
型材断面
  6
CONTINUOUS
 62
    47
 10
-19.057752
 20
85.337165
 11
-18.421347
 21
84.700775
  0
LINE
  8
型材断面
  6
CONTINUOUS
 62
    47
 10
-19.906295
 20
85.337165
 11
-19.057752
 21
85.337165
  0
LINE
  8
型材断面
  6
CONTINUOUS
 62
    47
 10
-40.412202
 20
72.326293
 11
-40.412202
 21
72.750568
  0
LINE
  8
型材断面
  6
CONTINUOUS
 62
    47
 10
-40.412202
 20
72.326293
 11
-39.987943
 21
72.326293
  0
LINE
  8
型材断面
  6
CONTINUOUS
 62
    47
 10
-36.664647
 20
69.002915
 11
-39.987943
 21
72.326293
  0
LINE
  8
型材断面
  6
CONTINUOUS
 62
    47
 10
-40.412202
 20
72.750568
 11
-43.735625
 21
76.074072
  0
LINE
  8
型材断面
  6
CONTINUOUS
 62
    47
 10
-33.607963
 20
58.525228
 11
-33.907963
 21
58.225228
  0
LINE
  8
型材断面
  6
CONTINUOUS
 62
    47
 10
-33.607963
 20
58.525228
 11
-33.907963
 21
58.825228
  0
LINE
  8
型材断面
  6
CONTINUOUS
 62
    47
 10
-6.10796
 20
26.525232
 11
-6.40796
 21
26.225232
  0
LINE
  8
型材断面
  6
CONTINUOUS
 62
    47
 10
-6.10796
 20
26.525232
 11
-6.40796
 21
26.825232
  0
LINE
  8
型材断面
  6
CONTINUOUS
 62
    47
 10
-6.40796
 20
17.725228
 11
-6.40796
 21
26.225232
  0
LINE
  8
型材断面
  6
CONTINUOUS
 62
    47
 10
-16.51202
 20
45.825223
 11
-16.81202
 21
45.525223
  0
LINE
  8
型材断面
  6
CONTINUOUS
 62
    47
 10
-16.51202
 20
45.825223
 11
-16.21202
 21
45.525223
  0
LINE
  8
型材断面
  6
CONTINUOUS
 62
    47
 10
-18.112018
 20
45.525223
 11
-16.81202
 21
45.525223
  0
LINE
  8
型材断面
  6
CONTINUOUS
 62
    47
 10
-16.21202
 20
45.525223
 11
-14.912022
 21
45.525223
  0
LINE
  8
型材断面
  6
CONTINUOUS
 62
    47
 10
-33.607963
 20
55.025225
 11
-33.907963
 21
54.725225
  0
LINE
  8
型材断面
  6
CONTINUOUS
 62
    47
 10
-33.607963
 20
55.025225
 11
-33.907963
 21
55.325225
  0
LINE
  8
型材断面
  6
CONTINUOUS
 62
    47
 10
-33.907963
 20
58.225228
 11
-33.907963
 21
55.325225
  0
LINE
  8
型材断面
  6
CONTINUOUS
 62
    47
 10
-33.907963
 20
45.525223
 11
-33.907963
 21
54.725225
  0
LINE
  8
型材断面
  6
CONTINUOUS
 62
    47
 10
-6.10796
 20
30.025228
 11
-6.40796
 21
29.725228
  0
LINE
  8
型材断面
  6
CONTINUOUS
 62
    47
 10
-6.10796
 20
30.025228
 11
-6.40796
 21
30.325228
  0
LINE
  8
型材断面
  6
CONTINUOUS
 62
    47
 10
-6.40796
 20
26.825232
 11
-6.40796
 21
29.725228
  0
LINE
  8
型材断面
  6
CONTINUOUS
 62
    47
 10
-6.40796
 20
45.525223
 11
-6.40796
 21
30.325228
  0
LINE
  8
型材断面
  6
CONTINUOUS
 62
    47
 10
-9.582402
 20
86.751342
 11
-6.40796
 21
83.57696
  0
LINE
  8
型材断面
  6
CONTINUOUS
 62
    47
 10
-6.40796
 20
64.52522
 11
-6.40796
 21
46.82522
  0
LINE
  8
型材断面
  6
CONTINUOUS
 62
    47
 10
-32.607957
 20
46.82522
 11
-32.607957
 21
65.988508
  0
LINE
  8
型材断面
  6
CONTINUOUS
 62
    47
 10
-29.593483
 20
76.073892
 11
-28.67426
 21
75.15464
  0
LINE
  8
型材断面
  6
CONTINUOUS
 62
    47
 10
-28.67426
 20
75.15464
 11
-29.593512
 21
74.235418
  0
LINE
  8
型材断面
  6
CONTINUOUS
 62
    47
 10
-29.593512
 20
74.235418
 11
-27.896472
 21
72.53834
  0
LINE
  8
型材断面
  6
CONTINUOUS
 62
    47
 10
-27.896472
 20
72.53834
 11
-26.977228
 21
73.457562
  0
LINE
  8
型材断面
  6
CONTINUOUS
 62
    47
 10
-25.846183
 20
72.326495
 11
-26.977228
 21
73.457562
  0
LINE
  8
型材断面
  6
CONTINUOUS
 62
    47
 10
-9.582402
 20
86.751342
 11
-25.846205
 21
70.48802
  0
LINE
  8
型材断面
  6
CONTINUOUS
 62
    47
 10
-25.846205
 20
70.48802
 11
-26.97725
 21
71.619095
  0
LINE
  8
型材断面
  6
CONTINUOUS
 62
    47
 10
-32.607957
 20
65.988508
 11
-26.97725
 21
71.619095
  0
LINE
  8
型材断面
  6
CONTINUOUS
 62
    47
 10
-35.604013
 20
67.235135
 11
-34.331195
 21
68.507907
  0
LINE
  8
型材断面
  6
CONTINUOUS
 62
    47
 10
-34.331195
 20
68.507907
 11
-33.129118
 21
67.3058
  0
LINE
  8
型材断面
  6
CONTINUOUS
 62
    47
 10
-33.129118
 20
67.3058
 11
-33.907963
 21
66.526978
  0
LINE
  8
型材断面
  6
CONTINUOUS
 62
    47
 10
-33.907963
 20
58.825228
 11
-33.907963
 21
66.526978
  0
LINE
  8
型材断面
  6
CONTINUOUS
 62
    47
 10
-18.512015
 20
47.325223
 11
-19.012018
 21
46.82522
  0
LINE
  8
型材断面
  6
CONTINUOUS
 62
    47
 10
-32.607957
 20
46.82522
 11
-19.012018
 21
46.82522
  0
LINE
  8
型材断面
  6
CONTINUOUS
 62
    47
 10
-18.512015
 20
47.325223
 11
-14.512018
 21
47.325223
  0
LINE
  8
型材断面
  6
CONTINUOUS
 62
    47
 10
-6.40796
 20
83.57696
 11
-6.40796
 21
46.82522
  0
LINE
  8
型材断面
  6
CONTINUOUS
 62
    47
 10
-14.512018
 20
47.325223
 11
-14.012015
 21
46.82522
  0
LINE
  8
型材断面
  6
CONTINUOUS
 62
    47
 10
-6.40796
 20
46.82522
 11
-14.012015
 21
46.82522
  0
ENDBLK
  0
BLOCK
  2
*GRP_0041
 70
    65
 10
0.0
 20
0.0
  0
SPLINE
  5
1400000
100
AcDbEntity
  8
ガラス
100
AcDbSpline
  6
CONTINUOUS
 70
     0
 71
     3
 74
     3
 44
0.0
 11
-65.455498
 21
23.788363
 11
-64.508585
 21
25.34282
 11
-62.92994
 21
25.917672
  0
SPLINE
  5
1400001
100
AcDbEntity
  8
ガラス
100
AcDbSpline
  6
CONTINUOUS
 70
     0
 71
     3
 74
     3
 44
0.0
 11
-62.92994
 21
25.917672
 11
-63.381365
 21
24.678522
 11
-63.558987
 21
23.55944
  0
ARC
  8
ガラス
  6
CONTINUOUS
 10
-64.507237
 20
23.673895
 40
0.955135
 50
173.117443
 51
353.117443
  0
ENDBLK
  0
BLOCK
  2
*GRP_0042
 70
    65
 10
0.0
 20
0.0
  0
SPLINE
  5
1400002
100
AcDbEntity
  8
ガラス
100
AcDbSpline
  6
CONTINUOUS
 70
     0
 71
     3
 74
     3
 44
0.0
 11
-67.37201
 21
11.271118
 11
-66.425097
 21
12.825575
 11
-64.846453
 21
13.400427
  0
SPLINE
  5
1400003
100
AcDbEntity
  8
ガラス
100
AcDbSpline
  6
CONTINUOUS
 70
     0
 71
     3
 74
     3
 44
0.0
 11
-64.846453
 21
13.400427
 11
-65.297877
 21
12.161277
 11
-65.4755
 21
11.042195
  0
ARC
  8
ガラス
  6
CONTINUOUS
 10
-66.423753
 20
11.156654
 40
0.955135
 50
173.117443
 51
353.117443
  0
ENDBLK
  0
BLOCK
  2
*GRP_0043
 70
    65
 10
0.0
 20
0.0
  0
SPLINE
  5
1400004
100
AcDbEntity
  8
ガラス
100
AcDbSpline
  6
CONTINUOUS
 70
     0
 71
     3
 74
     3
 44
0.0
 11
-37.424143
 21
46.070487
 11
-36.47723
 21
47.624945
 11
-34.898592
 21
48.199805
  0
SPLINE
  5
1400005
100
AcDbEntity
  8
ガラス
100
AcDbSpline
  6
CONTINUOUS
 70
     0
 71
     3
 74
     3
 44
0.0
 11
-34.898592
 21
48.199805
 11
-35.35001
 21
46.960648
 11
-35.52764
 21
45.841573
  0
ARC
  8
ガラス
  6
CONTINUOUS
 10
-36.475888
 20
45.956022
 40
0.955135
 50
173.117443
 51
353.117443
  0
ENDBLK
  0
BLOCK
  2
*GRP_0044
 70
    65
 10
0.0
 20
0.0
  0
SPLINE
  5
1400006
100
AcDbEntity
  8
ガラス
100
AcDbSpline
  6
CONTINUOUS
 70
     0
 71
     3
 74
     3
 44
0.0
 11
-41.638828
 21
27.324193
 11
-39.82001
 21
27.254292
 11
-38.54906
 21
26.155535
  0
SPLINE
  5
1400007
100
AcDbEntity
  8
ガラス
100
AcDbSpline
  6
CONTINUOUS
 70
     0
 71
     3
 74
     3
 44
0.0
 11
-38.54906
 21
26.155535
 11
-39.851173
 21
25.946255
 11
-40.915055
 21
25.556337
  0
ARC
  8
ガラス
  6
CONTINUOUS
 10
-41.276937
 20
26.440259
 40
0.955135
 50
112.264588
 51
292.264588
  0
ENDBLK
  0
BLOCK
  2
*GRP_0045
 70
    65
 10
0.0
 20
0.0
  0
SPLINE
  5
1400008
100
AcDbEntity
  8
ガラス
100
AcDbSpline
  6
CONTINUOUS
 70
     0
 71
     3
 74
     3
 44
0.0
 11
-54.058828
 21
27.324193
 11
-52.24001
 21
27.254292
 11
-50.96906
 21
26.155535
  0
SPLINE
  5
1400009
100
AcDbEntity
  8
ガラス
100
AcDbSpline
  6
CONTINUOUS
 70
     0
 71
     3
 74
     3
 44
0.0
 11
-50.96906
 21
26.155535
 11
-52.271173
 21
25.946255
 11
-53.335055
 21
25.556337
  0
ARC
  8
ガラス
  6
CONTINUOUS
 10
-53.696937
 20
26.440259
 40
0.955135
 50
112.264588
 51
292.264588
  0
ENDBLK
  0
BLOCK
  2
*GRP_0046
 70
    65
 10
0.0
 20
0.0
  0
SPLINE
  5
1400010
100
AcDbEntity
  8
ガラス
100
AcDbSpline
  6
CONTINUOUS
 70
     0
 71
     3
 74
     3
 44
0.0
 11
-37.424143
 21
33.758488
 11
-36.47723
 21
35.312945
 11
-34.898592
 21
35.887805
  0
SPLINE
  5
1400011
100
AcDbEntity
  8
ガラス
100
AcDbSpline
  6
CONTINUOUS
 70
     0
 71
     3
 74
     3
 44
0.0
 11
-34.898592
 21
35.887805
 11
-35.35001
 21
34.648647
 11
-35.52764
 21
33.529572
  0
ARC
  8
ガラス
  6
CONTINUOUS
 10
-36.475888
 20
33.644022
 40
0.955135
 50
173.117443
 51
353.117443
  0
ENDBLK
  0
BLOCK
  2
*GRP_0047
 70
    65
 10
0.0
 20
0.0
  0
SPLINE
  5
1400012
100
AcDbEntity
  8
ガラス
100
AcDbSpline
  6
CONTINUOUS
 70
     0
 71
     3
 74
     3
 44
0.0
 11
-27.005142
 21
67.478487
 11
-26.05823
 21
69.032945
 11
-24.479593
 21
69.607805
  0
SPLINE
  5
1400013
100
AcDbEntity
  8
ガラス
100
AcDbSpline
  6
CONTINUOUS
 70
     0
 71
     3
 74
     3
 44
0.0
 11
-24.479593
 21
69.607805
 11
-24.93101
 21
68.368648
 11
-25.10864
 21
67.249573
  0
ARC
  8
ガラス
  6
CONTINUOUS
 10
-26.056888
 20
67.364022
 40
0.955135
 50
173.117443
 51
353.117443
  0
ENDBLK
  0
BLOCK
  2
*GRP_0048
 70
    65
 10
0.0
 20
0.0
  0
SPLINE
  5
1400014
100
AcDbEntity
  8
ガラス
100
AcDbSpline
  6
CONTINUOUS
 70
     0
 71
     3
 74
     3
 44
0.0
 11
-27.005142
 21
55.814487
 11
-26.05823
 21
57.368945
 11
-24.479593
 21
57.943805
  0
SPLINE
  5
1400015
100
AcDbEntity
  8
ガラス
100
AcDbSpline
  6
CONTINUOUS
 70
     0
 71
     3
 74
     3
 44
0.0
 11
-24.479593
 21
57.943805
 11
-24.93101
 21
56.704647
 11
-25.10864
 21
55.585572
  0
ARC
  8
ガラス
  6
CONTINUOUS
 10
-26.056888
 20
55.700022
 40
0.955135
 50
173.117443
 51
353.117443
  0
ENDBLK
  0
BLOCK
  2
*GRP_0049
 70
    65
 10
0.0
 20
0.0
  0
SPLINE
  5
1400016
100
AcDbEntity
  8
ガラス
100
AcDbSpline
  6
CONTINUOUS
 70
     0
 71
     3
 74
     3
 44
0.0
 11
-30.987965
 21
49.384722
 11
-29.169147
 21
49.314823
 11
-27.898197
 21
48.216065
  0
SPLINE
  5
1400017
100
AcDbEntity
  8
ガラス
100
AcDbSpline
  6
CONTINUOUS
 70
     0
 71
     3
 74
     3
 44
0.0
 11
-27.898197
 21
48.216065
 11
-29.20031
 21
48.006785
 11
-30.264192
 21
47.616868
  0
ARC
  8
ガラス
  6
CONTINUOUS
 10
-30.626073
 20
48.500788
 40
0.955135
 50
112.264588
 51
292.264588
  0
ENDBLK
  0
BLOCK
  2
*GRP_0050
 70
    65
 10
0.0
 20
0.0
  0
SPLINE
  5
1400018
100
AcDbEntity
  8
ガラス
100
AcDbSpline
  6
CONTINUOUS
 70
     0
 71
     3
 74
     3
 44
0.0
 11
-27.005142
 21
74.444487
 11
-26.05823
 21
75.998945
 11
-24.479593
 21
76.573805
  0
SPLINE
  5
1400019
100
AcDbEntity
  8
ガラス
100
AcDbSpline
  6
CONTINUOUS
 70
     0
 71
     3
 74
     3
 44
0.0
 11
-24.479593
 21
76.573805
 11
-24.93101
 21
75.334648
 11
-25.10864
 21
74.215573
  0
ARC
  8
ガラス
  6
CONTINUOUS
 10
-26.056888
 20
74.330022
 40
0.955135
 50
173.117443
 51
353.117443
  0
ENDBLK
  0
BLOCK
  2
*GRP_0051
 70
    65
 10
0.0
 20
0.0
  0
SPLINE
  5
1400020
100
AcDbEntity
  8
ガラス
100
AcDbSpline
  6
CONTINUOUS
 70
     0
 71
     3
 74
     3
 44
0.0
 11
-9.156927
 21
63.28064
 11
-8.210015
 21
64.835097
 11
-6.631377
 21
65.409958
  0
SPLINE
  5
1400021
100
AcDbEntity
  8
ガラス
100
AcDbSpline
  6
CONTINUOUS
 70
     0
 71
     3
 74
     3
 44
0.0
 11
-6.631377
 21
65.409958
 11
-7.082795
 21
64.1708
 11
-7.260425
 21
63.051725
  0
ARC
  8
ガラス
  6
CONTINUOUS
 10
-8.208675
 20
63.166182
 40
0.955135
 50
173.117443
 51
353.117443
  0
ENDBLK
  0
BLOCK
  2
*GRP_0052
 70
    65
 10
0.0
 20
0.0
  0
SPLINE
  5
1400022
100
AcDbEntity
  8
ガラス
100
AcDbSpline
  6
CONTINUOUS
 70
     0
 71
     3
 74
     3
 44
0.0
 11
-2.72075
 21
66.594875
 11
-0.901933
 21
66.524975
 11
0.369017
 21
65.426217
  0
SPLINE
  5
1400023
100
AcDbEntity
  8
ガラス
100
AcDbSpline
  6
CONTINUOUS
 70
     0
 71
     3
 74
     3
 44
0.0
 11
0.369017
 21
65.426217
 11
-0.933095
 21
65.216937
 11
-1.996977
 21
64.82702
  0
ARC
  8
ガラス
  6
CONTINUOUS
 10
-2.358859
 20
65.710948
 40
0.955135
 50
112.264588
 51
292.264588
  0
ENDBLK
  0
BLOCK
  2
*GRP_0053
 70
    65
 10
0.0
 20
0.0
  0
SPLINE
  5
1400024
100
AcDbEntity
  8
ガラス
100
AcDbSpline
  6
CONTINUOUS
 70
     0
 71
     3
 74
     3
 44
0.0
 11
-9.156927
 21
52.393078
 11
-8.210015
 21
53.947535
 11
-6.631377
 21
54.522395
  0
SPLINE
  5
1400025
100
AcDbEntity
  8
ガラス
100
AcDbSpline
  6
CONTINUOUS
 70
     0
 71
     3
 74
     3
 44
0.0
 11
-6.631377
 21
54.522395
 11
-7.082795
 21
53.283237
 11
-7.260425
 21
52.164163
  0
ARC
  8
ガラス
  6
CONTINUOUS
 10
-8.208675
 20
52.278619
 40
0.955135
 50
173.117443
 51
353.117443
  0
ENDBLK
  0
BLOCK
  2
*GRP_0054
 70
    65
 10
0.0
 20
0.0
  0
SPLINE
  5
1400026
100
AcDbEntity
  8
ガラス
100
AcDbSpline
  6
CONTINUOUS
 70
     0
 71
     3
 74
     3
 44
0.0
 11
-16.083965
 21
49.384722
 11
-14.265147
 21
49.314823
 11
-12.994197
 21
48.216065
  0
SPLINE
  5
1400027
100
AcDbEntity
  8
ガラス
100
AcDbSpline
  6
CONTINUOUS
 70
     0
 71
     3
 74
     3
 44
0.0
 11
-12.994197
 21
48.216065
 11
-14.29631
 21
48.006785
 11
-15.360192
 21
47.616868
  0
ARC
  8
ガラス
  6
CONTINUOUS
 10
-15.722073
 20
48.500788
 40
0.955135
 50
112.264588
 51
292.264588
  0
ENDBLK
  0
BLOCK
  2
*GRP_0055
 70
    65
 10
0.0
 20
0.0
  0
SPLINE
  5
1400028
100
AcDbEntity
  8
ガラス
100
AcDbSpline
  6
CONTINUOUS
 70
     0
 71
     3
 74
     3
 44
0.0
 11
-37.366497
 21
-112.985042
 11
-36.419585
 21
-111.430577
 11
-34.840932
 21
-110.855725
  0
SPLINE
  5
1400029
100
AcDbEntity
  8
ガラス
100
AcDbSpline
  6
CONTINUOUS
 70
     0
 71
     3
 74
     3
 44
0.0
 11
-34.840932
 21
-110.855725
 11
-35.292357
 21
-112.094883
 11
-35.469995
 21
-113.213958
  0
ARC
  8
ガラス
  6
CONTINUOUS
 10
-36.418245
 20
-113.099496
 40
0.955135
 50
173.117442
 51
353.117442
  0
ENDBLK
  0
BLOCK
  2
*GRP_0056
 70
    65
 10
0.0
 20
0.0
  0
SPLINE
  5
1400030
100
AcDbEntity
  8
ガラス
100
AcDbSpline
  6
CONTINUOUS
 70
     0
 71
     3
 74
     3
 44
0.0
 11
-24.435485
 21
-108.580293
 11
-22.616668
 21
-108.650192
 11
-21.345725
 21
-109.748957
  0
SPLINE
  5
1400031
100
AcDbEntity
  8
ガラス
100
AcDbSpline
  6
CONTINUOUS
 70
     0
 71
     3
 74
     3
 44
0.0
 11
-21.345725
 21
-109.748957
 11
-22.64783
 21
-109.958223
 11
-23.711712
 21
-110.34814
  0
ARC
  8
ガラス
  6
CONTINUOUS
 10
-24.0736
 20
-109.464216
 40
0.955135
 50
112.264587
 51
292.264587
  0
ENDBLK
  0
BLOCK
  2
*GRP_0057
 70
    65
 10
0.0
 20
0.0
  0
SPLINE
  5
1400032
100
AcDbEntity
  8
ガラス
100
AcDbSpline
  6
CONTINUOUS
 70
     0
 71
     3
 74
     3
 44
0.0
 11
-19.617515
 21
-100.043462
 11
-18.670595
 21
-98.489005
 11
-17.09195
 21
-97.914153
  0
SPLINE
  5
1400033
100
AcDbEntity
  8
ガラス
100
AcDbSpline
  6
CONTINUOUS
 70
     0
 71
     3
 74
     3
 44
0.0
 11
-17.09195
 21
-97.914153
 11
-17.543383
 21
-99.15331
 11
-17.721012
 21
-100.272378
  0
ARC
  8
ガラス
  6
CONTINUOUS
 10
-18.669262
 20
-100.157923
 40
0.955135
 50
173.117442
 51
353.117442
  0
ENDBLK
  0
BLOCK
  2
*GRP_0058
 70
    65
 10
0.0
 20
0.0
  0
SPLINE
  5
1400034
100
AcDbEntity
  8
ガラス
100
AcDbSpline
  6
CONTINUOUS
 70
     0
 71
     3
 74
     3
 44
0.0
 11
22.475147
 21
-80.423178
 11
24.293965
 21
-80.493085
 11
25.564907
 21
-81.591842
  0
SPLINE
  5
1400035
100
AcDbEntity
  8
ガラス
100
AcDbSpline
  6
CONTINUOUS
 70
     0
 71
     3
 74
     3
 44
0.0
 11
25.564907
 21
-81.591842
 11
24.26281
 21
-81.801115
 11
23.19892
 21
-82.191032
  0
ARC
  8
ガラス
  6
CONTINUOUS
 10
22.837035
 20
-81.307104
 40
0.955135
 50
112.264587
 51
292.264587
  0
ENDBLK
  0
BLOCK
  2
*GRP_0059
 70
    65
 10
0.0
 20
0.0
  0
SPLINE
  5
1400036
100
AcDbEntity
  8
ガラス
100
AcDbSpline
  6
CONTINUOUS
 70
     0
 71
     3
 74
     3
 44
0.0
 11
7.633878
 21
-80.423185
 11
9.452695
 21
-80.493077
 11
10.723645
 21
-81.591842
  0
SPLINE
  5
1400037
100
AcDbEntity
  8
ガラス
100
AcDbSpline
  6
CONTINUOUS
 70
     0
 71
     3
 74
     3
 44
0.0
 11
10.723645
 21
-81.591842
 11
9.421532
 21
-81.801115
 11
8.35765
 21
-82.19104
  0
ARC
  8
ガラス
  6
CONTINUOUS
 10
7.995766
 20
-81.307104
 40
0.955135
 50
112.264587
 51
292.264587
  0
ENDBLK
  0
BLOCK
  2
*GRP_0060
 70
    65
 10
0.0
 20
0.0
  0
SPLINE
  5
1400038
100
AcDbEntity
  8
ガラス
100
AcDbSpline
  6
CONTINUOUS
 70
     0
 71
     3
 74
     3
 44
0.0
 11
-5.752362
 21
-80.423185
 11
-3.933545
 21
-80.493085
 11
-2.662602
 21
-81.591842
  0
SPLINE
  5
1400039
100
AcDbEntity
  8
ガラス
100
AcDbSpline
  6
CONTINUOUS
 70
     0
 71
     3
 74
     3
 44
0.0
 11
-2.662602
 21
-81.591842
 11
-3.964707
 21
-81.801115
 11
-5.028597
 21
-82.191032
  0
ARC
  8
ガラス
  6
CONTINUOUS
 10
-5.390478
 20
-81.307104
 40
0.955135
 50
112.264587
 51
292.264587
  0
ENDBLK
  0
BLOCK
  2
*GRP_0061
 70
    65
 10
0.0
 20
0.0
  0
SPLINE
  5
1400040
100
AcDbEntity
  8
ガラス
100
AcDbSpline
  6
CONTINUOUS
 70
     0
 71
     3
 74
     3
 44
0.0
 11
-15.669538
 21
-84.539433
 11
-14.722625
 21
-82.984968
 11
-13.14398
 21
-82.410115
  0
SPLINE
  5
1400041
100
AcDbEntity
  8
ガラス
100
AcDbSpline
  6
CONTINUOUS
 70
     0
 71
     3
 74
     3
 44
0.0
 11
-13.14398
 21
-82.410115
 11
-13.595398
 21
-83.649265
 11
-13.773027
 21
-84.768347
  0
ARC
  8
ガラス
  6
CONTINUOUS
 10
-14.721281
 20
-84.653888
 40
0.955135
 50
173.117442
 51
353.117442
  0
ENDBLK
  0
BLOCK
  2
*GRP_0062
 70
    65
 10
0.0
 20
0.0
  0
SPLINE
  5
1400042
100
AcDbEntity
  8
ガラス
100
AcDbSpline
  6
CONTINUOUS
 70
     0
 71
     3
 74
     3
 44
0.0
 11
58.892432
 21
-80.590833
 11
60.71125
 21
-80.66074
 11
61.982193
 21
-81.759497
  0
SPLINE
  5
1400043
100
AcDbEntity
  8
ガラス
100
AcDbSpline
  6
CONTINUOUS
 70
     0
 71
     3
 74
     3
 44
0.0
 11
61.982193
 21
-81.759497
 11
60.68008
 21
-81.96877
 11
59.61619
 21
-82.358688
  0
ARC
  8
ガラス
  6
CONTINUOUS
 10
59.254311
 20
-81.47476
 40
0.955135
 50
112.264587
 51
292.264587
  0
ENDBLK
  0
BLOCK
  2
*GRP_0063
 70
    65
 10
0.0
 20
0.0
  0
SPLINE
  5
1400044
100
AcDbEntity
  8
ガラス
100
AcDbSpline
  6
CONTINUOUS
 70
     0
 71
     3
 74
     3
 44
0.0
 11
38.172842
 21
-80.59084
 11
39.991668
 21
-80.66074
 11
41.262617
 21
-81.759497
  0
SPLINE
  5
1400045
100
AcDbEntity
  8
ガラス
100
AcDbSpline
  6
CONTINUOUS
 70
     0
 71
     3
 74
     3
 44
0.0
 11
41.262617
 21
-81.759497
 11
39.960498
 21
-81.96877
 11
38.896615
 21
-82.358688
  0
ARC
  8
ガラス
  6
CONTINUOUS
 10
38.534734
 20
-81.47476
 40
0.955135
 50
112.264587
 51
292.264587
  0
ENDBLK
  0
BLOCK
  2
*GRP_0064
 70
    65
 10
0.0
 20
0.0
  0
LINE
  8
ゴム等
  6
DOT
 10
-18.90797
 20
-3.374515
 11
-16.407972
 21
-3.874518
  0
LINE
  8
ゴム等
  6
DOT
 10
-16.407972
 20
1.925488
 11
-18.90797
 21
1.425485
  0
LINE
  8
ゴム等
  6
DOT
 10
-11.40797
 20
4.025488
 11
-16.407972
 21
4.025488
  0
LINE
  8
ゴム等
  6
DOT
 10
-11.40797
 20
-5.974518
 11
-16.407972
 21
-5.974518
  0
LINE
  8
ゴム等
  6
DOT
 10
-18.90797
 20
-3.374515
 11
-18.90797
 21
1.425485
  0
LINE
  8
ゴム等
  6
DOT
 10
-16.407972
 20
4.025488
 11
-16.407972
 21
1.925488
  0
LINE
  8
ゴム等
  6
DOT
 10
-16.407972
 20
-3.874518
 11
-16.407972
 21
-5.974518
  0
LINE
  8
ゴム等
  6
DOT
 10
-11.907972
 20
-0.974515
 11
-11.40797
 21
-0.474513
  0
LINE
  8
ゴム等
  6
DOT
 10
-11.907972
 20
-0.974515
 11
-11.40797
 21
-1.474518
  0
LINE
  8
ゴム等
  6
DOT
 10
-11.40797
 20
-5.974518
 11
-11.40797
 21
-1.474518
  0
LINE
  8
ゴム等
  6
DOT
 10
-11.40797
 20
-0.474513
 11
-11.40797
 21
4.025488
  0
INSERT
  2
*HAT_0001
  8
ゴム等
 10
0.0
 20
0.0
  0
ENDBLK
  0
BLOCK
  2
*GRP_0065
 70
    65
 10
0.0
 20
0.0
  0
LINE
  8
ゴム等
  6
DOT
 10
1.291975
 20
-98.476015
 11
0.79198
 21
-95.976018
  0
LINE
  8
ゴム等
  6
DOT
 10
6.591978
 20
-95.976018
 11
6.091975
 21
-98.476015
  0
LINE
  8
ゴム等
  6
DOT
 10
8.691978
 20
-90.976015
 11
8.691978
 21
-95.976018
  0
LINE
  8
ゴム等
  6
DOT
 10
-1.30802
 20
-90.976015
 11
-1.30802
 21
-95.976018
  0
LINE
  8
ゴム等
  6
DOT
 10
1.291975
 20
-98.476015
 11
6.091975
 21
-98.476015
  0
LINE
  8
ゴム等
  6
DOT
 10
8.691978
 20
-95.976018
 11
6.591978
 21
-95.976018
  0
LINE
  8
ゴム等
  6
DOT
 10
0.79198
 20
-95.976018
 11
-1.30802
 21
-95.976018
  0
LINE
  8
ゴム等
  6
DOT
 10
3.691975
 20
-91.476018
 11
4.191978
 21
-90.976015
  0
LINE
  8
ゴム等
  6
DOT
 10
3.691975
 20
-91.476018
 11
3.19198
 21
-90.976015
  0
LINE
  8
ゴム等
  6
DOT
 10
-1.30802
 20
-90.976015
 11
3.19198
 21
-90.976015
  0
LINE
  8
ゴム等
  6
DOT
 10
4.191978
 20
-90.976015
 11
8.691978
 21
-90.976015
  0
INSERT
  2
*HAT_0002
  8
ゴム等
 10
0.0
 20
0.0
  0
ENDBLK
  0
BLOCK
  2
*GRP_0066
 70
    65
 10
0.0
 20
0.0
  0
LINE
  8
ゴム等
  6
CONTINUOUS
 10
-0.40796
 20
13.025518
 11
3.592037
 21
13.025518
  0
LINE
  8
ゴム等
  6
CONTINUOUS
 10
-0.40796
 20
7.025518
 11
-8.407963
 21
7.025518
  0
LINE
  8
ゴム等
  6
CONTINUOUS
 10
-8.407963
 20
13.025518
 11
-8.407963
 21
10.825512
  0
LINE
  8
ゴム等
  6
CONTINUOUS
 10
-0.40796
 20
13.025518
 11
-0.40796
 21
10.825512
  0
LINE
  8
ゴム等
  6
CONTINUOUS
 10
-8.407963
 20
13.025518
 11
-10.407965
 21
13.025518
  0
ARC
  8
ゴム等
  6
CONTINUOUS
 10
-3.907947
 20
12.02551
 40
1.0
 50
0.0
 51
90.0
  0
LINE
  8
ゴム等
  6
CONTINUOUS
 10
-2.907965
 20
9.525515
 11
-2.907965
 21
12.025512
  0
ARC
  8
ゴム等
  6
CONTINUOUS
 10
-3.907947
 20
9.52551
 40
1.0
 50
-90.0
 51
0.0
  0
LINE
  8
ゴム等
  6
CONTINUOUS
 10
-3.907963
 20
8.525518
 11
-4.90796
 21
8.525518
  0
ARC
  8
ゴム等
  6
CONTINUOUS
 10
-4.907947
 20
9.52551
 40
1.0
 50
180.0
 51
270.0
  0
LINE
  8
ゴム等
  6
CONTINUOUS
 10
-5.907965
 20
9.525515
 11
-5.907965
 21
12.025512
  0
LINE
  8
ゴム等
  6
CONTINUOUS
 10
-3.907963
 20
13.025518
 11
-4.90796
 21
13.025518
  0
ARC
  8
ゴム等
  6
CONTINUOUS
 10
-4.907947
 20
12.02551
 40
1.0
 50
90.0
 51
180.0
  0
LINE
  8
ゴム等
  6
CONTINUOUS
 10
3.592037
 20
15.225515
 11
3.592037
 21
13.025518
  0
ARC
  8
ゴム等
  6
CONTINUOUS
 10
1.592053
 20
15.22551
 40
2.0
 50
0.0
 51
90.0
  0
LINE
  8
ゴム等
  6
CONTINUOUS
 10
1.592035
 20
17.225518
 11
-11.907965
 21
17.225518
  0
ARC
  8
ゴム等
  6
CONTINUOUS
 10
-11.907947
 20
16.22551
 40
1.0
 50
90.0
 51
180.0
  0
LINE
  8
ゴム等
  6
CONTINUOUS
 10
-0.40796
 20
7.025518
 11
0.332972
 21
10.230725
  0
ARC
  8
ゴム等
  6
CONTINUOUS
 10
-0.157947
 20
10.32551
 40
0.5
 50
349.071863
 51
450.0
  0
LINE
  8
ゴム等
  6
CONTINUOUS
 10
-0.40796
 20
10.825512
 11
-0.157963
 21
10.825512
  0
LINE
  8
ゴム等
  6
CONTINUOUS
 10
-8.407963
 20
7.025518
 11
-9.148895
 21
10.230725
  0
ARC
  8
ゴム等
  6
CONTINUOUS
 10
-8.657947
 20
10.32551
 40
0.5
 50
90.0
 51
190.928137
  0
LINE
  8
ゴム等
  6
CONTINUOUS
 10
-8.407963
 20
10.825512
 11
-8.65796
 21
10.825512
  0
LINE
  8
ゴム等
  6
CONTINUOUS
 10
-12.907963
 20
16.225512
 11
-12.907963
 21
15.525515
  0
LINE
  8
ゴム等
  6
CONTINUOUS
 10
-12.907963
 20
15.525515
 11
-10.407965
 21
15.825515
  0
LINE
  8
ゴム等
  6
CONTINUOUS
 10
-10.407965
 20
13.025518
 11
-10.407965
 21
15.825515
  0
INSERT
  2
*HAT_0003
  8
ゴム等
 10
0.0
 20
0.0
  0
ENDBLK
  0
BLOCK
  2
*GRP_0067
 70
    65
 10
0.0
 20
0.0
  0
LINE
  8
ゴム等
  6
CONTINUOUS
 10
-23.76284
 20
6.724033
 11
-18.762838
 21
6.724033
  0
LINE
  8
ゴム等
  6
CONTINUOUS
 10
-18.762838
 20
8.724035
 11
-18.762838
 21
10.224035
  0
LINE
  8
ゴム等
  6
CONTINUOUS
 10
-23.76284
 20
8.724035
 11
-23.76284
 21
10.224035
  0
LINE
  8
ゴム等
  6
CONTINUOUS
 10
-27.762838
 20
10.224035
 11
-23.76284
 21
10.224035
  0
LINE
  8
ゴム等
  6
CONTINUOUS
 10
-18.762838
 20
10.224035
 11
-12.762838
 21
10.224035
  0
LINE
  8
ゴム等
  6
CONTINUOUS
 10
-12.762838
 20
10.224035
 11
-12.762838
 21
13.224035
  0
LINE
  8
ゴム等
  6
CONTINUOUS
 10
-10.762835
 20
13.224035
 11
-12.762838
 21
13.224035
  0
LINE
  8
ゴム等
  6
CONTINUOUS
 10
-10.762835
 20
13.224035
 11
-10.762835
 21
15.724033
  0
ARC
  8
ゴム等
  6
CONTINUOUS
 10
-21.762822
 20
4.47403
 40
12.75
 50
61.927513
 51
118.072487
  0
LINE
  8
ゴム等
  6
CONTINUOUS
 10
-10.762835
 20
15.724033
 11
-15.762838
 21
15.724033
  0
LINE
  8
ゴム等
  6
CONTINUOUS
 10
-27.762838
 20
10.224035
 11
-27.762838
 21
15.724033
  0
LINE
  8
ゴム等
  6
CONTINUOUS
 10
-18.762838
 20
6.724033
 11
-17.86277
 21
7.920327
  0
ARC
  8
ゴム等
  6
CONTINUOUS
 10
-18.262822
 20
8.22403
 40
0.5
 50
322.618449
 51
450.0
  0
LINE
  8
ゴム等
  6
CONTINUOUS
 10
-18.762838
 20
8.724035
 11
-18.262835
 21
8.724035
  0
LINE
  8
ゴム等
  6
CONTINUOUS
 10
-23.76284
 20
6.724033
 11
-24.6629
 21
7.920327
  0
ARC
  8
ゴム等
  6
CONTINUOUS
 10
-24.262822
 20
8.22403
 40
0.5
 50
90.0
 51
217.381551
  0
LINE
  8
ゴム等
  6
CONTINUOUS
 10
-23.76284
 20
8.724035
 11
-24.262835
 21
8.724035
  0
INSERT
  2
*HAT_0004
  8
ゴム等
 10
0.0
 20
0.0
  0
ENDBLK
  0
BLOCK
  2
*GRP_0068
 70
    65
 10
0.0
 20
0.0
  0
LINE
  8
01
  6
CONTINUOUS
 62
    63
 10
-20.098333
 20
45.38096
 11
-21.512547
 21
43.966745
  0
LINE
  8
01
  6
CONTINUOUS
 62
    63
 10
-20.012547
 20
44.05253
 11
-21.512547
 21
42.55253
  0
LINE
  8
01
  6
CONTINUOUS
 62
    63
 10
-15.012545
 20
43.395687
 11
-21.512547
 21
36.895685
  0
LINE
  8
01
  6
CONTINUOUS
 62
    63
 10
-15.012545
 20
41.981473
 11
-21.512547
 21
35.48147
  0
LINE
  8
01
  6
CONTINUOUS
 62
    63
 10
-14.873255
 20
40.706547
 11
-21.06305
 21
34.516753
  0
LINE
  8
01
  6
CONTINUOUS
 62
    63
 10
-14.331635
 20
39.833952
 11
-19.673098
 21
34.49249
  0
LINE
  8
01
  6
CONTINUOUS
 62
    63
 10
-13.270407
 20
39.480965
 11
-17.770407
 21
34.980965
  0
LINE
  8
01
  6
CONTINUOUS
 62
    63
 10
-13.012543
 20
38.324615
 11
-16.356192
 21
34.980965
  0
LINE
  8
01
  6
CONTINUOUS
 62
    63
 10
-13.012543
 20
36.9104
 11
-14.941978
 21
34.980965
  0
LINE
  8
01
  6
CONTINUOUS
 62
    63
 10
-13.012543
 20
35.496185
 11
-14.017617
 21
34.49111
  0
LINE
  8
01
  6
CONTINUOUS
 62
    63
 10
-15.855688
 20
45.38096
 11
-18.012545
 21
43.224102
  0
LINE
  8
01
  6
CONTINUOUS
 62
    63
 10
-20.012547
 20
41.2241
 11
-21.512547
 21
39.7241
  0
LINE
  8
01
  6
CONTINUOUS
 62
    63
 10
-15.012545
 20
44.809887
 11
-18.012545
 21
41.809887
  0
LINE
  8
01
  6
CONTINUOUS
 62
    63
 10
-20.012547
 20
39.809885
 11
-21.512547
 21
38.309885
  0
LINE
  8
01
  6
CONTINUOUS
 62
    63
 10
-17.269902
 20
45.38096
 11
-18.012545
 21
44.638318
  0
LINE
  8
01
  6
CONTINUOUS
 62
    63
 10
-20.012547
 20
42.638315
 11
-21.512547
 21
41.138315
  0
LINE
  8
ゴム等
  6
CONTINUOUS
 62
    63
 10
-18.012545
 20
40.930962
 11
-18.912545
 21
39.480965
  0
LINE
  8
ゴム等
  6
CONTINUOUS
 62
    63
 10
-14.112545
 20
39.480965
 11
-15.012545
 21
40.930962
  0
LINE
  8
ゴム等
  6
CONTINUOUS
 62
    63
 10
-18.012545
 20
40.930962
 11
-18.012545
 21
45.38096
  0
LINE
  8
ゴム等
  6
CONTINUOUS
 62
    63
 10
-18.012545
 20
45.38096
 11
-15.012545
 21
45.38096
  0
LINE
  8
ゴム等
  6
CONTINUOUS
 62
    63
 10
-15.012545
 20
40.930962
 11
-15.012545
 21
45.38096
  0
LINE
  8
ゴム等
  6
CONTINUOUS
 62
    63
 10
-20.012547
 20
45.38096
 11
-21.512547
 21
45.38096
  0
LINE
  8
ゴム等
  6
CONTINUOUS
 62
    63
 10
-20.012547
 20
45.38096
 11
-20.012547
 21
39.480965
  0
LINE
  8
ゴム等
  6
CONTINUOUS
 62
    63
 10
-20.012547
 20
39.480965
 11
-18.912545
 21
39.480965
  0
LINE
  8
ゴム等
  6
CONTINUOUS
 62
    63
 10
-14.112545
 20
39.480965
 11
-13.012543
 21
39.480965
  0
LINE
  8
ゴム等
  6
CONTINUOUS
 62
    63
 10
-13.012543
 20
39.480965
 11
-13.012543
 21
34.480962
  0
LINE
  8
ゴム等
  6
CONTINUOUS
 62
    63
 10
-14.012547
 20
34.480962
 11
-14.262545
 21
34.980965
  0
LINE
  8
ゴム等
  6
CONTINUOUS
 62
    63
 10
-18.762545
 20
34.980965
 11
-19.012543
 21
34.480962
  0
LINE
  8
ゴム等
  6
CONTINUOUS
 62
    63
 10
-18.762545
 20
34.980965
 11
-14.262545
 21
34.980965
  0
LINE
  8
ゴム等
  6
CONTINUOUS
 62
    63
 10
-13.012543
 20
34.480962
 11
-14.012547
 21
34.480962
  0
LINE
  8
ゴム等
  6
CONTINUOUS
 62
    63
 10
-19.012543
 20
34.480962
 11
-21.512547
 21
34.524597
  0
LINE
  8
ゴム等
  6
CONTINUOUS
 62
    63
 10
-21.512547
 20
45.38096
 11
-21.512547
 21
34.524597
  0
ENDBLK
  0
BLOCK
  2
*GRP_0069
 70
    65
 10
0.0
 20
0.0
  0
LINE
  8
01
  6
CONTINUOUS
 62
    63
 10
-45.220633
 20
64.12388
 11
-43.099317
 21
65.538095
  0
LINE
  8
01
  6
CONTINUOUS
 62
    63
 10
-47.200535
 20
69.639313
 11
-48.61475
 21
67.51799
  0
LINE
  8
01
  6
CONTINUOUS
 62
    63
 10
-45.149922
 20
74.659775
 11
-48.68546
 21
71.124237
  0
LINE
  8
01
  6
CONTINUOUS
 62
    63
 10
-38.078863
 20
67.588708
 11
-41.614393
 21
64.05317
  0
LINE
  8
01
  6
CONTINUOUS
 62
    63
 10
-45.220633
 20
64.12388
 11
-48.61475
 21
67.51799
  0
LINE
  8
01
  6
CONTINUOUS
 62
    63
 10
-48.68546
 20
71.124237
 11
-47.200535
 21
69.639313
  0
LINE
  8
01
  6
CONTINUOUS
 62
    63
 10
-43.099317
 20
65.538095
 11
-41.614393
 21
64.05317
  0
LINE
  8
01
  6
CONTINUOUS
 62
    63
 10
-41.967943
 20
70.77068
 11
-41.967943
 21
71.477795
  0
LINE
  8
01
  6
CONTINUOUS
 62
    63
 10
-41.967943
 20
70.77068
 11
-41.260843
 21
70.770687
  0
LINE
  8
01
  6
CONTINUOUS
 62
    63
 10
-38.078863
 20
67.588708
 11
-41.260843
 21
70.770687
  0
LINE
  8
01
  6
CONTINUOUS
 62
    63
 10
-41.967943
 20
71.477795
 11
-45.149922
 21
74.659775
  0
LINE
  8
01
  6
CONTINUOUS
 62
    63
 10
-46.756527
 20
65.659775
 11
-40.007795
 21
65.659775
  0
LINE
  8
01
  6
CONTINUOUS
 62
    63
 10
-48.256527
 20
67.159768
 11
-38.507795
 21
67.159768
  0
LINE
  8
01
  6
CONTINUOUS
 62
    63
 10
-47.85356
 20
68.659775
 11
-39.14993
 21
68.659775
  0
LINE
  8
01
  6
CONTINUOUS
 62
    63
 10
-47.720997
 20
70.159775
 11
-40.649922
 21
70.159775
  0
LINE
  8
01
  6
CONTINUOUS
 62
    63
 10
-46.649922
 20
73.159775
 11
-43.64993
 21
73.159775
  0
LINE
  8
01
  6
CONTINUOUS
 62
    63
 10
-48.14993
 20
71.659768
 11
-42.149922
 21
71.659768
  0
ENDBLK
  0
BLOCK
  2
*GRP_0070
 70
    65
 10
0.0
 20
0.0
  0
LINE
  8
01
  6
DOT
 62
    63
 10
-45.856925
 20
88.094758
 11
-49.392455
 21
91.630287
  0
LINE
  8
01
  6
DOT
 62
    63
 10
-43.735603
 20
97.28714
 11
-26.057938
 21
79.609468
  0
LINE
  8
01
  6
DOT
 62
    63
 10
-45.856925
 20
88.094758
 11
-50.806678
 21
83.145012
  0
LINE
  8
01
  6
DOT
 62
    63
 10
-40.90718
 20
73.245515
 11
-32.421897
 21
73.245515
  0
LINE
  8
01
  6
DOT
 62
    63
 10
-26.057938
 20
79.609468
 11
-32.421897
 21
73.245515
  0
LINE
  8
01
  6
DOT
 62
    63
 10
-43.735603
 20
97.28714
 11
-37.7252
 21
73.245515
  0
LINE
  8
01
  6
DOT
 62
    63
 10
-43.735603
 20
97.28714
 11
-49.392455
 21
91.630287
  0
LINE
  8
01
  6
DOT
 62
    63
 10
-40.90718
 20
73.245522
 11
-50.806678
 21
83.145012
  0
ENDBLK
  0
BLOCK
  2
*GRP_0071
 70
    65
 10
0.0
 20
0.0
  0
LINE
  8
ボルト／ビス
  6
CONTINUOUS
 10
-9.407967
 20
2.52548
 11
-8.359805
 21
2.433777
  0
ARC
  8
ボルト／ビス
  6
CONTINUOUS
 10
-8.507964
 20
0.74024
 40
1.7
 50
0.0
 51
85.000011
  0
LINE
  8
ボルト／ビス
  6
CONTINUOUS
 10
-6.807965
 20
0.740248
 11
-6.807965
 21
-0.974515
  0
LINE
  8
ボルト／ビス
  6
CONTINUOUS
 10
-9.407967
 20
-4.474518
 11
-8.359805
 21
-4.382815
  0
ARC
  8
ボルト／ビス
  6
CONTINUOUS
 10
-8.507964
 20
-2.689294
 40
1.7
 50
274.999989
 51
360.0
  0
LINE
  8
ボルト／ビス
  6
CONTINUOUS
 10
-6.807965
 20
-2.689285
 11
-6.807965
 21
-0.974515
  0
LINE
  8
ボルト／ビス
  6
CONTINUOUS
 10
-7.192872
 20
1.422125
 11
-6.950713
 21
1.422125
  0
LINE
  8
ボルト／ビス
  6
CONTINUOUS
 10
-7.842958
 20
-0.274518
 11
-7.842958
 21
-0.974515
  0
LINE
  8
ボルト／ビス
  6
CONTINUOUS
 10
-7.192872
 20
0.12548
 11
-7.192872
 21
1.422125
  0
LINE
  8
ボルト／ビス
  6
CONTINUOUS
 10
-7.842958
 20
-0.274518
 11
-7.59287
 21
-0.274518
  0
ARC
  8
ボルト／ビス
  6
CONTINUOUS
 10
-7.592869
 20
0.125473
 40
0.4
 50
270.0
 51
360.0
  0
LINE
  8
ボルト／ビス
  6
CONTINUOUS
 10
-7.192872
 20
-3.371155
 11
-6.950713
 21
-3.371155
  0
LINE
  8
ボルト／ビス
  6
CONTINUOUS
 10
-7.842958
 20
-1.67452
 11
-7.842958
 21
-0.974515
  0
LINE
  8
ボルト／ビス
  6
CONTINUOUS
 10
-7.192872
 20
-2.074518
 11
-7.192872
 21
-3.371155
  0
LINE
  8
ボルト／ビス
  6
CONTINUOUS
 10
-7.842958
 20
-1.67452
 11
-7.59287
 21
-1.67452
  0
ARC
  8
ボルト／ビス
  6
CONTINUOUS
 10
-7.592869
 20
-2.074527
 40
0.4
 50
0.0
 51
90.0
  0
LINE
  8
ボルト／ビス
  6
CONTINUOUS
 10
-9.407967
 20
2.52548
 11
-9.407967
 21
-4.474518
  0
LINE
  8
ボルト／ビス
  6
CONTINUOUS
 10
-4.836582
 20
-0.974515
 11
-25.051242
 21
-0.974515
  0
LINE
  8
ボルト／ビス
  6
CONTINUOUS
 10
-22.907967
 20
1.02548
 11
-23.40797
 21
0.525485
  0
LINE
  8
ボルト／ビス
  6
CONTINUOUS
 10
-22.907967
 20
-2.974518
 11
-23.40797
 21
-2.474515
  0
LINE
  8
ボルト／ビス
  6
CONTINUOUS
 10
-22.907967
 20
1.02548
 11
-22.907967
 21
-2.974518
  0
LINE
  8
ボルト／ビス
  6
CONTINUOUS
 10
-23.40797
 20
0.525485
 11
-23.40797
 21
-2.474515
  0
LINE
  8
ボルト／ビス
  6
CONTINUOUS
 10
-9.407967
 20
-2.974518
 11
-22.907967
 21
-2.974518
  0
LINE
  8
ボルト／ビス
  6
CONTINUOUS
 10
-9.407967
 20
1.02548
 11
-22.907967
 21
1.02548
  0
LINE
  8
ボルト／ビス
  6
CONTINUOUS
 10
-9.407967
 20
0.525485
 11
-23.40797
 21
0.525485
  0
LINE
  8
ボルト／ビス
  6
CONTINUOUS
 10
-9.407967
 20
-2.474515
 11
-23.40797
 21
-2.474515
  0
ENDBLK
  0
BLOCK
  2
*GRP_0072
 70
    65
 10
0.0
 20
0.0
  0
LINE
  8
ボルト／ビス
  6
CONTINUOUS
 10
0.19198
 20
-100.27456
 11
0.283683
 21
-101.322722
  0
ARC
  8
ボルト／ビス
  6
CONTINUOUS
 10
1.977207
 20
-101.174566
 40
1.7
 50
184.999989
 51
270.0
  0
LINE
  8
ボルト／ビス
  6
CONTINUOUS
 10
1.977212
 20
-102.874562
 11
3.691975
 21
-102.874562
  0
LINE
  8
ボルト／ビス
  6
CONTINUOUS
 10
7.191978
 20
-100.27456
 11
7.100275
 21
-101.322722
  0
ARC
  8
ボルト／ビス
  6
CONTINUOUS
 10
5.40674
 20
-101.174566
 40
1.7
 50
270.0
 51
355.000011
  0
LINE
  8
ボルト／ビス
  6
CONTINUOUS
 10
5.406745
 20
-102.874562
 11
3.691975
 21
-102.874562
  0
LINE
  8
ボルト／ビス
  6
CONTINUOUS
 10
1.295335
 20
-102.489655
 11
1.295335
 21
-102.731815
  0
LINE
  8
ボルト／ビス
  6
CONTINUOUS
 10
2.991978
 20
-101.83957
 11
3.691975
 21
-101.83957
  0
LINE
  8
ボルト／ビス
  6
CONTINUOUS
 10
2.59198
 20
-102.489655
 11
1.295335
 21
-102.489655
  0
LINE
  8
ボルト／ビス
  6
CONTINUOUS
 10
2.991978
 20
-101.83957
 11
2.991978
 21
-102.089657
  0
ARC
  8
ボルト／ビス
  6
CONTINUOUS
 10
2.591974
 20
-102.089661
 40
0.4
 50
270.0
 51
360.0
  0
LINE
  8
ボルト／ビス
  6
CONTINUOUS
 10
6.088615
 20
-102.489655
 11
6.088615
 21
-102.731815
  0
LINE
  8
ボルト／ビス
  6
CONTINUOUS
 10
4.39198
 20
-101.83957
 11
3.691975
 21
-101.83957
  0
LINE
  8
ボルト／ビス
  6
CONTINUOUS
 10
4.791978
 20
-102.489655
 11
6.088615
 21
-102.489655
  0
LINE
  8
ボルト／ビス
  6
CONTINUOUS
 10
4.39198
 20
-101.83957
 11
4.39198
 21
-102.089657
  0
ARC
  8
ボルト／ビス
  6
CONTINUOUS
 10
4.791974
 20
-102.089661
 40
0.4
 50
180.0
 51
270.0
  0
LINE
  8
ボルト／ビス
  6
CONTINUOUS
 10
0.19198
 20
-100.27456
 11
7.191978
 21
-100.27456
  0
LINE
  8
ボルト／ビス
  6
CONTINUOUS
 10
3.691975
 20
-104.845945
 11
3.691975
 21
-84.631285
  0
LINE
  8
ボルト／ビス
  6
CONTINUOUS
 10
1.69198
 20
-86.77456
 11
2.191975
 21
-86.274557
  0
LINE
  8
ボルト／ビス
  6
CONTINUOUS
 10
5.691978
 20
-86.77456
 11
5.191975
 21
-86.274557
  0
LINE
  8
ボルト／ビス
  6
CONTINUOUS
 10
1.69198
 20
-86.77456
 11
5.691978
 21
-86.77456
  0
LINE
  8
ボルト／ビス
  6
CONTINUOUS
 10
2.191975
 20
-86.274557
 11
5.191975
 21
-86.274557
  0
LINE
  8
ボルト／ビス
  6
CONTINUOUS
 10
5.691978
 20
-100.27456
 11
5.691978
 21
-86.77456
  0
LINE
  8
ボルト／ビス
  6
CONTINUOUS
 10
1.69198
 20
-100.27456
 11
1.69198
 21
-86.77456
  0
LINE
  8
ボルト／ビス
  6
CONTINUOUS
 10
2.191975
 20
-100.27456
 11
2.191975
 21
-86.274557
  0
LINE
  8
ボルト／ビス
  6
CONTINUOUS
 10
5.191975
 20
-100.27456
 11
5.191975
 21
-86.274557
  0
ENDBLK
  0
BLOCK
  2
*GRP_0073
 70
    65
 10
0.0
 20
0.0
  0
INSERT
  2
*GRP_0079
  8
文字
  6
DOT
 10
0.0
 20
0.0
  0
INSERT
  2
*GRP_0080
  8
文字
  6
DOT
 10
0.0
 20
0.0
  0
INSERT
  2
*GRP_0081
  8
その他部品等
  6
CONTINUOUS
 10
0.0
 20
0.0
  0
INSERT
  2
*GRP_0082
  8
その他部品等
  6
CONTINUOUS
 10
0.0
 20
0.0
  0
INSERT
  2
*GRP_0083
  8
その他部品等
  6
CONTINUOUS
 10
0.0
 20
0.0
  0
ENDBLK
  0
BLOCK
  2
*GRP_0074
 70
    65
 10
0.0
 20
0.0
  0
LINE
  8
別途部材
  6
DOT
 10
-22.80803
 20
-101.276012
 11
-32.808028
 21
-101.276012
  0
LINE
  8
別途部材
  6
DOT
 10
-32.808028
 20
-111.27601
 11
-32.808028
 21
-101.276012
  0
INSERT
  2
*HAT_0005
  8
別途部材
 10
0.0
 20
0.0
  0
LINE
  8
別途部材
  6
DOT
 10
-22.80803
 20
-111.27601
 11
-22.80803
 21
-101.276012
  0
LINE
  8
別途部材
  6
DOT
 10
-22.80803
 20
-111.27601
 11
-32.808028
 21
-111.27601
  0
ENDBLK
  0
BLOCK
  2
*GRP_0075
 70
    65
 10
0.0
 20
0.0
  0
LINE
  8
別途部材
  6
DOT
 10
-49.91243
 20
35.080962
 11
-59.912428
 21
35.080962
  0
LINE
  8
別途部材
  6
DOT
 10
-59.912428
 20
25.080965
 11
-59.912428
 21
35.080962
  0
INSERT
  2
*HAT_0006
  8
別途部材
 10
0.0
 20
0.0
  0
LINE
  8
別途部材
  6
DOT
 10
-49.91243
 20
25.080965
 11
-49.91243
 21
35.080962
  0
LINE
  8
別途部材
  6
DOT
 10
-49.91243
 20
25.080965
 11
-59.912428
 21
25.080965
  0
ENDBLK
  0
BLOCK
  2
*GRP_0076
 70
    65
 10
0.0
 20
0.0
  0
LINE
  8
St
  6
CONTINUOUS
 10
23.892048
 20
22.025217
 11
23.892048
 21
62.525217
  0
LINE
  8
St
  6
CONTINUOUS
 10
27.09205
 20
62.525217
 11
23.892048
 21
62.525217
  0
LINE
  8
St
  6
CONTINUOUS
 10
23.892048
 20
22.025217
 11
27.09205
 21
22.025217
  0
LINE
  8
St
  6
CONTINUOUS
 10
27.09205
 20
62.525217
 11
27.09205
 21
22.025217
  0
LINE
  8
St
  6
CONTINUOUS
 10
27.09205
 20
58.457098
 11
23.892048
 21
55.257102
  0
LINE
  8
St
  6
CONTINUOUS
 10
27.09205
 20
57.749998
 11
23.892048
 21
54.550002
  0
LINE
  8
St
  6
CONTINUOUS
 10
27.09205
 20
30.2873
 11
23.892048
 21
27.087305
  0
LINE
  8
St
  6
CONTINUOUS
 10
27.09205
 20
29.5802
 11
23.892048
 21
26.380205
  0
ENDBLK
  0
BLOCK
  2
*GRP_0077
 70
    65
 10
0.0
 20
0.0
  0
LINE
  8
St
  6
CONTINUOUS
 62
   127
 10
23.8921
 20
-65.975972
 11
27.092095
 21
-65.975965
  0
LINE
  8
St
  6
CONTINUOUS
 62
   127
 10
23.8921
 20
-24.975888
 11
27.092095
 21
-24.975895
  0
LINE
  8
St
  6
CONTINUOUS
 62
   127
 10
23.8921
 20
-65.975972
 11
23.8921
 21
-24.975888
  0
LINE
  8
St
  6
CONTINUOUS
 62
   127
 10
27.092095
 20
-52.74724
 11
23.8921
 21
-55.947235
  0
LINE
  8
St
  6
CONTINUOUS
 62
   127
 10
27.092095
 20
-52.04014
 11
23.8921
 21
-55.240135
  0
LINE
  8
St
  6
CONTINUOUS
 62
   127
 10
27.092095
 20
-26.264455
 11
23.8921
 21
-29.46445
  0
LINE
  8
St
  6
CONTINUOUS
 62
   127
 10
27.092095
 20
-25.557355
 11
23.8921
 21
-28.75735
  0
ENDBLK
  0
BLOCK
  2
*GRP_0078
 70
    65
 10
0.0
 20
0.0
  0
INSERT
  2
*GRP_0084
  8
別途部材
  6
CONTINUOUS
 10
0.0
 20
0.0
  0
INSERT
  2
*GRP_0085
  8
別途部材
  6
CONTINUOUS
 10
0.0
 20
0.0
  0
INSERT
  2
*GRP_0086
  8
その他部品等
  6
CONTINUOUS
 10
0.0
 20
0.0
  0
INSERT
  2
*GRP_0087
  8
その他部品等
  6
CONTINUOUS
 10
0.0
 20
0.0
  0
ENDBLK
  0
BLOCK
  2
*GRP_0079
 70
    65
 10
0.0
 20
0.0
  0
INSERT
  2
*GRP_0088
  8
別途部材
  6
CONTINUOUS
 10
0.0
 20
0.0
  0
INSERT
  2
*GRP_0089
  8
別途部材
  6
CONTINUOUS
 10
0.0
 20
0.0
  0
ENDBLK
  0
BLOCK
  2
*GRP_0080
 70
    65
 10
0.0
 20
0.0
  0
INSERT
  2
*GRP_0090
  8
別途部材
  6
CONTINUOUS
 10
0.0
 20
0.0
  0
INSERT
  2
*GRP_0091
  8
別途部材
  6
CONTINUOUS
 10
0.0
 20
0.0
  0
ENDBLK
  0
BLOCK
  2
*GRP_0081
 70
    65
 10
0.0
 20
0.0
  0
LINE
  8
ボルト／ビス
  6
CONTINUOUS
 10
36.587665
 20
-34.67596
 11
34.287663
 21
-36.17596
  0
LINE
  8
ボルト／ビス
  6
CONTINUOUS
 10
36.587665
 20
-42.675962
 11
34.287663
 21
-41.175962
  0
LINE
  8
ボルト／ビス
  6
CONTINUOUS
 10
36.587665
 20
-34.67596
 11
36.587665
 21
-42.675962
  0
LINE
  8
ボルト／ビス
  6
CONTINUOUS
 10
34.287663
 20
-36.17596
 11
34.287663
 21
-41.175962
  0
LINE
  8
ボルト／ビス
  6
CONTINUOUS
 10
17.087665
 20
-36.17596
 11
16.587663
 21
-36.675962
  0
LINE
  8
ボルト／ビス
  6
CONTINUOUS
 10
17.087665
 20
-41.175962
 11
16.587663
 21
-40.67596
  0
LINE
  8
ボルト／ビス
  6
CONTINUOUS
 10
16.587663
 20
-40.67596
 11
16.587663
 21
-36.675962
  0
LINE
  8
ボルト／ビス
  6
CONTINUOUS
 10
17.087665
 20
-41.175962
 11
17.087665
 21
-36.17596
  0
LINE
  8
ボルト／ビス
  6
CONTINUOUS
 10
34.287663
 20
-36.675962
 11
16.587663
 21
-36.675962
  0
LINE
  8
ボルト／ビス
  6
CONTINUOUS
 10
34.287663
 20
-36.17596
 11
17.087665
 21
-36.17596
  0
LINE
  8
ボルト／ビス
  6
CONTINUOUS
 10
34.287663
 20
-40.67596
 11
16.587663
 21
-40.67596
  0
LINE
  8
ボルト／ビス
  6
CONTINUOUS
 10
34.287663
 20
-41.175962
 11
17.087665
 21
-41.175962
  0
LINE
  8
ボルト／ビス
  6
CONTINUOUS
 10
38.972868
 20
-38.675965
 11
16.587663
 21
-38.675965
  0
ENDBLK
  0
BLOCK
  2
*GRP_0082
 70
    65
 10
0.0
 20
0.0
  0
LINE
  8
ボルト／ビス
  6
CONTINUOUS
 10
36.587665
 20
-44.175962
 11
34.287663
 21
-45.675962
  0
LINE
  8
ボルト／ビス
  6
CONTINUOUS
 10
36.587665
 20
-52.175965
 11
34.287663
 21
-50.675965
  0
LINE
  8
ボルト／ビス
  6
CONTINUOUS
 10
36.587665
 20
-44.175962
 11
36.587665
 21
-52.175965
  0
LINE
  8
ボルト／ビス
  6
CONTINUOUS
 10
34.287663
 20
-45.675962
 11
34.287663
 21
-50.675965
  0
LINE
  8
ボルト／ビス
  6
CONTINUOUS
 10
17.087665
 20
-45.675962
 11
16.587663
 21
-46.175965
  0
LINE
  8
ボルト／ビス
  6
CONTINUOUS
 10
17.087665
 20
-50.675965
 11
16.587663
 21
-50.175962
  0
LINE
  8
ボルト／ビス
  6
CONTINUOUS
 10
16.587663
 20
-50.175962
 11
16.587663
 21
-46.175965
  0
LINE
  8
ボルト／ビス
  6
CONTINUOUS
 10
17.087665
 20
-50.675965
 11
17.087665
 21
-45.675962
  0
LINE
  8
ボルト／ビス
  6
CONTINUOUS
 10
34.287663
 20
-46.175965
 11
16.587663
 21
-46.175965
  0
LINE
  8
ボルト／ビス
  6
CONTINUOUS
 10
34.287663
 20
-45.675962
 11
17.087665
 21
-45.675962
  0
LINE
  8
ボルト／ビス
  6
CONTINUOUS
 10
34.287663
 20
-50.175962
 11
16.587663
 21
-50.175962
  0
LINE
  8
ボルト／ビス
  6
CONTINUOUS
 10
34.287663
 20
-50.675965
 11
17.087665
 21
-50.675965
  0
LINE
  8
ボルト／ビス
  6
CONTINUOUS
 10
38.972868
 20
-48.175968
 11
16.587663
 21
-48.175968
  0
ENDBLK
  0
BLOCK
  2
*GRP_0083
 70
    65
 10
0.0
 20
0.0
  0
LINE
  8
ボルト／ビス
  6
CONTINUOUS
 10
36.587665
 20
-54.675955
 11
34.287663
 21
-56.175955
  0
LINE
  8
ボルト／ビス
  6
CONTINUOUS
 10
36.587665
 20
-62.675958
 11
34.287663
 21
-61.175958
  0
LINE
  8
ボルト／ビス
  6
CONTINUOUS
 10
36.587665
 20
-54.675955
 11
36.587665
 21
-62.675958
  0
LINE
  8
ボルト／ビス
  6
CONTINUOUS
 10
34.287663
 20
-56.175955
 11
34.287663
 21
-61.175958
  0
LINE
  8
ボルト／ビス
  6
CONTINUOUS
 10
17.087665
 20
-56.175955
 11
16.587663
 21
-56.675958
  0
LINE
  8
ボルト／ビス
  6
CONTINUOUS
 10
17.087665
 20
-61.175958
 11
16.587663
 21
-60.675955
  0
LINE
  8
ボルト／ビス
  6
CONTINUOUS
 10
16.587663
 20
-60.675955
 11
16.587663
 21
-56.675958
  0
LINE
  8
ボルト／ビス
  6
CONTINUOUS
 10
17.087665
 20
-61.175958
 11
17.087665
 21
-56.175955
  0
LINE
  8
ボルト／ビス
  6
CONTINUOUS
 10
34.287663
 20
-56.675958
 11
16.587663
 21
-56.675958
  0
LINE
  8
ボルト／ビス
  6
CONTINUOUS
 10
34.287663
 20
-56.175955
 11
17.087665
 21
-56.175955
  0
LINE
  8
ボルト／ビス
  6
CONTINUOUS
 10
34.287663
 20
-60.675955
 11
16.587663
 21
-60.675955
  0
LINE
  8
ボルト／ビス
  6
CONTINUOUS
 10
34.287663
 20
-61.175958
 11
17.087665
 21
-61.175958
  0
LINE
  8
ボルト／ビス
  6
CONTINUOUS
 10
38.972868
 20
-58.67596
 11
16.587663
 21
-58.67596
  0
ENDBLK
  0
BLOCK
  2
*GRP_0084
 70
    65
 10
0.0
 20
0.0
  0
LINE
  8
別途部材
  6
CONTINUOUS
 10
39.092035
 20
64.525213
 11
39.092035
 21
20.52521
  0
ARC
  8
別途部材
  6
CONTINUOUS
 10
45.092047
 20
64.525197
 40
6.0
 50
90.0
 51
180.0
  0
LINE
  8
別途部材
  6
CONTINUOUS
 10
51.092035
 20
64.525213
 11
51.092035
 21
20.52521
  0
ARC
  8
別途部材
  6
CONTINUOUS
 10
45.092047
 20
64.525197
 40
6.0
 50
0.0
 51
90.0
  0
CIRCLE
  8
別途部材
  6
CONTINUOUS
 10
45.092035
 20
64.525213
 40
3.0
  0
LINE
  8
別途部材
  6
CONTINUOUS
 10
42.092035
 20
64.525213
 11
48.092035
 21
64.525213
  0
LINE
  8
別途部材
  6
CONTINUOUS
 10
45.092035
 20
67.525213
 11
45.092035
 21
61.525213
  0
LINE
  8
別途部材
  6
CONTINUOUS
 10
39.092035
 20
20.52521
 11
41.092045
 21
20.52521
  0
LINE
  8
別途部材
  6
CONTINUOUS
 10
49.09204
 20
20.52521
 11
51.092035
 21
20.52521
  0
LINE
  8
別途部材
  6
CONTINUOUS
 10
41.092045
 20
20.52521
 11
41.092045
 21
58.525213
  0
LINE
  8
別途部材
  6
CONTINUOUS
 10
41.092045
 20
58.525213
 11
49.09204
 21
58.525213
  0
LINE
  8
別途部材
  6
CONTINUOUS
 10
49.09204
 20
20.52521
 11
49.09204
 21
58.525213
  0
ARC
  8
別途部材
  6
CONTINUOUS
 10
45.092047
 20
20.983529
 40
2.541667
 50
10.38896
 51
169.61104
  0
LINE
  8
別途部材
  6
CONTINUOUS
 10
48.592045
 20
20.52521
 11
47.59204
 21
20.52521
  0
LINE
  8
別途部材
  6
CONTINUOUS
 10
41.59204
 20
20.52521
 11
42.592045
 21
20.52521
  0
CIRCLE
  8
別途部材
  6
CONTINUOUS
 10
45.092035
 20
54.525215
 40
0.999997
  0
LINE
  8
別途部材
  6
CONTINUOUS
 10
46.09204
 20
54.525215
 11
44.092045
 21
54.525215
  0
LINE
  8
別途部材
  6
CONTINUOUS
 10
45.092035
 20
55.525213
 11
45.092035
 21
53.52521
  0
ARC
  8
別途部材
  6
CONTINUOUS
 10
45.092047
 20
56.066869
 40
2.541667
 50
190.38896
 51
349.61104
  0
LINE
  8
別途部材
  6
CONTINUOUS
 10
48.592045
 20
56.52521
 11
47.59204
 21
56.52521
  0
LINE
  8
別途部材
  6
CONTINUOUS
 10
42.592045
 20
56.52521
 11
41.59204
 21
56.52521
  0
LINE
  8
別途部材
  6
CONTINUOUS
 10
47.59204
 20
20.52521
 11
47.59204
 21
56.52521
  0
LINE
  8
別途部材
  6
CONTINUOUS
 10
48.592045
 20
20.52521
 11
48.592045
 21
56.52521
  0
LINE
  8
別途部材
  6
CONTINUOUS
 10
42.592045
 20
20.52521
 11
42.592045
 21
56.52521
  0
LINE
  8
別途部材
  6
CONTINUOUS
 10
41.59204
 20
20.52521
 11
41.59204
 21
56.52521
  0
ENDBLK
  0
BLOCK
  2
*GRP_0085
 70
    65
 10
0.0
 20
0.0
  0
LINE
  8
別途部材
  6
CONTINUOUS
 10
45.092035
 20
70.525213
 11
45.092035
 21
70.525213
  0
LINE
  8
別途部材
  6
CONTINUOUS
 10
39.092035
 20
57.525208
 11
36.592037
 21
57.525208
  0
LINE
  8
別途部材
  6
CONTINUOUS
 10
45.092035
 20
71.025208
 11
45.092043
 21
70.525205
  0
LINE
  8
別途部材
  6
CONTINUOUS
 10
28.592035
 20
58.525213
 11
36.592037
 21
58.525213
  0
ARC
  8
別途部材
  6
CONTINUOUS
 10
29.592041
 20
21.525198
 40
1.0
 50
180.0
 51
270.0
  0
LINE
  8
別途部材
  6
CONTINUOUS
 10
35.59204
 20
20.52521
 11
29.59204
 21
20.52521
  0
ARC
  8
別途部材
  6
CONTINUOUS
 10
35.592041
 20
21.525198
 40
1.0
 50
270.0
 51
360.0
  0
LINE
  8
別途部材
  6
CONTINUOUS
 10
28.592035
 20
21.525208
 11
28.592035
 21
70.02521
  0
ARC
  8
別途部材
  6
CONTINUOUS
 10
29.592041
 20
70.025198
 40
1.0
 50
90.0
 51
180.0
  0
LINE
  8
別途部材
  6
CONTINUOUS
 10
36.592037
 20
21.525208
 11
36.592037
 21
70.02521
  0
ARC
  8
別途部材
  6
CONTINUOUS
 10
35.592041
 20
70.025198
 40
1.0
 50
0.0
 51
90.0
  0
LINE
  8
別途部材
  6
CONTINUOUS
 10
29.59204
 20
71.025208
 11
45.092035
 21
71.025208
  0
LINE
  8
別途部材
  6
CONTINUOUS
 10
34.292035
 20
51.525208
 11
34.292035
 21
46.525213
  0
LINE
  8
別途部材
  6
CONTINUOUS
 10
34.292035
 20
31.525213
 11
34.292035
 21
26.525202
  0
POLYLINE
  8
別途部材
  6
CONTINUOUS
 66
     1
  0
VERTEX
  8
別途部材
 10
36.592037
 20
53.025208
  0
VERTEX
  8
別途部材
 10
34.292035
 20
51.525208
  0
VERTEX
  8
別途部材
 10
28.592035
 20
51.525208
  0
SEQEND
  0
LINE
  8
別途部材
  6
CONTINUOUS
 10
36.592037
 20
49.025202
 11
28.592035
 21
49.025202
  0
POLYLINE
  8
別途部材
  6
CONTINUOUS
 66
     1
  0
VERTEX
  8
別途部材
 10
36.592037
 20
45.025213
  0
VERTEX
  8
別途部材
 10
34.292035
 20
46.525213
  0
VERTEX
  8
別途部材
 10
28.592035
 20
46.525213
  0
SEQEND
  0
POLYLINE
  8
別途部材
  6
CONTINUOUS
 66
     1
  0
VERTEX
  8
別途部材
 10
36.592037
 20
33.025213
  0
VERTEX
  8
別途部材
 10
34.292035
 20
31.525213
  0
VERTEX
  8
別途部材
 10
28.592035
 20
31.525213
  0
SEQEND
  0
LINE
  8
別途部材
  6
CONTINUOUS
 10
36.592037
 20
29.025208
 11
28.592035
 21
29.025208
  0
POLYLINE
  8
別途部材
  6
CONTINUOUS
 66
     1
  0
VERTEX
  8
別途部材
 10
36.592037
 20
25.025202
  0
VERTEX
  8
別途部材
 10
34.292035
 20
26.525202
  0
VERTEX
  8
別途部材
 10
28.592035
 20
26.525202
  0
SEQEND
  0
ENDBLK
  0
BLOCK
  2
*GRP_0086
 70
    65
 10
0.0
 20
0.0
  0
LINE
  8
ボルト／ビス
  6
CONTINUOUS
 10
36.592037
 20
33.025213
 11
34.292035
 21
31.525213
  0
LINE
  8
ボルト／ビス
  6
CONTINUOUS
 10
36.592037
 20
25.02521
 11
34.292035
 21
26.52521
  0
LINE
  8
ボルト／ビス
  6
CONTINUOUS
 10
36.592037
 20
33.025213
 11
36.592037
 21
25.02521
  0
LINE
  8
ボルト／ビス
  6
CONTINUOUS
 10
34.292035
 20
31.525213
 11
34.292035
 21
26.52521
  0
LINE
  8
ボルト／ビス
  6
CONTINUOUS
 10
17.092037
 20
31.525213
 11
16.592035
 21
31.02521
  0
LINE
  8
ボルト／ビス
  6
CONTINUOUS
 10
17.092037
 20
26.52521
 11
16.592035
 21
27.025213
  0
LINE
  8
ボルト／ビス
  6
CONTINUOUS
 10
16.592035
 20
27.025213
 11
16.592035
 21
31.02521
  0
LINE
  8
ボルト／ビス
  6
CONTINUOUS
 10
17.092037
 20
26.52521
 11
17.092037
 21
31.525213
  0
LINE
  8
ボルト／ビス
  6
CONTINUOUS
 10
34.292035
 20
31.02521
 11
16.592035
 21
31.02521
  0
LINE
  8
ボルト／ビス
  6
CONTINUOUS
 10
34.292035
 20
31.525213
 11
17.092037
 21
31.525213
  0
LINE
  8
ボルト／ビス
  6
CONTINUOUS
 10
34.292035
 20
27.025213
 11
16.592035
 21
27.025213
  0
LINE
  8
ボルト／ビス
  6
CONTINUOUS
 10
34.292035
 20
26.52521
 11
17.092037
 21
26.52521
  0
LINE
  8
ボルト／ビス
  6
CONTINUOUS
 10
38.97724
 20
29.025208
 11
16.592035
 21
29.025208
  0
ENDBLK
  0
BLOCK
  2
*GRP_0087
 70
    65
 10
0.0
 20
0.0
  0
LINE
  8
ボルト／ビス
  6
CONTINUOUS
 10
36.592037
 20
53.025208
 11
34.292035
 21
51.525208
  0
LINE
  8
ボルト／ビス
  6
CONTINUOUS
 10
36.592037
 20
45.025205
 11
34.292035
 21
46.525205
  0
LINE
  8
ボルト／ビス
  6
CONTINUOUS
 10
36.592037
 20
53.025208
 11
36.592037
 21
45.025205
  0
LINE
  8
ボルト／ビス
  6
CONTINUOUS
 10
34.292035
 20
51.525208
 11
34.292035
 21
46.525205
  0
LINE
  8
ボルト／ビス
  6
CONTINUOUS
 10
17.092037
 20
51.525208
 11
16.592035
 21
51.025205
  0
LINE
  8
ボルト／ビス
  6
CONTINUOUS
 10
17.092037
 20
46.525205
 11
16.592035
 21
47.025208
  0
LINE
  8
ボルト／ビス
  6
CONTINUOUS
 10
16.592035
 20
47.025208
 11
16.592035
 21
51.025205
  0
LINE
  8
ボルト／ビス
  6
CONTINUOUS
 10
17.092037
 20
46.525205
 11
17.092037
 21
51.525208
  0
LINE
  8
ボルト／ビス
  6
CONTINUOUS
 10
34.292035
 20
51.025205
 11
16.592035
 21
51.025205
  0
LINE
  8
ボルト／ビス
  6
CONTINUOUS
 10
34.292035
 20
51.525208
 11
17.092037
 21
51.525208
  0
LINE
  8
ボルト／ビス
  6
CONTINUOUS
 10
34.292035
 20
47.025208
 11
16.592035
 21
47.025208
  0
LINE
  8
ボルト／ビス
  6
CONTINUOUS
 10
34.292035
 20
46.525205
 11
17.092037
 21
46.525205
  0
LINE
  8
ボルト／ビス
  6
CONTINUOUS
 10
38.97724
 20
49.025202
 11
16.592035
 21
49.025202
  0
ENDBLK
  0
BLOCK
  2
*GRP_0088
 70
    65
 10
0.0
 20
0.0
  0
LINE
  8
別途部材
  6
CONTINUOUS
 10
35.092082
 20
-58.175972
 11
79.092078
 21
-58.175972
  0
ARC
  8
別途部材
  6
CONTINUOUS
 10
35.092074
 20
-64.175966
 40
6.0
 50
89.999999
 51
179.999999
  0
LINE
  8
別途部材
  6
CONTINUOUS
 10
35.092082
 20
-70.175972
 11
79.092078
 21
-70.175972
  0
ARC
  8
別途部材
  6
CONTINUOUS
 10
35.092074
 20
-64.175966
 40
6.0
 50
179.999999
 51
269.999999
  0
CIRCLE
  8
別途部材
  6
CONTINUOUS
 10
35.092082
 20
-64.175972
 40
3.0
  0
LINE
  8
別途部材
  6
CONTINUOUS
 10
35.092082
 20
-61.175972
 11
35.09209
 21
-67.175972
  0
LINE
  8
別途部材
  6
CONTINUOUS
 10
32.092082
 20
-64.17598
 11
38.092082
 21
-64.175972
  0
LINE
  8
別途部材
  6
CONTINUOUS
 10
79.092078
 20
-58.175972
 11
79.092078
 21
-60.175983
  0
LINE
  8
別途部材
  6
CONTINUOUS
 10
79.092085
 20
-68.175978
 11
79.092078
 21
-70.175972
  0
LINE
  8
別途部材
  6
CONTINUOUS
 10
79.092078
 20
-60.175983
 11
41.092082
 21
-60.175975
  0
LINE
  8
別途部材
  6
CONTINUOUS
 10
41.092082
 20
-60.175975
 11
41.092082
 21
-68.175978
  0
LINE
  8
別途部材
  6
CONTINUOUS
 10
79.092085
 20
-68.175978
 11
41.092082
 21
-68.175978
  0
ARC
  8
別途部材
  6
CONTINUOUS
 10
42.550406
 20
-64.175966
 40
2.541667
 50
179.999999
 51
179.999999
  0
ARC
  8
別途部材
  6
CONTINUOUS
 10
78.633741
 20
-64.175966
 40
2.541667
 50
100.388959
 51
259.611039
  0
LINE
  8
別途部材
  6
CONTINUOUS
 10
79.092078
 20
-67.675983
 11
79.092078
 21
-66.675978
  0
LINE
  8
別途部材
  6
CONTINUOUS
 10
79.092078
 20
-60.675978
 11
79.092078
 21
-61.675983
  0
CIRCLE
  8
別途部材
  6
CONTINUOUS
 10
45.092072
 20
-64.175972
 40
0.999997
  0
LINE
  8
別途部材
  6
CONTINUOUS
 10
45.092072
 20
-65.175985
 11
45.092072
 21
-63.175975
  0
LINE
  8
別途部材
  6
CONTINUOUS
 10
44.092067
 20
-64.17598
 11
46.092078
 21
-64.175972
  0
ARC
  8
別途部材
  6
CONTINUOUS
 10
43.550401
 20
-64.175966
 40
2.541667
 50
280.388959
 51
439.611039
  0
LINE
  8
別途部材
  6
CONTINUOUS
 10
43.092078
 20
-67.675975
 11
43.092085
 21
-66.675978
  0
LINE
  8
別途部材
  6
CONTINUOUS
 10
43.092078
 20
-61.675983
 11
43.092078
 21
-60.675978
  0
LINE
  8
別途部材
  6
CONTINUOUS
 10
79.092078
 20
-66.675978
 11
43.092085
 21
-66.675978
  0
LINE
  8
別途部材
  6
CONTINUOUS
 10
79.092078
 20
-67.675983
 11
43.092078
 21
-67.675975
  0
LINE
  8
別途部材
  6
CONTINUOUS
 10
79.092078
 20
-61.675983
 11
43.092078
 21
-61.675983
  0
LINE
  8
別途部材
  6
CONTINUOUS
 10
79.092078
 20
-60.675978
 11
43.092078
 21
-60.675978
  0
ENDBLK
  0
BLOCK
  2
*GRP_0089
 70
    65
 10
0.0
 20
0.0
  0
LINE
  8
別途部材
  6
CONTINUOUS
 10
29.092082
 20
-64.175972
 11
29.092082
 21
-64.175972
  0
LINE
  8
別途部材
  6
CONTINUOUS
 10
34.29208
 20
-45.675962
 11
34.29208
 21
-50.675965
  0
LINE
  8
別途部材
  6
CONTINUOUS
 10
36.59209
 20
-48.175975
 11
28.59208
 21
-48.175968
  0
POLYLINE
  8
別途部材
  6
CONTINUOUS
 66
     1
  0
VERTEX
  8
別途部材
 10
36.592082
 20
-52.175965
  0
VERTEX
  8
別途部材
 10
34.29208
 20
-50.675965
  0
VERTEX
  8
別途部材
 10
28.59208
 20
-50.675965
  0
SEQEND
  0
POLYLINE
  8
別途部材
  6
CONTINUOUS
 66
     1
  0
VERTEX
  8
別途部材
 10
36.592082
 20
-44.175962
  0
VERTEX
  8
別途部材
 10
34.29208
 20
-45.675962
  0
VERTEX
  8
別途部材
 10
28.59208
 20
-45.675962
  0
SEQEND
  0
LINE
  8
別途部材
  6
CONTINUOUS
 10
28.59208
 20
-64.175972
 11
29.092082
 21
-64.175972
  0
ARC
  8
別途部材
  6
CONTINUOUS
 10
35.592073
 20
-39.175957
 40
1.0
 50
-0.000001
 51
89.999999
  0
LINE
  8
別途部材
  6
CONTINUOUS
 10
35.592085
 20
-38.17597
 11
29.592085
 21
-38.17597
  0
ARC
  8
別途部材
  6
CONTINUOUS
 10
29.592073
 20
-39.175957
 40
1.0
 50
89.999999
 51
179.999999
  0
ARC
  8
別途部材
  6
CONTINUOUS
 10
35.592073
 20
-55.175957
 40
1.0
 50
269.999999
 51
359.999999
  0
LINE
  8
別途部材
  6
CONTINUOUS
 10
29.592078
 20
-56.17597
 11
35.592078
 21
-56.17597
  0
ARC
  8
別途部材
  6
CONTINUOUS
 10
29.592073
 20
-55.175957
 40
1.0
 50
179.999999
 51
269.999999
  0
LINE
  8
別途部材
  6
CONTINUOUS
 10
28.59208
 20
-39.175968
 11
28.59208
 21
-64.175972
  0
LINE
  8
別途部材
  6
CONTINUOUS
 10
36.592082
 20
-39.175975
 11
36.592082
 21
-58.175972
  0
ENDBLK
  0
BLOCK
  2
*GRP_0090
 70
    65
 10
0.0
 20
0.0
  0
LINE
  8
別途部材
  6
CONTINUOUS
 10
39.09208
 20
-74.17597
 11
39.09208
 21
-30.175968
  0
ARC
  8
別途部材
  6
CONTINUOUS
 10
45.092084
 20
-74.175959
 40
6.0
 50
179.999999
 51
269.999999
  0
LINE
  8
別途部材
  6
CONTINUOUS
 10
51.09208
 20
-74.17597
 11
51.09208
 21
-30.175968
  0
ARC
  8
別途部材
  6
CONTINUOUS
 10
45.092084
 20
-74.175959
 40
6.0
 50
269.999999
 51
359.999999
  0
CIRCLE
  8
別途部材
  6
CONTINUOUS
 10
45.09208
 20
-74.17597
 40
3.0
  0
LINE
  8
別途部材
  6
CONTINUOUS
 10
42.09208
 20
-74.17597
 11
48.09208
 21
-74.17597
  0
LINE
  8
別途部材
  6
CONTINUOUS
 10
45.09208
 20
-77.17597
 11
45.09208
 21
-71.17597
  0
LINE
  8
別途部材
  6
CONTINUOUS
 10
39.09208
 20
-30.175968
 11
41.092098
 21
-30.175968
  0
LINE
  8
別途部材
  6
CONTINUOUS
 10
49.092085
 20
-30.175968
 11
51.09208
 21
-30.175968
  0
LINE
  8
別途部材
  6
CONTINUOUS
 10
41.092098
 20
-30.175968
 11
41.09209
 21
-68.175978
  0
LINE
  8
別途部材
  6
CONTINUOUS
 10
41.09209
 20
-68.175978
 11
49.092085
 21
-68.175978
  0
LINE
  8
別途部材
  6
CONTINUOUS
 10
49.092085
 20
-30.175968
 11
49.092085
 21
-68.175978
  0
ARC
  8
別途部材
  6
CONTINUOUS
 10
45.092085
 20
-30.634291
 40
2.541667
 50
190.388959
 51
349.611039
  0
LINE
  8
別途部材
  6
CONTINUOUS
 10
48.592098
 20
-30.175968
 11
47.592085
 21
-30.175975
  0
LINE
  8
別途部材
  6
CONTINUOUS
 10
41.592085
 20
-30.175968
 11
42.592098
 21
-30.175968
  0
CIRCLE
  8
別途部材
  6
CONTINUOUS
 10
45.09208
 20
-64.175972
 40
0.999997
  0
LINE
  8
別途部材
  6
CONTINUOUS
 10
46.092085
 20
-64.175972
 11
44.092082
 21
-64.17598
  0
LINE
  8
別途部材
  6
CONTINUOUS
 10
45.09208
 20
-65.17597
 11
45.09208
 21
-63.175968
  0
ARC
  8
別途部材
  6
CONTINUOUS
 10
45.092084
 20
-65.717631
 40
2.541667
 50
10.388959
 51
169.611039
  0
LINE
  8
別途部材
  6
CONTINUOUS
 10
48.59209
 20
-66.175968
 11
47.592085
 21
-66.175975
  0
LINE
  8
別途部材
  6
CONTINUOUS
 10
42.59209
 20
-66.175968
 11
41.592085
 21
-66.175968
  0
LINE
  8
別途部材
  6
CONTINUOUS
 10
47.592085
 20
-30.175975
 11
47.592085
 21
-66.175975
  0
LINE
  8
別途部材
  6
CONTINUOUS
 10
48.592098
 20
-30.175968
 11
48.59209
 21
-66.175968
  0
LINE
  8
別途部材
  6
CONTINUOUS
 10
42.592098
 20
-30.175968
 11
42.59209
 21
-66.175968
  0
LINE
  8
別途部材
  6
CONTINUOUS
 10
41.592085
 20
-30.175968
 11
41.592085
 21
-66.175968
  0
ENDBLK
  0
BLOCK
  2
*GRP_0091
 70
    65
 10
0.0
 20
0.0
  0
LINE
  8
別途部材
  6
CONTINUOUS
 10
45.09208
 20
-80.17597
 11
45.09208
 21
-80.17597
  0
LINE
  8
別途部材
  6
CONTINUOUS
 10
39.09208
 20
-67.175965
 11
36.59209
 21
-67.175965
  0
LINE
  8
別途部材
  6
CONTINUOUS
 10
45.09208
 20
-80.675965
 11
45.092087
 21
-80.17597
  0
LINE
  8
別途部材
  6
CONTINUOUS
 10
28.59208
 20
-68.175978
 11
36.592082
 21
-68.17597
  0
ARC
  8
別途部材
  6
CONTINUOUS
 10
29.592078
 20
-31.17596
 40
1.0
 50
89.999999
 51
179.999999
  0
LINE
  8
別途部材
  6
CONTINUOUS
 10
35.592085
 20
-30.175968
 11
29.592085
 21
-30.175968
  0
ARC
  8
別途部材
  6
CONTINUOUS
 10
35.592078
 20
-31.17596
 40
1.0
 50
359.999999
 51
449.999999
  0
LINE
  8
別途部材
  6
CONTINUOUS
 10
28.59208
 20
-31.175965
 11
28.59208
 21
-79.675968
  0
ARC
  8
別途部材
  6
CONTINUOUS
 10
29.592077
 20
-79.67596
 40
1.0
 50
179.999999
 51
269.999999
  0
LINE
  8
別途部材
  6
CONTINUOUS
 10
36.592082
 20
-31.175965
 11
36.592082
 21
-79.675975
  0
ARC
  8
別途部材
  6
CONTINUOUS
 10
35.592077
 20
-79.67596
 40
1.0
 50
269.999999
 51
359.999999
  0
LINE
  8
別途部材
  6
CONTINUOUS
 10
29.592085
 20
-80.675965
 11
45.09208
 21
-80.675965
  0
LINE
  8
別途部材
  6
CONTINUOUS
 10
34.29208
 20
-61.175965
 11
34.29208
 21
-56.17597
  0
LINE
  8
別途部材
  6
CONTINUOUS
 10
34.29208
 20
-41.17597
 11
34.29208
 21
-36.17596
  0
POLYLINE
  8
別途部材
  6
CONTINUOUS
 66
     1
  0
VERTEX
  8
別途部材
 10
36.592082
 20
-62.675965
  0
VERTEX
  8
別途部材
 10
34.29208
 20
-61.175965
  0
VERTEX
  8
別途部材
 10
28.59208
 20
-61.175965
  0
SEQEND
  0
LINE
  8
別途部材
  6
CONTINUOUS
 10
36.592082
 20
-58.67596
 11
28.59208
 21
-58.67596
  0
POLYLINE
  8
別途部材
  6
CONTINUOUS
 66
     1
  0
VERTEX
  8
別途部材
 10
36.59209
 20
-54.67597
  0
VERTEX
  8
別途部材
 10
34.29208
 20
-56.17597
  0
VERTEX
  8
別途部材
 10
28.59208
 20
-56.175978
  0
SEQEND
  0
POLYLINE
  8
別途部材
  6
CONTINUOUS
 66
     1
  0
VERTEX
  8
別途部材
 10
36.592082
 20
-42.67597
  0
VERTEX
  8
別途部材
 10
34.29208
 20
-41.17597
  0
VERTEX
  8
別途部材
 10
28.59208
 20
-41.175978
  0
SEQEND
  0
LINE
  8
別途部材
  6
CONTINUOUS
 10
36.592082
 20
-38.675965
 11
28.592087
 21
-38.675965
  0
POLYLINE
  8
別途部材
  6
CONTINUOUS
 66
     1
  0
VERTEX
  8
別途部材
 10
36.592082
 20
-34.675968
  0
VERTEX
  8
別途部材
 10
34.29208
 20
-36.17596
  0
VERTEX
  8
別途部材
 10
28.59208
 20
-36.17596
  0
SEQEND
  0
ENDBLK
  0
BLOCK
  2
*GRP_0092
 70
    65
 10
0.0
 20
0.0
  0
LINE
  8
通り芯
  6
CONTINUOUS
 10
-32.80802
 20
3.023983
 11
-30.808018
 21
3.023983
  0
LINE
  8
通り芯
  6
CONTINUOUS
 10
-30.808018
 20
3.023983
 11
-30.808018
 21
-109.276008
  0
LINE
  8
通り芯
  6
CONTINUOUS
 10
-32.80802
 20
3.023983
 11
-32.80802
 21
-109.276008
  0
ARC
  8
通り芯
  6
CONTINUOUS
 10
-30.80802
 20
-109.276012
 40
2.0
 50
180.0
 51
270.0
  0
INSERT
  2
*GRP_0093
  8
通り芯
  6
DOT
 10
0.0
 20
0.0
  0
INSERT
  2
*GRP_0094
  8
通り芯
  6
DOT
 10
0.0
 20
0.0
  0
LINE
  8
通り芯
  6
CONTINUOUS
 10
-30.808018
 20
-111.27601
 11
-3.308028
 21
-111.27601
  0
LINE
  8
通り芯
  6
CONTINUOUS
 10
-30.808018
 20
-109.276008
 11
-3.308028
 21
-109.276008
  0
LINE
  8
通り芯
  6
CONTINUOUS
 10
-3.308028
 20
-111.27601
 11
-3.308028
 21
-109.276008
  0
ENDBLK
  0
BLOCK
  2
*GRP_0093
 70
    65
 10
0.0
 20
0.0
  0
LINE
  8
通り芯
  6
CONTINUOUS
 10
-28.99166
 20
-21.976022
 11
-33.616528
 21
-21.976022
  0
LINE
  8
通り芯
  6
CONTINUOUS
 10
-32.808028
 20
-20.326023
 11
-30.808025
 21
-20.326023
  0
LINE
  8
通り芯
  6
CONTINUOUS
 10
-32.808028
 20
-23.626022
 11
-30.808025
 21
-23.626022
  0
LINE
  8
通り芯
  6
CONTINUOUS
 10
-31.308028
 20
-20.326023
 11
-31.308028
 21
-23.626022
  0
LINE
  8
通り芯
  6
CONTINUOUS
 10
-31.80803
 20
-20.326023
 11
-31.80803
 21
-23.626022
  0
LINE
  8
通り芯
  6
CONTINUOUS
 10
-32.308025
 20
-20.326023
 11
-32.308025
 21
-23.626022
  0
LINE
  8
型材断面
  6
CONTINUOUS
 10
-31.308035
 20
-21.976022
 11
-36.184347
 21
-21.976022
  0
LINE
  8
型材断面
  6
CONTINUOUS
 10
-34.308028
 20
-23.626022
 11
-32.308032
 21
-23.626022
  0
LINE
  8
型材断面
  6
CONTINUOUS
 10
-34.308028
 20
-20.326023
 11
-32.308032
 21
-20.326023
  0
LINE
  8
型材断面
  6
CONTINUOUS
 10
-33.808025
 20
-20.326023
 11
-33.808025
 21
-23.626022
  0
LINE
  8
型材断面
  6
CONTINUOUS
 10
-33.30803
 20
-20.326023
 11
-33.30803
 21
-23.626022
  0
LINE
  8
型材断面
  6
CONTINUOUS
 10
-32.808028
 20
-20.326023
 11
-32.808028
 21
-23.626022
  0
LINE
  8
ボルト／ビス
  6
CONTINUOUS
 10
-34.308028
 20
-18.976022
 11
-34.308028
 21
-24.976022
  0
LINE
  8
ボルト／ビス
  6
CONTINUOUS
 10
-34.308028
 20
-18.976022
 11
-34.80803
 21
-19.476025
  0
LINE
  8
ボルト／ビス
  6
CONTINUOUS
 10
-34.308028
 20
-24.976022
 11
-34.808022
 21
-24.476027
  0
LINE
  8
ボルト／ビス
  6
CONTINUOUS
 10
-34.80803
 20
-19.476025
 11
-34.808022
 21
-24.476027
  0
LINE
  8
ボルト／ビス
  6
CONTINUOUS
 10
-29.80802
 20
-18.976022
 11
-29.80802
 21
-24.976022
  0
LINE
  8
ボルト／ビス
  6
CONTINUOUS
 10
-29.80802
 20
-18.976022
 11
-30.808025
 21
-18.976022
  0
LINE
  8
ボルト／ビス
  6
CONTINUOUS
 10
-29.80802
 20
-24.976022
 11
-30.808018
 21
-24.976022
  0
LINE
  8
ボルト／ビス
  6
CONTINUOUS
 10
-30.808025
 20
-18.976022
 11
-30.808018
 21
-24.976022
  0
LINE
  8
ボルト／ビス
  6
CONTINUOUS
 10
-29.80802
 20
-19.976027
 11
-29.80802
 21
-19.976027
  0
ARC
  8
ボルト／ビス
  6
CONTINUOUS
 10
-29.808025
 20
-20.476019
 40
0.5
 50
0.000036
 51
90.0
  0
LINE
  8
ボルト／ビス
  6
CONTINUOUS
 10
-29.308025
 20
-20.476022
 11
-29.308018
 21
-23.476022
  0
LINE
  8
ボルト／ビス
  6
CONTINUOUS
 10
-29.80802
 20
-23.976025
 11
-29.80802
 21
-23.976025
  0
ARC
  8
ボルト／ビス
  6
CONTINUOUS
 10
-29.808024
 20
-23.476019
 40
0.5
 50
-90.0
 51
0.000041
  0
LINE
  8
ボルト／ビス
  6
CONTINUOUS
 10
-34.308028
 20
-19.976027
 11
-30.808025
 21
-19.976027
  0
LINE
  8
ボルト／ビス
  6
CONTINUOUS
 10
-34.308028
 20
-23.976025
 11
-30.808025
 21
-23.976025
  0
ENDBLK
  0
BLOCK
  2
*GRP_0094
 70
    65
 10
0.0
 20
0.0
  0
LINE
  8
通り芯
  6
CONTINUOUS
 10
-28.99166
 20
-86.276005
 11
-33.616528
 21
-86.276005
  0
LINE
  8
通り芯
  6
CONTINUOUS
 10
-32.808028
 20
-84.626005
 11
-30.808025
 21
-84.626005
  0
LINE
  8
通り芯
  6
CONTINUOUS
 10
-32.808028
 20
-87.926005
 11
-30.808025
 21
-87.926005
  0
LINE
  8
通り芯
  6
CONTINUOUS
 10
-31.308028
 20
-84.626005
 11
-31.308028
 21
-87.926005
  0
LINE
  8
通り芯
  6
CONTINUOUS
 10
-31.80803
 20
-84.626005
 11
-31.80803
 21
-87.926005
  0
LINE
  8
通り芯
  6
CONTINUOUS
 10
-32.308025
 20
-84.626005
 11
-32.308025
 21
-87.926005
  0
LINE
  8
型材断面
  6
CONTINUOUS
 10
-31.308035
 20
-86.276005
 11
-36.184347
 21
-86.276005
  0
LINE
  8
型材断面
  6
CONTINUOUS
 10
-34.308028
 20
-87.926005
 11
-32.308032
 21
-87.926005
  0
LINE
  8
型材断面
  6
CONTINUOUS
 10
-34.308028
 20
-84.626005
 11
-32.308032
 21
-84.626005
  0
LINE
  8
型材断面
  6
CONTINUOUS
 10
-33.808025
 20
-84.626005
 11
-33.808025
 21
-87.926005
  0
LINE
  8
型材断面
  6
CONTINUOUS
 10
-33.30803
 20
-84.626005
 11
-33.30803
 21
-87.926005
  0
LINE
  8
型材断面
  6
CONTINUOUS
 10
-32.808028
 20
-84.626005
 11
-32.808028
 21
-87.926005
  0
LINE
  8
ボルト／ビス
  6
CONTINUOUS
 10
-34.308028
 20
-83.276005
 11
-34.308028
 21
-89.276005
  0
LINE
  8
ボルト／ビス
  6
CONTINUOUS
 10
-34.308028
 20
-83.276005
 11
-34.80803
 21
-83.776008
  0
LINE
  8
ボルト／ビス
  6
CONTINUOUS
 10
-34.308028
 20
-89.276005
 11
-34.808022
 21
-88.77601
  0
LINE
  8
ボルト／ビス
  6
CONTINUOUS
 10
-34.80803
 20
-83.776008
 11
-34.808022
 21
-88.77601
  0
LINE
  8
ボルト／ビス
  6
CONTINUOUS
 10
-29.80802
 20
-83.276005
 11
-29.80802
 21
-89.276005
  0
LINE
  8
ボルト／ビス
  6
CONTINUOUS
 10
-29.80802
 20
-83.276005
 11
-30.808025
 21
-83.276005
  0
LINE
  8
ボルト／ビス
  6
CONTINUOUS
 10
-29.80802
 20
-89.276005
 11
-30.808018
 21
-89.276005
  0
LINE
  8
ボルト／ビス
  6
CONTINUOUS
 10
-30.808025
 20
-83.276005
 11
-30.808018
 21
-89.276005
  0
LINE
  8
ボルト／ビス
  6
CONTINUOUS
 10
-29.80802
 20
-84.27601
 11
-29.80802
 21
-84.27601
  0
ARC
  8
ボルト／ビス
  6
CONTINUOUS
 10
-29.808025
 20
-84.776002
 40
0.5
 50
0.000036
 51
90.0
  0
LINE
  8
ボルト／ビス
  6
CONTINUOUS
 10
-29.308025
 20
-84.776005
 11
-29.308018
 21
-87.776005
  0
LINE
  8
ボルト／ビス
  6
CONTINUOUS
 10
-29.80802
 20
-88.276008
 11
-29.80802
 21
-88.276008
  0
ARC
  8
ボルト／ビス
  6
CONTINUOUS
 10
-29.808024
 20
-87.776002
 40
0.5
 50
-90.0
 51
0.000041
  0
LINE
  8
ボルト／ビス
  6
CONTINUOUS
 10
-34.308028
 20
-84.27601
 11
-30.808025
 21
-84.27601
  0
LINE
  8
ボルト／ビス
  6
CONTINUOUS
 10
-34.308028
 20
-88.276008
 11
-30.808025
 21
-88.276008
  0
ENDBLK
  0
BLOCK
  2
*DIM_0095
 70
    65
 10
0.0
 20
0.0
  0
LINE
  8
寸法
  6
CONTINUOUS
 10
-66.41239
 20
96.580977
 11
-116.443462
 21
96.580977
  0
LINE
  8
寸法
  6
CONTINUOUS
 10
-39.308028
 20
-112.77601
 11
-116.443462
 21
-112.77601
  0
LINE
  8
寸法
  6
CONTINUOUS
 10
-116.443462
 20
96.580977
 11
-116.443462
 21
-112.77601
  0
POINT
  8
寸法
 10
-116.443462
 20
96.580977
  0
POINT
  8
寸法
 10
-116.443462
 20
-112.77601
  0
TEXT
  7
TextStyle03
  8
寸法
  6
CONTINUOUS
 10
-116.825
 20
-12.225
  1
209.4
 40
3.0
 50
90.0
 72
     5
 11
-116.825
 21
-3.975
  0
ENDBLK
  0
BLOCK
  2
*DIM_0096
 70
    65
 10
0.0
 20
0.0
  0
LINE
  8
寸法
  6
CONTINUOUS
 10
-14.308022
 20
-122.876012
 11
-116.443462
 21
-122.876012
  0
LINE
  8
寸法
  6
CONTINUOUS
 10
-116.443462
 20
-112.77601
 11
-116.443462
 21
-122.876012
  0
POINT
  8
寸法
 10
-116.443462
 20
-122.876012
  0
TEXT
  7
TextStyle03
  8
寸法
  6
CONTINUOUS
 10
-116.825
 20
-121.13125
  1
10.1
 40
3.0
 50
90.0
 72
     5
 11
-116.825
 21
-114.56875
  0
ENDBLK
  0
BLOCK
  2
*DIM_0097
 70
    65
 10
0.0
 20
0.0
  0
LINE
  8
寸法
  6
CONTINUOUS
 10
-39.308028
 20
4.323987
 11
-103.553963
 21
4.323987
  0
LINE
  8
寸法
  6
CONTINUOUS
 10
-39.308028
 20
-112.77601
 11
-103.553963
 21
-112.77601
  0
LINE
  8
寸法
  6
CONTINUOUS
 10
-103.553963
 20
4.323987
 11
-103.553963
 21
-112.77601
  0
POINT
  8
寸法
 10
-103.553963
 20
4.323987
  0
POINT
  8
寸法
 10
-103.553963
 20
-112.77601
  0
TEXT
  7
TextStyle03
  8
寸法
  6
CONTINUOUS
 10
-103.95
 20
-58.375
  1
117.1
 40
3.0
 50
90.0
 72
     5
 11
-103.95
 21
-50.125
  0
ENDBLK
  0
BLOCK
  2
*DIM_0098
 70
    65
 10
0.0
 20
0.0
  0
LINE
  8
寸法
  6
CONTINUOUS
 10
-34.308028
 20
-117.661392
 11
-34.308028
 21
-129.660075
  0
LINE
  8
寸法
  6
CONTINUOUS
 10
-9.308022
 20
-127.876012
 11
-9.308022
 21
-129.660075
  0
LINE
  8
寸法
  6
CONTINUOUS
 10
-34.308028
 20
-129.660075
 11
-9.308022
 21
-129.660075
  0
POINT
  8
寸法
 10
-34.308028
 20
-129.660075
  0
POINT
  8
寸法
 10
-9.308022
 20
-129.660075
  0
TEXT
  7
TextStyle03
  8
寸法
  6
CONTINUOUS
 10
-23.41875
 20
-129.3
  1
25
 40
3.0
 72
     5
 11
-20.23125
 21
-129.3
  0
ENDBLK
  0
BLOCK
  2
*DIM_0099
 70
    65
 10
0.0
 20
0.0
  0
LINE
  8
寸法
  6
CONTINUOUS
 10
78.092085
 20
-90.976015
 11
126.798102
 21
-90.976015
  0
LINE
  8
寸法
  6
CONTINUOUS
 10
-2.308028
 20
-122.876012
 11
126.798102
 21
-122.876012
  0
LINE
  8
寸法
  6
CONTINUOUS
 10
126.798102
 20
-90.976015
 11
126.798102
 21
-122.876012
  0
POINT
  8
寸法
 10
126.798102
 20
-90.976015
  0
POINT
  8
寸法
 10
126.798102
 20
-122.876012
  0
TEXT
  7
TextStyle03
  8
寸法
  6
CONTINUOUS
 10
126.4
 20
-110.23125
  1
31.9
 40
3.0
 50
90.0
 72
     5
 11
126.4
 21
-103.66875
  0
ENDBLK
  0
ENDSEC
  0
SECTION
  2
ENTITIES
  0
POLYLINE
  8
通り芯
  6
CONTINUOUS
 66
     1
 70
     1
  0
VERTEX
  8
通り芯
 10
-210.0
 20
-148.5
  0
VERTEX
  8
通り芯
 10
210.0
 20
-148.5
  0
VERTEX
  8
通り芯
 10
210.0
 20
148.5
  0
VERTEX
  8
通り芯
 10
-210.0
 20
148.5
  0
SEQEND
  0
INSERT
  2
*GRP_0002
  8
通り芯
  6
DOT
 10
0.0
 20
0.0
  0
INSERT
  2
*GRP_0030
  8
通り芯
  6
CONTINUOUS
 10
0.0
 20
0.0
  0
INSERT
  2
*GRP_0031
  8
通り芯
  6
CONTINUOUS
 10
0.0
 20
0.0
  0
LINE
  8
通り芯
  6
CONTINUOUS
 62
   127
 10
27.092095
 20
-8.47597
 11
27.092095
 21
-65.975965
  0
INSERT
  2
*GRP_0092
  8
通り芯
  6
CONTINUOUS
 10
0.0
 20
0.0
  0
INSERT
  2
*GRP_0001
  8
型材断面
  6
CONTINUOUS
 10
0.0
 20
0.0
  0
LINE
  8
型材断面
  6
CONTINUOUS
 10
14.482083
 20
64.525152
 11
-13.117977
 21
92.125213
  0
LINE
  8
型材断面
  6
CONTINUOUS
 10
-29.593872
 20
122.742642
 11
-32.422303
 21
125.571065
  0
POLYLINE
  8
型材断面
  6
CONTINUOUS
 66
     1
  0
VERTEX
  8
型材断面
 10
153.29917
 20
121.286865
  0
VERTEX
  8
型材断面
 10
147.572228
 20
122.974553
  0
VERTEX
  8
型材断面
 10
147.431588
 20
121.286865
  0
SEQEND
  0
POLYLINE
  8
型材断面
  6
CONTINUOUS
 66
     1
  0
VERTEX
  8
型材断面
 10
150.46974
 20
121.286865
  0
VERTEX
  8
型材断面
 10
144.742798
 20
122.974553
  0
VERTEX
  8
型材断面
 10
144.602158
 20
121.286865
  0
SEQEND
  0
LINE
  8
型材断面
  6
CONTINUOUS
 10
153.29917
 20
121.286865
 11
48.587613
 21
121.286865
  0
POLYLINE
  8
型材断面
  6
CONTINUOUS
 66
     1
  0
VERTEX
  8
型材断面
 10
48.587613
 20
121.286865
  0
VERTEX
  8
型材断面
 10
54.314555
 20
122.974553
  0
VERTEX
  8
型材断面
 10
54.455195
 20
121.286865
  0
SEQEND
  0
LINE
  8
型材断面
  6
DASHDOT
 10
48.587613
 20
-58.476332
 11
48.587613
 21
121.286865
  0
LINE
  8
型材断面
  6
CONTINUOUS
 10
-29.593872
 20
122.742642
 11
-18.83651
 21
133.5
  0
LINE
  8
型材断面
  6
CONTINUOUS
 10
-32.422303
 20
125.571065
 11
-24.493368
 21
133.5
  0
LINE
  8
型材断面
  6
CONTINUOUS
 10
-13.117977
 20
92.125213
 11
28.25681
 21
133.5
  0
LINE
  8
型材断面
  6
CONTINUOUS
 10
6.749957
 20
72.257278
 11
67.99268
 21
133.5
  0
LINE
  8
型材断面
  6
CONTINUOUS
 10
14.57416
 20
64.525152
 11
83.549015
 21
133.5
  0
LINE
  8
型材断面
  6
DOT
 10
13.159945
 20
65.939367
 11
80.720585
 21
133.5
  0
INSERT
  2
*GRP_0032
  8
型材断面
  6
CONTINUOUS
 10
0.0
 20
0.0
  0
INSERT
  2
*GRP_0033
  8
型材断面
  6
DOT
 10
0.0
 20
0.0
  0
INSERT
  2
*GRP_0034
  8
型材断面
  6
DOT
 10
0.0
 20
0.0
  0
INSERT
  2
*GRP_0035
  8
型材断面
  6
DOT
 10
0.0
 20
0.0
  0
INSERT
  2
*GRP_0036
  8
型材断面
  6
DOT
 10
0.0
 20
0.0
  0
INSERT
  2
*GRP_0037
  8
型材断面
  6
CONTINUOUS
 10
0.0
 20
0.0
  0
INSERT
  2
*GRP_0038
  8
型材断面
  6
DOT
 10
0.0
 20
0.0
  0
INSERT
  2
*GRP_0039
  8
型材断面
  6
CONTINUOUS
 10
0.0
 20
0.0
  0
INSERT
  2
*GRP_0040
  8
型材断面
  6
CONTINUOUS
 10
0.0
 20
0.0
  0
LINE
  8
型材断面
  6
DOT
 10
27.09208
 20
-74.47597
 11
28.59208
 21
-74.47597
  0
LINE
  8
型材断面
  6
DOT
 10
27.09208
 20
-82.475958
 11
28.59208
 21
-82.475965
  0
LINE
  8
型材断面
  6
DOT
 10
28.217087
 20
-82.475965
 11
28.21708
 21
-74.47597
  0
LINE
  8
型材断面
  6
DOT
 10
27.84208
 20
-82.475965
 11
27.84208
 21
-74.47597
  0
LINE
  8
型材断面
  6
DOT
 10
27.467087
 20
-82.475965
 11
27.46708
 21
-74.47597
  0
LINE
  8
型材断面
  6
DOT
 10
27.09208
 20
-35.675965
 11
28.59208
 21
-35.675965
  0
LINE
  8
型材断面
  6
DOT
 10
27.092087
 20
-41.675965
 11
28.592087
 21
-41.675965
  0
LINE
  8
型材断面
  6
DOT
 10
28.21708
 20
-41.675965
 11
28.217087
 21
-35.675965
  0
LINE
  8
型材断面
  6
DOT
 10
27.842087
 20
-41.675965
 11
27.84208
 21
-35.675965
  0
LINE
  8
型材断面
  6
DOT
 10
27.46708
 20
-41.675965
 11
27.467087
 21
-35.675965
  0
LINE
  8
型材断面
  6
DOT
 10
27.09208
 20
-45.175968
 11
28.59208
 21
-45.175968
  0
LINE
  8
型材断面
  6
DOT
 10
27.092087
 20
-51.175968
 11
28.592087
 21
-51.175968
  0
LINE
  8
型材断面
  6
DOT
 10
28.21708
 20
-51.175968
 11
28.217087
 21
-45.175968
  0
LINE
  8
型材断面
  6
DOT
 10
27.842087
 20
-51.175968
 11
27.84208
 21
-45.175968
  0
LINE
  8
型材断面
  6
DOT
 10
27.46708
 20
-51.175968
 11
27.467087
 21
-45.175968
  0
LINE
  8
型材断面
  6
DOT
 10
27.092087
 20
-55.675968
 11
28.59208
 21
-55.67596
  0
LINE
  8
型材断面
  6
DOT
 10
27.09208
 20
-61.67596
 11
28.59208
 21
-61.67596
  0
LINE
  8
型材断面
  6
DOT
 10
28.217087
 20
-61.67596
 11
28.21708
 21
-55.67596
  0
LINE
  8
型材断面
  6
DOT
 10
27.84208
 20
-61.67596
 11
27.84208
 21
-55.67596
  0
LINE
  8
型材断面
  6
DOT
 10
27.467087
 20
-61.67596
 11
27.46708
 21
-55.67596
  0
LINE
  8
型材断面
  6
DOT
 10
-11.407917
 20
-82.475965
 11
-9.407915
 21
-82.475965
  0
LINE
  8
型材断面
  6
DOT
 10
-11.407917
 20
-74.475962
 11
-9.407915
 21
-74.475962
  0
LINE
  8
型材断面
  6
DOT
 10
-11.00792
 20
-82.475965
 11
-11.00792
 21
-74.475962
  0
LINE
  8
型材断面
  6
DOT
 10
-10.607915
 20
-82.475965
 11
-10.607915
 21
-74.475962
  0
LINE
  8
型材断面
  6
DOT
 10
-10.207917
 20
-82.475965
 11
-10.207917
 21
-74.475962
  0
LINE
  8
型材断面
  6
DOT
 10
-9.807913
 20
-82.475965
 11
-9.807913
 21
-74.475962
  0
LINE
  8
ガラス
  6
CONTINUOUS
 10
-41.967995
 20
95.519548
 11
-29.38148
 21
82.933025
  0
LINE
  8
ガラス
  6
CONTINUOUS
 10
-29.947182
 20
91.98401
 11
-38.432442
 21
91.983987
  0
LINE
  8
ガラス
  6
CONTINUOUS
 10
-34.189797
 20
96.226633
 11
-34.18982
 21
87.741373
  0
LINE
  8
ガラス
  6
CONTINUOUS
 10
-29.947182
 20
91.98401
 11
-34.189797
 21
96.226633
  0
LINE
  8
ガラス
  6
CONTINUOUS
 10
-41.967995
 20
95.519548
 11
-3.987555
 21
133.5
  0
LINE
  8
ガラス
  6
CONTINUOUS
 10
-41.614445
 20
95.16599
 11
-3.280435
 21
133.5
  0
LINE
  8
ガラス
  6
CONTINUOUS
 10
-38.786
 20
92.337552
 11
2.37646
 21
133.5
  0
LINE
  8
ガラス
  6
CONTINUOUS
 10
-38.432442
 20
91.983987
 11
3.08357
 21
133.5
  0
LINE
  8
ガラス
  6
CONTINUOUS
 10
-34.18982
 20
87.741373
 11
11.568808
 21
133.5
  0
LINE
  8
ガラス
  6
CONTINUOUS
 10
-33.83627
 20
87.387823
 11
12.275915
 21
133.5
  0
LINE
  8
ガラス
  6
CONTINUOUS
 10
-29.38148
 20
82.933025
 11
21.185483
 21
133.5
  0
LINE
  8
ガラス
  6
CONTINUOUS
 10
-29.73503
 20
83.286575
 11
20.478383
 21
133.5
  0
INSERT
  2
*GRP_0041
  8
ガラス
  6
CONTINUOUS
 10
0.0
 20
0.0
  0
INSERT
  2
*GRP_0042
  8
ガラス
  6
CONTINUOUS
 10
0.0
 20
0.0
  0
INSERT
  2
*GRP_0043
  8
ガラス
  6
CONTINUOUS
 10
0.0
 20
0.0
  0
INSERT
  2
*GRP_0044
  8
ガラス
  6
CONTINUOUS
 10
0.0
 20
0.0
  0
INSERT
  2
*GRP_0045
  8
ガラス
  6
CONTINUOUS
 10
0.0
 20
0.0
  0
INSERT
  2
*GRP_0046
  8
ガラス
  6
CONTINUOUS
 10
0.0
 20
0.0
  0
INSERT
  2
*GRP_0047
  8
ガラス
  6
CONTINUOUS
 10
0.0
 20
0.0
  0
INSERT
  2
*GRP_0048
  8
ガラス
  6
CONTINUOUS
 10
0.0
 20
0.0
  0
INSERT
  2
*GRP_0049
  8
ガラス
  6
CONTINUOUS
 10
0.0
 20
0.0
  0
INSERT
  2
*GRP_0050
  8
ガラス
  6
CONTINUOUS
 10
0.0
 20
0.0
  0
INSERT
  2
*GRP_0051
  8
ガラス
  6
CONTINUOUS
 10
0.0
 20
0.0
  0
INSERT
  2
*GRP_0052
  8
ガラス
  6
CONTINUOUS
 10
0.0
 20
0.0
  0
INSERT
  2
*GRP_0053
  8
ガラス
  6
CONTINUOUS
 10
0.0
 20
0.0
  0
INSERT
  2
*GRP_0054
  8
ガラス
  6
CONTINUOUS
 10
0.0
 20
0.0
  0
INSERT
  2
*GRP_0055
  8
ガラス
  6
CONTINUOUS
 10
0.0
 20
0.0
  0
INSERT
  2
*GRP_0056
  8
ガラス
  6
CONTINUOUS
 10
0.0
 20
0.0
  0
INSERT
  2
*GRP_0057
  8
ガラス
  6
CONTINUOUS
 10
0.0
 20
0.0
  0
INSERT
  2
*GRP_0058
  8
ガラス
  6
CONTINUOUS
 10
0.0
 20
0.0
  0
INSERT
  2
*GRP_0059
  8
ガラス
  6
CONTINUOUS
 10
0.0
 20
0.0
  0
INSERT
  2
*GRP_0060
  8
ガラス
  6
CONTINUOUS
 10
0.0
 20
0.0
  0
INSERT
  2
*GRP_0061
  8
ガラス
  6
CONTINUOUS
 10
0.0
 20
0.0
  0
INSERT
  2
*GRP_0062
  8
ガラス
  6
CONTINUOUS
 10
0.0
 20
0.0
  0
INSERT
  2
*GRP_0063
  8
ガラス
  6
CONTINUOUS
 10
0.0
 20
0.0
  0
INSERT
  2
*GRP_0003
  8
ゴム等
  6
CONTINUOUS
 10
0.0
 20
0.0
  0
INSERT
  2
*GRP_0064
  8
ゴム等
  6
DOT
 10
0.0
 20
0.0
  0
INSERT
  2
*GRP_0065
  8
ゴム等
  6
DOT
 10
0.0
 20
0.0
  0
INSERT
  2
*GRP_0066
  8
ゴム等
  6
CONTINUOUS
 10
0.0
 20
0.0
  0
INSERT
  2
*GRP_0067
  8
ゴム等
  6
CONTINUOUS
 10
0.0
 20
0.0
  0
INSERT
  2
*GRP_0068
  8
ゴム等
  6
CONTINUOUS
 62
    63
 10
0.0
 20
0.0
  0
INSERT
  2
*GRP_0069
  8
ゴム等
  6
DOT
 62
    63
 10
0.0
 20
0.0
  0
INSERT
  2
*GRP_0070
  8
ゴム等
  6
CONTINUOUS
 62
    63
 10
0.0
 20
0.0
  0
INSERT
  2
*GRP_0004
  8
ボルト／ビス
  6
CONTINUOUS
 62
    64
 10
0.0
 20
0.0
  0
INSERT
  2
*GRP_0005
  8
ボルト／ビス
  6
CONTINUOUS
 62
    64
 10
0.0
 20
0.0
  0
INSERT
  2
*GRP_0071
  8
ボルト／ビス
  6
CONTINUOUS
 10
0.0
 20
0.0
  0
INSERT
  2
*GRP_0072
  8
ボルト／ビス
  6
CONTINUOUS
 10
0.0
 20
0.0
  0
TEXT
  7
TextStyle03
  8
文字
  6
CONTINUOUS
 10
-177.975
 20
99.425
  1
ＮＳコード：ＮＳ４Ｃ
 40
5.0
 72
     5
 11
-122.35
 21
99.425
  0
TEXT
  7
TextStyle03
  8
文字
  6
CONTINUOUS
 10
-177.775
 20
120.675
  1
シリーズ：ＴＦ４
 40
5.0
 72
     5
 11
-133.4
 21
120.675
  0
TEXT
  7
TextStyle03
  8
文字
  6
CONTINUOUS
 10
-177.775
 20
115.05
  1
　　　　　　四角錘（上下可動）
 40
5.0
 72
     5
 11
-94.025
 21
115.05
  0
TEXT
  7
TextStyle03
  8
文字
  6
CONTINUOUS
 10
-177.775
 20
109.425
  1
図面名　：下枠断面詳細図Ｂ
 40
5.0
 72
     5
 11
-105.275
 21
109.425
  0
TEXT
  7
TextStyle03
  8
文字
  6
CONTINUOUS
 10
108.425
 20
121.85
  1
呼称寸法
 40
3.5
 72
     5
 11
123.775
 21
121.85
  0
TEXT
  7
TextStyle03
  8
文字
  6
CONTINUOUS
 10
18.125
 20
-1.3
  1
TKR-1301
 40
4.0
 72
     5
 11
35.875
 21
-1.3
  0
TEXT
  7
TextStyle03
  8
文字
  6
CONTINUOUS
 10
18.125
 20
7.425
  1
TKR-1201
 40
4.0
 72
     5
 11
35.875
 21
7.425
  0
TEXT
  7
TextStyle03
  8
文字
  6
CONTINUOUS
 10
-51.125
 20
38.35
  1
TKR-1402
 40
4.0
 72
     5
 11
-33.375
 21
38.35
  0
TEXT
  7
TextStyle03
  8
文字
  6
CONTINUOUS
 10
-58.15
 20
54.325
  1
TKR-1401
 40
4.0
 72
     5
 11
-40.4
 21
54.325
  0
TEXT
  7
TextStyle03
  8
文字
  6
CONTINUOUS
 10
-58.175
 20
-38.725
  1
TKR-1401
 40
4.0
 72
     5
 11
-40.425
 21
-38.725
  0
TEXT
  7
TextStyle03
  8
文字
  6
CONTINUOUS
 10
62.9
 20
-109.7
  1
アンカー　St-3.2t
 40
4.0
 72
     5
 11
100.9
 21
-109.7
  0
TEXT
  7
TextStyle03
  8
文字
  6
CONTINUOUS
 10
80.4
 20
-30.975
  1
滑車
 40
4.0
 72
     5
 11
88.9
 21
-30.975
  0
TEXT
  7
TextStyle03
  8
文字
  6
CONTINUOUS
 10
77.875
 20
50.775
  1
滑車
 40
4.0
 72
     5
 11
86.375
 21
50.775
  0
TEXT
  7
TextStyle03
  8
文字
  6
CONTINUOUS
 10
74.925
 20
-47.325
  1
転向滑車
 40
4.0
 72
     5
 11
92.425
 21
-47.325
  0
INSERT
  2
*GRP_0073
  8
文字
  6
DOT
 10
0.0
 20
0.0
  0
INSERT
  2
*GRP_0006
  8
寸法
  6
CONTINUOUS
 10
0.0
 20
0.0
  0
INSERT
  2
*DIM_0007
  8
寸法
  6
CONTINUOUS
 10
0.0
 20
0.0
  0
INSERT
  2
*DIM_0008
  8
寸法
  6
CONTINUOUS
 10
0.0
 20
0.0
  0
INSERT
  2
*DIM_0009
  8
寸法
  6
CONTINUOUS
 10
0.0
 20
0.0
  0
INSERT
  2
*DIM_0010
  8
寸法
  6
CONTINUOUS
 10
0.0
 20
0.0
  0
INSERT
  2
*DIM_0011
  8
寸法
  6
CONTINUOUS
 10
0.0
 20
0.0
  0
INSERT
  2
*DIM_0012
  8
寸法
  6
CONTINUOUS
 10
0.0
 20
0.0
  0
INSERT
  2
*DIM_0013
  8
寸法
  6
CONTINUOUS
 10
0.0
 20
0.0
  0
INSERT
  2
*DIM_0014
  8
寸法
  6
CONTINUOUS
 10
0.0
 20
0.0
  0
INSERT
  2
*DIM_0015
  8
寸法
  6
CONTINUOUS
 10
0.0
 20
0.0
  0
INSERT
  2
*DIM_0016
  8
寸法
  6
CONTINUOUS
 10
0.0
 20
0.0
  0
INSERT
  2
*GRP_0017
  8
寸法
  6
CONTINUOUS
 10
0.0
 20
0.0
  0
INSERT
  2
*GRP_0018
  8
寸法
  6
CONTINUOUS
 10
0.0
 20
0.0
  0
INSERT
  2
*GRP_0019
  8
寸法
  6
CONTINUOUS
 10
0.0
 20
0.0
  0
INSERT
  2
*GRP_0020
  8
寸法
  6
CONTINUOUS
 10
0.0
 20
0.0
  0
INSERT
  2
*GRP_0021
  8
寸法
  6
CONTINUOUS
 10
0.0
 20
0.0
  0
INSERT
  2
*GRP_0022
  8
寸法
  6
CONTINUOUS
 10
0.0
 20
0.0
  0
INSERT
  2
*GRP_0023
  8
寸法
  6
CONTINUOUS
 10
0.0
 20
0.0
  0
INSERT
  2
*GRP_0024
  8
寸法
  6
CONTINUOUS
 10
0.0
 20
0.0
  0
INSERT
  2
*GRP_0025
  8
寸法
  6
CONTINUOUS
 10
0.0
 20
0.0
  0
INSERT
  2
*DIM_0095
  8
寸法
  6
CONTINUOUS
 10
0.0
 20
0.0
  0
INSERT
  2
*DIM_0096
  8
寸法
  6
CONTINUOUS
 10
0.0
 20
0.0
  0
INSERT
  2
*DIM_0097
  8
寸法
  6
CONTINUOUS
 10
0.0
 20
0.0
  0
INSERT
  2
*DIM_0098
  8
寸法
  6
CONTINUOUS
 10
0.0
 20
0.0
  0
INSERT
  2
*DIM_0099
  8
寸法
  6
CONTINUOUS
 10
0.0
 20
0.0
  0
INSERT
  2
*HAT_0007
  8
ﾊｯﾁﾝｸﾞ
 10
0.0
 20
0.0
  0
INSERT
  2
*GRP_0074
  8
別途部材
  6
DOT
 10
0.0
 20
0.0
  0
INSERT
  2
*GRP_0075
  8
別途部材
  6
DOT
 10
0.0
 20
0.0
  0
INSERT
  2
*GRP_0026
  8
St
  6
CONTINUOUS
 10
0.0
 20
0.0
  0
INSERT
  2
*GRP_0076
  8
St
  6
CONTINUOUS
 10
0.0
 20
0.0
  0
INSERT
  2
*GRP_0077
  8
St
  6
CONTINUOUS
 10
0.0
 20
0.0
  0
INSERT
  2
*GRP_0078
  8
St
  6
CONTINUOUS
 10
0.0
 20
0.0
  0
LINE
  8
その他部品等
  6
CONTINUOUS
 10
-41.26127
 20
96.22628
 11
-50.099968
 21
105.064977
  0
LINE
  8
その他部品等
  6
CONTINUOUS
 10
-36.311525
 20
101.176025
 11
-45.150223
 21
110.014723
  0
LINE
  8
その他部品等
  6
CONTINUOUS
 10
-45.150223
 20
110.014723
 11
-41.26127
 21
96.22628
  0
LINE
  8
その他部品等
  6
CONTINUOUS
 10
-39.49337
 20
118.499998
 11
-18.987553
 21
118.499998
  0
LINE
  8
その他部品等
  6
CONTINUOUS
 10
-32.422303
 20
125.571065
 11
-39.49337
 21
118.499998
  0
ENDSEC
  0
EOF
