  0
SECTION
  2
HEADER
  9
$EXTMIN
 10
-210.0
 20
-148.5
  9
$EXTMAX
 10
210.0
 20
148.5
  9
$PDMODE
 70
    32
  9
$PDSIZE
 40
1.5
  9
$LTSCALE
 40
10.0
  0
ENDSEC
  0
SECTION
  2
TABLES
  0
TABLE
  2
LTYPE
 70
    15
  0
LTYPE
  2
CONTINUOUS
 70
    64
  3
実線
 72
    65
 73
     0
 40
0.0
  0
LTYPE
  2
DASHED
 70
    64
  3
破線A
 72
    65
 73
     2
 40
0.6
 49
0.4
 49
-0.2
  0
LTYPE
  2
DASHEDX2
 70
    64
  3
破線B
 72
    65
 73
     2
 40
1.3
 49
0.9
 49
-0.4
  0
LTYPE
  2
DASHDOT
 70
    64
  3
１点鎖線A
 72
    65
 73
     4
 40
0.5375
 49
0.375
 49
-0.05
 49
0.0625
 49
-0.05
  0
LTYPE
  2
DASHDOTX2
 70
    64
  3
１点鎖線B
 72
    65
 73
     4
 40
1.075
 49
0.75
 49
-0.1
 49
0.125
 49
-0.1
  0
LTYPE
  2
DIVIDE2
 70
    64
  3
２点鎖線A
 72
    65
 73
     6
 40
0.5125
 49
0.3
 49
-0.0375
 49
0.05
 49
-0.0375
 49
0.05
 49
-0.0375
  0
LTYPE
  2
DIVIDE
 70
    64
  3
２点鎖線B
 72
    65
 73
     6
 40
1.05
 49
0.55
 49
-0.1
 49
0.1
 49
-0.1
 49
0.1
 49
-0.1
  0
LTYPE
  2
DOT
 70
    64
  3
点線A
 72
    65
 73
     2
 40
0.1125
 49
0.0625
 49
-0.05
  0
LTYPE
  2
DOTX2
 70
    64
  3
点線B
 72
    65
 73
     2
 40
0.275
 49
0.15
 49
-0.125
  0
LTYPE
  2
CONTINUOUS
 70
    64
  3
実線
 72
    65
 73
     0
 40
0.0
  0
LTYPE
  2
CONTINUOUS
 70
    64
  3
実線
 72
    65
 73
     0
 40
0.0
  0
LTYPE
  2
CONTINUOUS
 70
    64
  3
実線
 72
    65
 73
     0
 40
0.0
  0
LTYPE
  2
CONTINUOUS
 70
    64
  3
実線
 72
    65
 73
     0
 40
0.0
  0
LTYPE
  2
CONTINUOUS
 70
    64
  3
実線
 72
    65
 73
     0
 40
0.0
  0
LTYPE
  2
CONTINUOUS
 70
    64
  3
実線
 72
    65
 73
     0
 40
0.0
  0
ENDTAB
  0
TABLE
  2
LAYER
 70
    35
  0
LAYER
  2
通り芯
 70
     0
 62
    15
  6
CONTINUOUS
  0
LAYER
  2
補助線
 70
     0
 62
    16
  6
DOT
  0
LAYER
  2
躯体
 70
     0
 62
    31
  6
CONTINUOUS
  0
LAYER
  2
型材
 70
     0
 62
    32
  6
CONTINUOUS
  0
LAYER
  2
型材断面
 70
     0
 62
    47
  6
CONTINUOUS
  0
LAYER
  2
ガラス
 70
     0
 62
    48
  6
CONTINUOUS
  0
LAYER
  2
ゴム等
 70
     0
 62
    63
  6
CONTINUOUS
  0
LAYER
  2
ボルト／ビス
 70
     0
 62
    64
  6
CONTINUOUS
  0
LAYER
  2
文字
 70
     0
 62
    79
  6
CONTINUOUS
  0
LAYER
  2
寸法
 70
     0
 62
    80
  6
CONTINUOUS
  0
LAYER
  2
ﾊｯﾁﾝｸﾞ
 70
     0
 62
    95
  6
CONTINUOUS
  0
LAYER
  2
別途部材
 70
     0
 62
    96
  6
CONTINUOUS
  0
LAYER
  2
曲げ物
 70
     0
 62
   111
  6
CONTINUOUS
  0
LAYER
  2
鉄骨等
 70
     0
 62
   112
  6
CONTINUOUS
  0
LAYER
  2
St
 70
     0
 62
   127
  6
CONTINUOUS
  0
LAYER
  2
その他部品等
 70
     0
 62
   128
  6
CONTINUOUS
  0
LAYER
  2
ｶﾞｽｹｯﾄ
 70
     0
 62
   143
  6
CONTINUOUS
  0
LAYER
  2
ｽｹｯﾁ
 70
     0
 62
    14
  6
CONTINUOUS
  0
LAYER
  2
0
 70
     0
 62
    17
  6
CONTINUOUS
  0
LAYER
  2
1
 70
     0
 62
    30
  6
CONTINUOUS
  0
LAYER
  2
4
 70
     0
 62
    33
  6
CONTINUOUS
  0
LAYER
  2
ﾚｲﾔ3
 70
     0
 62
    46
  6
CONTINUOUS
  0
LAYER
  2
外形線
 70
     0
 62
    49
  6
CONTINUOUS
  0
LAYER
  2
部品
 70
     0
 62
    14
  6
CONTINUOUS
  0
LAYER
  2
サッシ芯
 70
     0
 62
    17
  6
DASHDOTX2
  0
LAYER
  2
寸法線
 70
     0
 62
    62
  6
CONTINUOUS
  0
LAYER
  2
姿図外形線
 70
     0
 62
    65
  6
CONTINUOUS
  0
LAYER
  2
姿補助線
 70
     0
 62
    30
  6
CONTINUOUS
  0
LAYER
  2
透視線
 70
     0
 62
    78
  6
DOT
  0
LAYER
  2
用紙
 70
     0
 62
    81
  6
CONTINUOUS
  0
LAYER
  2
実線図枠
 70
     0
 62
    94
  6
CONTINUOUS
  0
LAYER
  2
補助図枠
 70
     0
 62
    97
  6
CONTINUOUS
  0
LAYER
  2
建具記号
 70
     0
 62
   110
  6
CONTINUOUS
  0
LAYER
  2
補助文字
 70
     0
 62
   113
  6
CONTINUOUS
  0
LAYER
  2
01
 70
     0
 62
     1
  6
CONTINUOUS
  0
ENDTAB
  0
TABLE
  2
STYLE
 70
    10
  0
STYLE
  2
STANDARD
 70
     0
 40
1.0
 41
1.0
 42
1.0
 50
0.0
 71
     0
  3
TXT
  4
BIGFONT
  0
STYLE
  2
TATE
 70
     4
 40
1.0
 41
1.0
 42
1.0
 50
0.0
 71
     0
  3
TXT
  4
BIGFONT
  0
STYLE
  2
TextStyle03
 70
     0
 40
1.0
 41
1.0
 42
1.0
 50
0.0
 71
     0
  3
MONOTXT
  4
BIGFONT
  0
STYLE
  2
TextStyle04
 70
     0
 40
1.0
 41
1.0
 42
1.0
 50
0.0
 71
     0
  3
MONOTXT
  4
BIGFONT
  0
STYLE
  2
TextStyle05
 70
     0
 40
1.0
 41
1.0
 42
1.0
 50
0.0
 71
     0
  3
MONOTXT
  4
BIGFONT
  0
STYLE
  2
TextStyle06
 70
     0
 40
1.0
 41
1.0
 42
1.0
 50
0.0
 71
     0
  3
MONOTXT
  4
BIGFONT
  0
STYLE
  2
TextStyle07
 70
     0
 40
1.0
 41
1.0
 42
1.0
 50
0.0
 71
     0
  3
MONOTXT
  4
BIGFONT
  0
STYLE
  2
TextStyle08
 70
     0
 40
1.0
 41
1.0
 42
1.0
 50
0.0
 71
     0
  3
MONOTXT
  4
BIGFONT
  0
STYLE
  2
TextStyle09
 70
     0
 40
1.0
 41
1.0
 42
1.0
 50
0.0
 71
     0
  3
MONOTXT
  4
BIGFONT
  0
STYLE
  2
TextStyle10
 70
     0
 40
1.0
 41
1.0
 42
1.0
 50
0.0
 71
     0
  3
MONOTXT
  4
BIGFONT
  0
ENDTAB
  0
ENDSEC
  0
SECTION
  2
BLOCKS
  0
BLOCK
  2
*HAT_0001
 70
    65
 10
0.0
 20
0.0
  0
LINE
  8
ﾊｯﾁﾝｸﾞ
 10
-89.125
 20
-33.0
 11
-90.45
 21
-30.725
  0
LINE
  8
ﾊｯﾁﾝｸﾞ
 10
-90.2
 20
-34.125
 11
-94.45
 21
-26.6
  0
LINE
  8
ﾊｯﾁﾝｸﾞ
 10
-91.275
 20
-35.25
 11
-96.75
 21
-25.775
  0
LINE
  8
ﾊｯﾁﾝｸﾞ
 10
-92.4
 20
-36.325
 11
-97.8
 21
-26.875
  0
LINE
  8
ﾊｯﾁﾝｸﾞ
 10
-93.475
 20
-37.45
 11
-98.95
 21
-28.0
  0
LINE
  8
ﾊｯﾁﾝｸﾞ
 10
-94.55
 20
-38.475
 11
-100.0
 21
-29.075
  0
LINE
  8
ﾊｯﾁﾝｸﾞ
 10
-95.675
 20
-39.575
 11
-101.075
 21
-30.2
  0
LINE
  8
ﾊｯﾁﾝｸﾞ
 10
-99.725
 20
-35.525
 11
-103.225
 21
-29.475
  0
LINE
  8
ﾊｯﾁﾝｸﾞ
 10
-103.85
 20
-31.475
 11
-104.3
 21
-30.6
  0
LINE
  8
ﾊｯﾁﾝｸﾞ
 10
-95.9
 20
-39.425
 11
-95.05
 21
-38.95
  0
LINE
  8
ﾊｯﾁﾝｸﾞ
 10
-96.925
 20
-38.375
 11
-90.95
 21
-34.925
  0
LINE
  8
ﾊｯﾁﾝｸﾞ
 10
-98.0
 20
-37.225
 11
-89.125
 21
-32.1
  0
LINE
  8
ﾊｯﾁﾝｸﾞ
 10
-99.125
 20
-36.15
 11
-90.225
 21
-31.025
  0
LINE
  8
ﾊｯﾁﾝｸﾞ
 10
-100.25
 20
-35.075
 11
-91.3
 21
-29.875
  0
LINE
  8
ﾊｯﾁﾝｸﾞ
 10
-101.325
 20
-33.95
 11
-92.325
 21
-28.8
  0
LINE
  8
ﾊｯﾁﾝｸﾞ
 10
-102.45
 20
-32.875
 11
-93.425
 21
-27.675
  0
LINE
  8
ﾊｯﾁﾝｸﾞ
 10
-103.55
 20
-31.8
 11
-101.7
 21
-30.75
  0
LINE
  8
ﾊｯﾁﾝｸﾞ
 10
-101.6
 20
-30.6
 11
-94.55
 21
-26.6
  0
LINE
  8
ﾊｯﾁﾝｸﾞ
 10
-104.175
 20
-30.375
 11
-102.825
 21
-29.675
  0
LINE
  8
ﾊｯﾁﾝｸﾞ
 10
-97.475
 20
-26.6
 11
-95.65
 21
-25.525
  0
ENDBLK
  0
BLOCK
  2
*HAT_0002
 70
    65
 10
0.0
 20
0.0
  0
LINE
  8
ﾊｯﾁﾝｸﾞ
 10
-112.925
 20
-114.55
 11
-115.775
 21
-109.65
  0
LINE
  8
ﾊｯﾁﾝｸﾞ
 10
-112.1
 20
-119.025
 11
-117.275
 21
-110.025
  0
LINE
  8
ﾊｯﾁﾝｸﾞ
 10
-113.575
 20
-119.425
 11
-118.775
 21
-110.4
  0
LINE
  8
ﾊｯﾁﾝｸﾞ
 10
-115.1
 20
-119.8
 11
-120.225
 21
-110.85
  0
LINE
  8
ﾊｯﾁﾝｸﾞ
 10
-116.6
 20
-120.225
 11
-121.725
 21
-111.25
  0
LINE
  8
ﾊｯﾁﾝｸﾞ
 10
-118.1
 20
-120.6
 11
-123.225
 21
-111.625
  0
LINE
  8
ﾊｯﾁﾝｸﾞ
 10
-119.6
 20
-120.975
 11
-124.75
 21
-112.075
  0
LINE
  8
ﾊｯﾁﾝｸﾞ
 10
-121.05
 20
-121.425
 11
-122.75
 21
-118.5
  0
LINE
  8
ﾊｯﾁﾝｸﾞ
 10
-125.175
 20
-114.3
 11
-126.25
 21
-112.45
  0
LINE
  8
ﾊｯﾁﾝｸﾞ
 10
-115.325
 20
-119.85
 11
-112.025
 21
-117.975
  0
LINE
  8
ﾊｯﾁﾝｸﾞ
 10
-120.95
 20
-121.375
 11
-112.4
 21
-116.475
  0
LINE
  8
ﾊｯﾁﾝｸﾞ
 10
-122.225
 20
-120.425
 11
-112.775
 21
-114.975
  0
LINE
  8
ﾊｯﾁﾝｸﾞ
 10
-122.625
 20
-118.95
 11
-113.225
 21
-113.45
  0
LINE
  8
ﾊｯﾁﾝｸﾞ
 10
-123.05
 20
-117.4
 11
-113.6
 21
-111.95
  0
LINE
  8
ﾊｯﾁﾝｸﾞ
 10
-123.45
 20
-115.925
 11
-114.075
 21
-110.425
  0
LINE
  8
ﾊｯﾁﾝｸﾞ
 10
-123.825
 20
-114.425
 11
-115.45
 21
-109.6
  0
LINE
  8
ﾊｯﾁﾝｸﾞ
 10
-126.025
 20
-113.975
 11
-121.05
 21
-111.05
  0
ENDBLK
  0
BLOCK
  2
*HAT_0003
 70
    65
 10
0.0
 20
0.0
  0
LINE
  8
ﾊｯﾁﾝｸﾞ
 10
-138.475
 20
95.225
 11
-148.0
 21
104.75
  0
LINE
  8
ﾊｯﾁﾝｸﾞ
 10
-137.35
 20
96.275
 11
-146.95
 21
105.8
  0
LINE
  8
ﾊｯﾁﾝｸﾞ
 10
-136.3
 20
97.325
 11
-145.9
 21
106.85
  0
LINE
  8
ﾊｯﾁﾝｸﾞ
 10
-135.25
 20
98.375
 11
-144.775
 21
107.9
  0
LINE
  8
ﾊｯﾁﾝｸﾞ
 10
-134.2
 20
99.425
 11
-142.9
 21
108.125
  0
LINE
  8
ﾊｯﾁﾝｸﾞ
 10
-133.15
 20
100.475
 11
-141.85
 21
109.175
  0
LINE
  8
ﾊｯﾁﾝｸﾞ
 10
-132.1
 20
101.525
 11
-140.8
 21
110.3
  0
LINE
  8
ﾊｯﾁﾝｸﾞ
 10
-131.05
 20
102.65
 11
-141.325
 21
112.925
  0
LINE
  8
ﾊｯﾁﾝｸﾞ
 10
-130.0
 20
103.7
 11
-139.15
 21
112.925
  0
LINE
  8
ﾊｯﾁﾝｸﾞ
 10
-128.875
 20
104.75
 11
-137.05
 21
112.925
  0
LINE
  8
ﾊｯﾁﾝｸﾞ
 10
-127.825
 20
105.8
 11
-134.95
 21
112.925
  0
LINE
  8
ﾊｯﾁﾝｸﾞ
 10
-126.775
 20
106.85
 11
-132.85
 21
112.925
  0
LINE
  8
ﾊｯﾁﾝｸﾞ
 10
-125.725
 20
107.9
 11
-130.675
 21
112.925
  0
LINE
  8
ﾊｯﾁﾝｸﾞ
 10
-124.675
 20
108.95
 11
-128.575
 21
112.925
  0
LINE
  8
ﾊｯﾁﾝｸﾞ
 10
-123.625
 20
110.0
 11
-126.475
 21
112.925
  0
LINE
  8
ﾊｯﾁﾝｸﾞ
 10
-122.575
 20
111.125
 11
-124.375
 21
112.925
  0
LINE
  8
ﾊｯﾁﾝｸﾞ
 10
-121.525
 20
112.175
 11
-122.2
 21
112.925
  0
LINE
  8
ﾊｯﾁﾝｸﾞ
 10
-122.725
 20
112.925
 11
-139.75
 21
95.9
  0
LINE
  8
ﾊｯﾁﾝｸﾞ
 10
-124.825
 20
112.925
 11
-140.8
 21
96.95
  0
LINE
  8
ﾊｯﾁﾝｸﾞ
 10
-127.0
 20
112.925
 11
-141.925
 21
98.0
  0
LINE
  8
ﾊｯﾁﾝｸﾞ
 10
-129.1
 20
112.925
 11
-142.975
 21
99.05
  0
LINE
  8
ﾊｯﾁﾝｸﾞ
 10
-131.2
 20
112.925
 11
-144.025
 21
100.1
  0
LINE
  8
ﾊｯﾁﾝｸﾞ
 10
-133.3
 20
112.925
 11
-145.075
 21
101.15
  0
LINE
  8
ﾊｯﾁﾝｸﾞ
 10
-135.475
 20
112.925
 11
-146.125
 21
102.2
  0
LINE
  8
ﾊｯﾁﾝｸﾞ
 10
-137.575
 20
112.925
 11
-147.175
 21
103.25
  0
LINE
  8
ﾊｯﾁﾝｸﾞ
 10
-139.675
 20
112.925
 11
-141.175
 21
111.425
  0
LINE
  8
ﾊｯﾁﾝｸﾞ
 10
-144.7
 20
107.9
 11
-148.225
 21
104.3
  0
LINE
  8
ﾊｯﾁﾝｸﾞ
 10
-141.775
 20
112.925
 11
-142.225
 21
112.475
  0
ENDBLK
  0
BLOCK
  2
*GRP_0001
 70
    65
 10
0.0
 20
0.0
  0
LINE
  8
型材断面
  6
CONTINUOUS
 10
195.0
 20
133.5
 11
195.0
 21
-133.5
  0
LINE
  8
型材断面
  6
CONTINUOUS
 10
195.0
 20
-133.5
 11
-185.0
 21
-133.5
  0
LINE
  8
型材断面
  6
CONTINUOUS
 10
-185.0
 20
-133.5
 11
-185.0
 21
133.5
  0
LINE
  8
型材断面
  6
CONTINUOUS
 10
195.0
 20
133.5
 11
-185.0
 21
133.5
  0
LINE
  8
型材断面
  6
CONTINUOUS
 10
145.0
 20
-133.5
 11
145.0
 21
-118.5
  0
LINE
  8
型材断面
  6
CONTINUOUS
 10
195.0
 20
-118.5
 11
145.0
 21
-118.5
  0
ENDBLK
  0
BLOCK
  2
*GRP_0002
 70
    65
 10
0.0
 20
0.0
  0
LINE
  8
型材
  6
CONTINUOUS
 10
123.37431
 20
2.833312
 11
23.374313
 21
2.833312
  0
LINE
  8
型材
  6
CONTINUOUS
 10
23.825993
 20
102.378578
 11
23.374313
 21
102.378578
  0
LINE
  8
型材
  6
CONTINUOUS
 10
24.821475
 20
101.383125
 11
23.374313
 21
101.383125
  0
LINE
  8
型材
  6
CONTINUOUS
 10
25.816957
 20
100.387673
 11
23.374313
 21
100.387673
  0
LINE
  8
型材
  6
CONTINUOUS
 10
26.81244
 20
99.39222
 11
23.374313
 21
99.39222
  0
LINE
  8
型材
  6
CONTINUOUS
 10
27.807922
 20
98.396767
 11
23.374313
 21
98.396767
  0
LINE
  8
型材
  6
CONTINUOUS
 10
28.803405
 20
97.401315
 11
23.374313
 21
97.401315
  0
LINE
  8
型材
  6
CONTINUOUS
 10
29.798895
 20
96.405862
 11
23.374313
 21
96.405862
  0
LINE
  8
型材
  6
CONTINUOUS
 10
30.794377
 20
95.41041
 11
23.374313
 21
95.41041
  0
LINE
  8
型材
  6
CONTINUOUS
 10
31.78986
 20
94.414957
 11
23.374313
 21
94.414957
  0
LINE
  8
型材
  6
CONTINUOUS
 10
32.785342
 20
93.419505
 11
23.374313
 21
93.419505
  0
LINE
  8
型材
  6
CONTINUOUS
 10
33.780825
 20
92.424052
 11
23.374313
 21
92.424052
  0
LINE
  8
型材
  6
CONTINUOUS
 10
34.776308
 20
91.4286
 11
23.374313
 21
91.4286
  0
LINE
  8
型材
  6
CONTINUOUS
 10
35.77179
 20
90.433148
 11
23.374313
 21
90.433148
  0
LINE
  8
型材
  6
CONTINUOUS
 10
36.767273
 20
89.437695
 11
23.374313
 21
89.437695
  0
LINE
  8
型材
  6
CONTINUOUS
 10
37.762755
 20
88.442243
 11
23.374313
 21
88.442243
  0
LINE
  8
型材
  6
CONTINUOUS
 10
38.758237
 20
87.44679
 11
23.374313
 21
87.44679
  0
LINE
  8
型材
  6
CONTINUOUS
 10
39.75372
 20
86.451338
 11
23.374313
 21
86.451338
  0
LINE
  8
型材
  6
CONTINUOUS
 10
40.74921
 20
85.455885
 11
23.374313
 21
85.455885
  0
LINE
  8
型材
  6
CONTINUOUS
 10
41.744693
 20
84.460433
 11
23.374313
 21
84.460433
  0
LINE
  8
型材
  6
CONTINUOUS
 10
42.740175
 20
83.46498
 11
23.374313
 21
83.46498
  0
LINE
  8
型材
  6
CONTINUOUS
 10
43.735657
 20
82.469527
 11
23.374313
 21
82.469527
  0
LINE
  8
型材
  6
CONTINUOUS
 10
44.73114
 20
81.474075
 11
23.374313
 21
81.474075
  0
LINE
  8
型材
  6
CONTINUOUS
 10
45.726622
 20
80.478622
 11
23.374313
 21
80.478622
  0
LINE
  8
型材
  6
CONTINUOUS
 10
46.722105
 20
79.48317
 11
23.374313
 21
79.48317
  0
LINE
  8
型材
  6
CONTINUOUS
 10
47.717588
 20
78.487717
 11
23.374313
 21
78.487717
  0
LINE
  8
型材
  6
CONTINUOUS
 10
48.71307
 20
77.492265
 11
23.374313
 21
77.492265
  0
LINE
  8
型材
  6
CONTINUOUS
 10
49.708553
 20
76.496805
 11
23.374313
 21
76.496805
  0
LINE
  8
型材
  6
CONTINUOUS
 10
50.704035
 20
75.501353
 11
23.374313
 21
75.501353
  0
LINE
  8
型材
  6
CONTINUOUS
 10
51.699525
 20
74.5059
 11
23.374313
 21
74.5059
  0
LINE
  8
型材
  6
CONTINUOUS
 10
52.695008
 20
73.510448
 11
23.374313
 21
73.510448
  0
LINE
  8
型材
  6
CONTINUOUS
 10
53.69049
 20
72.514995
 11
23.374313
 21
72.514995
  0
LINE
  8
型材
  6
CONTINUOUS
 10
54.685973
 20
71.519542
 11
23.374313
 21
71.519542
  0
LINE
  8
型材
  6
CONTINUOUS
 10
55.681455
 20
70.52409
 11
23.374313
 21
70.52409
  0
LINE
  8
型材
  6
CONTINUOUS
 10
56.676937
 20
69.528637
 11
23.374313
 21
69.528637
  0
LINE
  8
型材
  6
CONTINUOUS
 10
57.67242
 20
68.533185
 11
23.374313
 21
68.533185
  0
LINE
  8
型材
  6
CONTINUOUS
 10
58.667902
 20
67.537732
 11
23.374313
 21
67.537732
  0
LINE
  8
型材
  6
CONTINUOUS
 10
59.663385
 20
66.54228
 11
23.374313
 21
66.54228
  0
LINE
  8
型材
  6
CONTINUOUS
 10
60.658868
 20
65.546827
 11
23.374313
 21
65.546827
  0
LINE
  8
型材
  6
CONTINUOUS
 10
61.65435
 20
64.551375
 11
23.374313
 21
64.551375
  0
LINE
  8
型材
  6
CONTINUOUS
 10
62.64984
 20
63.555923
 11
23.374313
 21
63.555923
  0
LINE
  8
型材
  6
CONTINUOUS
 10
63.645322
 20
62.56047
 11
23.374313
 21
62.56047
  0
LINE
  8
型材
  6
CONTINUOUS
 10
64.640805
 20
61.565018
 11
23.374313
 21
61.565018
  0
LINE
  8
型材
  6
CONTINUOUS
 10
65.636288
 20
60.569565
 11
23.374313
 21
60.569565
  0
LINE
  8
型材
  6
CONTINUOUS
 10
66.63177
 20
59.574113
 11
23.374313
 21
59.574113
  0
LINE
  8
型材
  6
CONTINUOUS
 10
67.627253
 20
58.57866
 11
23.374313
 21
58.57866
  0
LINE
  8
型材
  6
CONTINUOUS
 10
68.622735
 20
57.583208
 11
23.374313
 21
57.583208
  0
LINE
  8
型材
  6
CONTINUOUS
 10
69.618217
 20
56.587755
 11
23.374313
 21
56.587755
  0
LINE
  8
型材
  6
CONTINUOUS
 10
70.6137
 20
55.592303
 11
23.374313
 21
55.592303
  0
LINE
  8
型材
  6
CONTINUOUS
 10
71.609182
 20
54.59685
 11
23.374313
 21
54.59685
  0
LINE
  8
型材
  6
CONTINUOUS
 10
72.604665
 20
53.601397
 11
23.374313
 21
53.601397
  0
LINE
  8
型材
  6
CONTINUOUS
 10
73.600155
 20
52.605945
 11
23.374313
 21
52.605945
  0
LINE
  8
型材
  6
CONTINUOUS
 10
74.595637
 20
51.610492
 11
23.374313
 21
51.610492
  0
LINE
  8
型材
  6
CONTINUOUS
 10
75.59112
 20
50.61504
 11
23.374313
 21
50.61504
  0
LINE
  8
型材
  6
CONTINUOUS
 10
76.586602
 20
49.619587
 11
23.374313
 21
49.619587
  0
LINE
  8
型材
  6
CONTINUOUS
 10
77.582085
 20
48.624135
 11
23.374313
 21
48.624135
  0
LINE
  8
型材
  6
CONTINUOUS
 10
78.577568
 20
47.628682
 11
23.374313
 21
47.628682
  0
LINE
  8
型材
  6
CONTINUOUS
 10
79.57305
 20
46.63323
 11
23.374313
 21
46.63323
  0
LINE
  8
型材
  6
CONTINUOUS
 10
80.568533
 20
45.637778
 11
23.374313
 21
45.637778
  0
LINE
  8
型材
  6
CONTINUOUS
 10
81.564015
 20
44.642325
 11
23.374313
 21
44.642325
  0
LINE
  8
型材
  6
CONTINUOUS
 10
82.559497
 20
43.646873
 11
23.374313
 21
43.646873
  0
LINE
  8
型材
  6
CONTINUOUS
 10
83.55498
 20
42.65142
 11
23.374313
 21
42.65142
  0
LINE
  8
型材
  6
CONTINUOUS
 10
84.550462
 20
41.655968
 11
23.374313
 21
41.655968
  0
LINE
  8
型材
  6
CONTINUOUS
 10
85.545953
 20
40.660515
 11
23.374313
 21
40.660515
  0
LINE
  8
型材
  6
CONTINUOUS
 10
86.541435
 20
39.665063
 11
23.374313
 21
39.665063
  0
LINE
  8
型材
  6
CONTINUOUS
 10
87.536917
 20
38.66961
 11
23.374313
 21
38.66961
  0
LINE
  8
型材
  6
CONTINUOUS
 10
88.5324
 20
37.674158
 11
23.374313
 21
37.674158
  0
LINE
  8
型材
  6
CONTINUOUS
 10
89.527882
 20
36.678705
 11
23.374313
 21
36.678705
  0
LINE
  8
型材
  6
CONTINUOUS
 10
90.523365
 20
35.683252
 11
23.374313
 21
35.683252
  0
LINE
  8
型材
  6
CONTINUOUS
 10
91.518848
 20
34.6878
 11
23.374313
 21
34.6878
  0
LINE
  8
型材
  6
CONTINUOUS
 10
92.51433
 20
33.692347
 11
23.374313
 21
33.692347
  0
LINE
  8
型材
  6
CONTINUOUS
 10
93.509813
 20
32.696895
 11
23.374313
 21
32.696895
  0
LINE
  8
型材
  6
CONTINUOUS
 10
94.505295
 20
31.701442
 11
23.374313
 21
31.701442
  0
LINE
  8
型材
  6
CONTINUOUS
 10
95.500777
 20
30.70599
 11
23.374313
 21
30.70599
  0
LINE
  8
型材
  6
CONTINUOUS
 10
96.496268
 20
29.710537
 11
23.374313
 21
29.710537
  0
LINE
  8
型材
  6
CONTINUOUS
 10
97.49175
 20
28.715085
 11
23.374313
 21
28.715085
  0
LINE
  8
型材
  6
CONTINUOUS
 10
98.487233
 20
27.719633
 11
23.374313
 21
27.719633
  0
LINE
  8
型材
  6
CONTINUOUS
 10
99.482715
 20
26.724172
 11
23.374313
 21
26.724172
  0
LINE
  8
型材
  6
CONTINUOUS
 10
100.478197
 20
25.72872
 11
23.374313
 21
25.72872
  0
LINE
  8
型材
  6
CONTINUOUS
 10
101.47368
 20
24.733267
 11
23.374313
 21
24.733267
  0
LINE
  8
型材
  6
CONTINUOUS
 10
102.469162
 20
23.737815
 11
23.374313
 21
23.737815
  0
LINE
  8
型材
  6
CONTINUOUS
 10
103.464645
 20
22.742362
 11
23.374313
 21
22.742362
  0
LINE
  8
型材
  6
CONTINUOUS
 10
104.460128
 20
21.74691
 11
23.374313
 21
21.74691
  0
LINE
  8
型材
  6
CONTINUOUS
 10
105.45561
 20
20.751457
 11
23.374313
 21
20.751457
  0
LINE
  8
型材
  6
CONTINUOUS
 10
106.451093
 20
19.756005
 11
23.374313
 21
19.756005
  0
LINE
  8
型材
  6
CONTINUOUS
 10
107.446582
 20
18.760553
 11
23.374313
 21
18.760553
  0
LINE
  8
型材
  6
CONTINUOUS
 10
108.442065
 20
17.7651
 11
23.374313
 21
17.7651
  0
LINE
  8
型材
  6
CONTINUOUS
 10
109.437548
 20
16.769648
 11
23.374313
 21
16.769648
  0
LINE
  8
型材
  6
CONTINUOUS
 10
110.43303
 20
15.774195
 11
23.374313
 21
15.774195
  0
LINE
  8
型材
  6
CONTINUOUS
 10
111.428513
 20
14.778743
 11
23.374313
 21
14.778743
  0
LINE
  8
型材
  6
CONTINUOUS
 10
112.423995
 20
13.78329
 11
23.374313
 21
13.78329
  0
LINE
  8
型材
  6
CONTINUOUS
 10
113.419478
 20
12.787838
 11
23.374313
 21
12.787838
  0
LINE
  8
型材
  6
CONTINUOUS
 10
114.41496
 20
11.792385
 11
23.374313
 21
11.792385
  0
LINE
  8
型材
  6
CONTINUOUS
 10
115.410442
 20
10.796933
 11
23.374313
 21
10.796933
  0
LINE
  8
型材
  6
CONTINUOUS
 10
116.405925
 20
9.80148
 11
23.374313
 21
9.80148
  0
LINE
  8
型材
  6
CONTINUOUS
 10
117.401407
 20
8.806027
 11
23.374313
 21
8.806027
  0
LINE
  8
型材
  6
CONTINUOUS
 10
118.396897
 20
7.810575
 11
23.374313
 21
7.810575
  0
LINE
  8
型材
  6
CONTINUOUS
 10
119.39238
 20
6.815122
 11
23.374313
 21
6.815122
  0
LINE
  8
型材
  6
CONTINUOUS
 10
120.387862
 20
5.81967
 11
23.374313
 21
5.81967
  0
LINE
  8
型材
  6
CONTINUOUS
 10
121.383345
 20
4.824217
 11
23.374313
 21
4.824217
  0
LINE
  8
型材
  6
CONTINUOUS
 10
122.378828
 20
3.828765
 11
23.374313
 21
3.828765
  0
LINE
  8
型材
  6
CONTINUOUS
 10
22.922632
 20
102.378578
 11
23.374313
 21
102.378578
  0
LINE
  8
型材
  6
CONTINUOUS
 10
21.92715
 20
101.383125
 11
23.374313
 21
101.383125
  0
LINE
  8
型材
  6
CONTINUOUS
 10
20.931668
 20
100.387673
 11
23.374313
 21
100.387673
  0
LINE
  8
型材
  6
CONTINUOUS
 10
19.936185
 20
99.39222
 11
23.374313
 21
99.39222
  0
LINE
  8
型材
  6
CONTINUOUS
 10
18.940703
 20
98.396767
 11
23.374313
 21
98.396767
  0
LINE
  8
型材
  6
CONTINUOUS
 10
17.94522
 20
97.401315
 11
23.374313
 21
97.401315
  0
LINE
  8
型材
  6
CONTINUOUS
 10
16.94973
 20
96.405862
 11
23.374313
 21
96.405862
  0
LINE
  8
型材
  6
CONTINUOUS
 10
15.954248
 20
95.41041
 11
23.374313
 21
95.41041
  0
LINE
  8
型材
  6
CONTINUOUS
 10
14.958765
 20
94.414957
 11
23.374313
 21
94.414957
  0
LINE
  8
型材
  6
CONTINUOUS
 10
13.963283
 20
93.419505
 11
23.374313
 21
93.419505
  0
LINE
  8
型材
  6
CONTINUOUS
 10
12.9678
 20
92.424052
 11
23.374313
 21
92.424052
  0
LINE
  8
型材
  6
CONTINUOUS
 10
11.972317
 20
91.4286
 11
23.374313
 21
91.4286
  0
LINE
  8
型材
  6
CONTINUOUS
 10
10.976835
 20
90.433148
 11
23.374313
 21
90.433148
  0
LINE
  8
型材
  6
CONTINUOUS
 10
9.981352
 20
89.437695
 11
23.374313
 21
89.437695
  0
LINE
  8
型材
  6
CONTINUOUS
 10
8.98587
 20
88.442243
 11
23.374313
 21
88.442243
  0
LINE
  8
型材
  6
CONTINUOUS
 10
7.990387
 20
87.44679
 11
23.374313
 21
87.44679
  0
LINE
  8
型材
  6
CONTINUOUS
 10
6.994905
 20
86.451338
 11
23.374313
 21
86.451338
  0
LINE
  8
型材
  6
CONTINUOUS
 10
5.999415
 20
85.455885
 11
23.374313
 21
85.455885
  0
LINE
  8
型材
  6
CONTINUOUS
 10
5.003932
 20
84.460433
 11
23.374313
 21
84.460433
  0
LINE
  8
型材
  6
CONTINUOUS
 10
4.00845
 20
83.46498
 11
23.374313
 21
83.46498
  0
LINE
  8
型材
  6
CONTINUOUS
 10
3.012968
 20
82.469527
 11
23.374313
 21
82.469527
  0
LINE
  8
型材
  6
CONTINUOUS
 10
2.017485
 20
81.474075
 11
23.374313
 21
81.474075
  0
LINE
  8
型材
  6
CONTINUOUS
 10
1.022003
 20
80.478622
 11
23.374313
 21
80.478622
  0
LINE
  8
型材
  6
CONTINUOUS
 10
0.02652
 20
79.48317
 11
23.374313
 21
79.48317
  0
LINE
  8
型材
  6
CONTINUOUS
 10
-0.968962
 20
78.487717
 11
23.374313
 21
78.487717
  0
LINE
  8
型材
  6
CONTINUOUS
 10
-1.964445
 20
77.492265
 11
23.374313
 21
77.492265
  0
LINE
  8
型材
  6
CONTINUOUS
 10
-2.959927
 20
76.496805
 11
23.374313
 21
76.496805
  0
LINE
  8
型材
  6
CONTINUOUS
 10
-3.95541
 20
75.501353
 11
23.374313
 21
75.501353
  0
LINE
  8
型材
  6
CONTINUOUS
 10
-4.9509
 20
74.5059
 11
23.374313
 21
74.5059
  0
LINE
  8
型材
  6
CONTINUOUS
 10
-5.946382
 20
73.510448
 11
23.374313
 21
73.510448
  0
LINE
  8
型材
  6
CONTINUOUS
 10
-6.941865
 20
72.514995
 11
23.374313
 21
72.514995
  0
LINE
  8
型材
  6
CONTINUOUS
 10
-7.937348
 20
71.519542
 11
23.374313
 21
71.519542
  0
LINE
  8
型材
  6
CONTINUOUS
 10
-8.93283
 20
70.52409
 11
23.374313
 21
70.52409
  0
LINE
  8
型材
  6
CONTINUOUS
 10
-9.928312
 20
69.528637
 11
23.374313
 21
69.528637
  0
LINE
  8
型材
  6
CONTINUOUS
 10
-10.923795
 20
68.533185
 11
23.374313
 21
68.533185
  0
LINE
  8
型材
  6
CONTINUOUS
 10
-11.919278
 20
67.537732
 11
23.374313
 21
67.537732
  0
LINE
  8
型材
  6
CONTINUOUS
 10
-12.91476
 20
66.54228
 11
23.374313
 21
66.54228
  0
LINE
  8
型材
  6
CONTINUOUS
 10
-13.910243
 20
65.546827
 11
23.374313
 21
65.546827
  0
LINE
  8
型材
  6
CONTINUOUS
 10
-14.905725
 20
64.551375
 11
23.374313
 21
64.551375
  0
LINE
  8
型材
  6
CONTINUOUS
 10
-15.901215
 20
63.555923
 11
23.374313
 21
63.555923
  0
LINE
  8
型材
  6
CONTINUOUS
 10
-16.896698
 20
62.56047
 11
23.374313
 21
62.56047
  0
LINE
  8
型材
  6
CONTINUOUS
 10
-17.89218
 20
61.565018
 11
23.374313
 21
61.565018
  0
LINE
  8
型材
  6
CONTINUOUS
 10
-18.887662
 20
60.569565
 11
23.374313
 21
60.569565
  0
LINE
  8
型材
  6
CONTINUOUS
 10
-19.883145
 20
59.574113
 11
23.374313
 21
59.574113
  0
LINE
  8
型材
  6
CONTINUOUS
 10
-20.878628
 20
58.57866
 11
23.374313
 21
58.57866
  0
LINE
  8
型材
  6
CONTINUOUS
 10
-21.87411
 20
57.583208
 11
23.374313
 21
57.583208
  0
LINE
  8
型材
  6
CONTINUOUS
 10
-22.869593
 20
56.587755
 11
23.374313
 21
56.587755
  0
LINE
  8
型材
  6
CONTINUOUS
 10
-23.865075
 20
55.592303
 11
23.374313
 21
55.592303
  0
LINE
  8
型材
  6
CONTINUOUS
 10
-24.860557
 20
54.59685
 11
23.374313
 21
54.59685
  0
LINE
  8
型材
  6
CONTINUOUS
 10
-25.85604
 20
53.601397
 11
23.374313
 21
53.601397
  0
LINE
  8
型材
  6
CONTINUOUS
 10
-26.85153
 20
52.605945
 11
23.374313
 21
52.605945
  0
LINE
  8
型材
  6
CONTINUOUS
 10
-27.847012
 20
51.610492
 11
23.374313
 21
51.610492
  0
LINE
  8
型材
  6
CONTINUOUS
 10
-28.842495
 20
50.61504
 11
23.374313
 21
50.61504
  0
LINE
  8
型材
  6
CONTINUOUS
 10
-29.837978
 20
49.619587
 11
23.374313
 21
49.619587
  0
LINE
  8
型材
  6
CONTINUOUS
 10
-30.83346
 20
48.624135
 11
23.374313
 21
48.624135
  0
LINE
  8
型材
  6
CONTINUOUS
 10
-31.828942
 20
47.628682
 11
23.374313
 21
47.628682
  0
LINE
  8
型材
  6
CONTINUOUS
 10
-32.824425
 20
46.63323
 11
23.374313
 21
46.63323
  0
LINE
  8
型材
  6
CONTINUOUS
 10
-33.819908
 20
45.637778
 11
23.374313
 21
45.637778
  0
LINE
  8
型材
  6
CONTINUOUS
 10
-34.81539
 20
44.642325
 11
23.374313
 21
44.642325
  0
LINE
  8
型材
  6
CONTINUOUS
 10
-35.810873
 20
43.646873
 11
23.374313
 21
43.646873
  0
LINE
  8
型材
  6
CONTINUOUS
 10
-36.806355
 20
42.65142
 11
23.374313
 21
42.65142
  0
LINE
  8
型材
  6
CONTINUOUS
 10
-37.801837
 20
41.655968
 11
23.374313
 21
41.655968
  0
LINE
  8
型材
  6
CONTINUOUS
 10
-38.797328
 20
40.660515
 11
23.374313
 21
40.660515
  0
LINE
  8
型材
  6
CONTINUOUS
 10
-39.79281
 20
39.665063
 11
23.374313
 21
39.665063
  0
LINE
  8
型材
  6
CONTINUOUS
 10
-40.788292
 20
38.66961
 11
23.374313
 21
38.66961
  0
LINE
  8
型材
  6
CONTINUOUS
 10
-41.783775
 20
37.674158
 11
23.374313
 21
37.674158
  0
LINE
  8
型材
  6
CONTINUOUS
 10
-42.779258
 20
36.678705
 11
23.374313
 21
36.678705
  0
LINE
  8
型材
  6
CONTINUOUS
 10
-43.77474
 20
35.683252
 11
23.374313
 21
35.683252
  0
LINE
  8
型材
  6
CONTINUOUS
 10
-44.770223
 20
34.6878
 11
23.374313
 21
34.6878
  0
LINE
  8
型材
  6
CONTINUOUS
 10
-45.765705
 20
33.692347
 11
23.374313
 21
33.692347
  0
LINE
  8
型材
  6
CONTINUOUS
 10
-46.761187
 20
32.696895
 11
23.374313
 21
32.696895
  0
LINE
  8
型材
  6
CONTINUOUS
 10
-47.75667
 20
31.701442
 11
23.374313
 21
31.701442
  0
LINE
  8
型材
  6
CONTINUOUS
 10
-48.752153
 20
30.70599
 11
23.374313
 21
30.70599
  0
LINE
  8
型材
  6
CONTINUOUS
 10
-49.747642
 20
29.710537
 11
23.374313
 21
29.710537
  0
LINE
  8
型材
  6
CONTINUOUS
 10
-50.743125
 20
28.715085
 11
23.374313
 21
28.715085
  0
LINE
  8
型材
  6
CONTINUOUS
 10
-51.738608
 20
27.719633
 11
23.374313
 21
27.719633
  0
LINE
  8
型材
  6
CONTINUOUS
 10
-52.73409
 20
26.724172
 11
23.374313
 21
26.724172
  0
LINE
  8
型材
  6
CONTINUOUS
 10
-53.729572
 20
25.72872
 11
23.374313
 21
25.72872
  0
LINE
  8
型材
  6
CONTINUOUS
 10
-54.725055
 20
24.733267
 11
23.374313
 21
24.733267
  0
LINE
  8
型材
  6
CONTINUOUS
 10
-55.720537
 20
23.737815
 11
23.374313
 21
23.737815
  0
LINE
  8
型材
  6
CONTINUOUS
 10
-56.71602
 20
22.742362
 11
23.374313
 21
22.742362
  0
LINE
  8
型材
  6
CONTINUOUS
 10
-57.711503
 20
21.74691
 11
23.374313
 21
21.74691
  0
LINE
  8
型材
  6
CONTINUOUS
 10
-58.706985
 20
20.751457
 11
23.374313
 21
20.751457
  0
LINE
  8
型材
  6
CONTINUOUS
 10
-59.702467
 20
19.756005
 11
23.374313
 21
19.756005
  0
LINE
  8
型材
  6
CONTINUOUS
 10
-60.697958
 20
18.760553
 11
23.374313
 21
18.760553
  0
LINE
  8
型材
  6
CONTINUOUS
 10
-61.69344
 20
17.7651
 11
23.374313
 21
17.7651
  0
LINE
  8
型材
  6
CONTINUOUS
 10
-62.688922
 20
16.769648
 11
23.374313
 21
16.769648
  0
LINE
  8
型材
  6
CONTINUOUS
 10
-63.684405
 20
15.774195
 11
23.374313
 21
15.774195
  0
LINE
  8
型材
  6
CONTINUOUS
 10
-64.679888
 20
14.778743
 11
23.374313
 21
14.778743
  0
LINE
  8
型材
  6
CONTINUOUS
 10
-65.67537
 20
13.78329
 11
23.374313
 21
13.78329
  0
LINE
  8
型材
  6
CONTINUOUS
 10
-66.670852
 20
12.787838
 11
23.374313
 21
12.787838
  0
LINE
  8
型材
  6
CONTINUOUS
 10
-67.666335
 20
11.792385
 11
23.374313
 21
11.792385
  0
LINE
  8
型材
  6
CONTINUOUS
 10
-68.661817
 20
10.796933
 11
23.374313
 21
10.796933
  0
LINE
  8
型材
  6
CONTINUOUS
 10
-69.6573
 20
9.80148
 11
23.374313
 21
9.80148
  0
LINE
  8
型材
  6
CONTINUOUS
 10
-70.652783
 20
8.806027
 11
23.374313
 21
8.806027
  0
LINE
  8
型材
  6
CONTINUOUS
 10
-71.648272
 20
7.810575
 11
23.374313
 21
7.810575
  0
LINE
  8
型材
  6
CONTINUOUS
 10
-72.643755
 20
6.815122
 11
23.374313
 21
6.815122
  0
LINE
  8
型材
  6
CONTINUOUS
 10
-73.639238
 20
5.81967
 11
23.374313
 21
5.81967
  0
LINE
  8
型材
  6
CONTINUOUS
 10
-74.63472
 20
4.824217
 11
23.374313
 21
4.824217
  0
LINE
  8
型材
  6
CONTINUOUS
 10
-75.630202
 20
3.828765
 11
23.374313
 21
3.828765
  0
LINE
  8
型材
  6
CONTINUOUS
 10
-79.125735
 20
0.333323
 11
-77.711542
 21
-1.080915
  0
LINE
  8
型材
  6
CONTINUOUS
 10
125.874367
 20
0.333323
 11
124.460175
 21
-1.080915
  0
LINE
  8
型材
  6
CONTINUOUS
 10
23.374313
 20
-1.08093
 11
124.46016
 21
-1.08093
  0
LINE
  8
型材
  6
CONTINUOUS
 10
23.374313
 20
102.830242
 11
125.874375
 21
0.33333
  0
LINE
  8
型材
  6
CONTINUOUS
 10
23.374313
 20
1.833315
 11
124.374345
 21
1.833315
  0
LINE
  8
型材
  6
CONTINUOUS
 10
125.874367
 20
0.333323
 11
23.374313
 21
0.333323
  0
LINE
  8
型材
  6
CONTINUOUS
 10
125.37438
 20
0.83331
 11
23.374313
 21
0.83331
  0
LINE
  8
型材
  6
CONTINUOUS
 10
23.374313
 20
-1.08093
 11
-77.711535
 21
-1.08093
  0
LINE
  8
型材
  6
CONTINUOUS
 10
23.374313
 20
1.833315
 11
-77.62572
 21
1.833315
  0
LINE
  8
型材
  6
CONTINUOUS
 10
-79.125742
 20
0.333323
 11
23.374313
 21
0.333323
  0
LINE
  8
型材
  6
CONTINUOUS
 10
-78.625755
 20
0.83331
 11
23.374313
 21
0.83331
  0
LINE
  8
型材
  6
CONTINUOUS
 10
23.374313
 20
102.830242
 11
-79.125742
 21
0.33333
  0
LINE
  8
型材
  6
CONTINUOUS
 10
23.374313
 20
2.833312
 11
-76.625685
 21
2.833312
  0
ENDBLK
  0
BLOCK
  2
*GRP_0003
 70
    65
 10
0.0
 20
0.0
  0
ARC
  8
型材断面
  6
CONTINUOUS
 62
    47
 10
-125.116386
 20
-121.451015
 40
1.0
 50
194.999112
 51
284.999112
  0
LINE
  8
型材断面
  6
CONTINUOUS
 62
    47
 10
-126.08327
 20
-121.706172
 11
-141.351757
 21
-64.719925
  0
LINE
  8
型材断面
  6
CONTINUOUS
 62
    47
 10
-99.634445
 20
-23.003928
 11
-141.351753
 21
-64.719932
  0
LINE
  8
型材断面
  6
CONTINUOUS
 62
    47
 10
-124.612162
 20
-79.558385
 11
-122.58031
 21
-71.975888
  0
LINE
  8
型材断面
  6
CONTINUOUS
 62
    47
 10
-125.866323
 20
-72.648278
 11
-124.417445
 21
-73.036517
  0
LINE
  8
型材断面
  6
CONTINUOUS
 62
    47
 10
-124.921575
 20
-69.122638
 11
-125.866323
 21
-72.648278
  0
LINE
  8
型材断面
  6
CONTINUOUS
 62
    47
 10
-122.58031
 20
-71.975888
 11
-124.318973
 21
-71.509993
  0
LINE
  8
型材断面
  6
CONTINUOUS
 62
    47
 10
-124.318973
 20
-71.509993
 11
-123.762463
 21
-69.433242
  0
LINE
  8
型材断面
  6
CONTINUOUS
 62
    47
 10
-119.435455
 20
-60.239905
 11
-121.467303
 21
-67.822395
  0
LINE
  8
型材断面
  6
CONTINUOUS
 62
    47
 10
-123.976815
 20
-65.597008
 11
-122.527935
 21
-65.98526
  0
LINE
  8
型材断面
  6
CONTINUOUS
 62
    47
 10
-124.921575
 20
-69.122638
 11
-123.976815
 21
-65.597008
  0
LINE
  8
型材断面
  6
CONTINUOUS
 62
    47
 10
-121.467303
 20
-67.822395
 11
-123.205962
 21
-67.356492
  0
LINE
  8
型材断面
  6
CONTINUOUS
 62
    47
 10
-123.205962
 20
-67.356492
 11
-123.762463
 21
-69.433242
  0
LINE
  8
型材断面
  6
CONTINUOUS
 62
    47
 10
-124.417445
 20
-73.036517
 11
-125.836885
 21
-78.33362
  0
LINE
  8
型材断面
  6
CONTINUOUS
 62
    47
 10
-124.612162
 20
-79.558385
 11
-134.58926
 21
-82.231585
  0
LINE
  8
型材断面
  6
CONTINUOUS
 62
    47
 10
-119.435455
 20
-60.239905
 11
-126.739042
 21
-52.936063
  0
LINE
  8
型材断面
  6
CONTINUOUS
 62
    47
 10
-122.527935
 20
-65.98526
 11
-121.108493
 21
-60.68816
  0
LINE
  8
型材断面
  6
CONTINUOUS
 62
    47
 10
-125.836885
 20
-78.33362
 11
-135.460443
 21
-80.912093
  0
LINE
  8
型材断面
  6
CONTINUOUS
 62
    47
 10
-135.460443
 20
-80.912093
 11
-139.678733
 21
-65.168238
  0
LINE
  8
型材断面
  6
CONTINUOUS
 62
    47
 10
-139.678733
 20
-65.168238
 11
-128.153268
 21
-53.643148
  0
LINE
  8
型材断面
  6
CONTINUOUS
 62
    47
 10
-121.108493
 20
-60.68816
 11
-128.153268
 21
-53.643148
  0
LINE
  8
型材断面
  6
CONTINUOUS
 62
    47
 10
-124.857582
 20
-122.416905
 11
-121.95979
 21
-121.640507
  0
LINE
  8
型材断面
  6
CONTINUOUS
 62
    47
 10
-134.58926
 20
-82.231585
 11
-125.962078
 21
-114.43067
  0
LINE
  8
型材断面
  6
CONTINUOUS
 62
    47
 10
-124.0302
 20
-113.913058
 11
-125.962078
 21
-114.43067
  0
LINE
  8
型材断面
  6
CONTINUOUS
 62
    47
 10
-121.95979
 20
-121.640507
 11
-124.030225
 21
-113.913058
  0
ARC
  8
型材断面
  6
CONTINUOUS
 62
    47
 10
-98.924682
 20
-23.708454
 40
1.0
 50
44.999068
 51
134.999068
  0
LINE
  8
型材断面
  6
CONTINUOUS
 62
    47
 10
-98.217565
 20
-23.00132
 11
-96.096275
 21
-25.122678
  0
LINE
  8
型材断面
  6
CONTINUOUS
 62
    47
 10
-101.7532
 20
-30.779455
 11
-103.16741
 21
-29.36521
  0
LINE
  8
型材断面
  6
CONTINUOUS
 62
    47
 10
-96.096275
 20
-25.122678
 11
-101.75322
 21
-30.779443
  0
LINE
  8
型材断面
  6
CONTINUOUS
 62
    47
 10
-126.739042
 20
-52.936063
 11
-103.16743
 21
-29.36519
  0
ENDBLK
  0
BLOCK
  2
*GRP_0004
 70
    65
 10
0.0
 20
0.0
  0
LINE
  8
型材断面
  6
CONTINUOUS
 62
    47
 10
-116.96417
 20
-73.325522
 11
-118.702827
 21
-72.85962
  0
LINE
  8
型材断面
  6
CONTINUOUS
 62
    47
 10
-115.928835
 20
-69.46183
 11
-117.667493
 21
-68.995928
  0
LINE
  8
型材断面
  6
CONTINUOUS
 62
    47
 10
-119.034845
 20
-81.052908
 11
-116.96417
 21
-73.325522
  0
LINE
  8
型材断面
  6
CONTINUOUS
 62
    47
 10
-115.928835
 20
-69.46183
 11
-113.858158
 21
-61.734462
  0
LINE
  8
型材断面
  6
CONTINUOUS
 62
    47
 10
-117.667493
 20
-68.995928
 11
-118.055745
 21
-70.44481
  0
LINE
  8
型材断面
  6
CONTINUOUS
 62
    47
 10
-117.702193
 20
-71.057193
 11
-118.055745
 21
-70.44481
  0
LINE
  8
型材断面
  6
CONTINUOUS
 62
    47
 10
-117.702193
 20
-71.057193
 11
-118.314575
 21
-71.410735
  0
LINE
  8
型材断面
  6
CONTINUOUS
 62
    47
 10
-118.702827
 20
-72.85962
 11
-118.314575
 21
-71.410735
  0
LINE
  8
型材断面
  6
CONTINUOUS
 62
    47
 10
-115.152938
 20
-72.361475
 11
-114.799373
 21
-72.97387
  0
LINE
  8
型材断面
  6
CONTINUOUS
 62
    47
 10
-116.585335
 20
-79.638738
 11
-114.799373
 21
-72.97387
  0
LINE
  8
型材断面
  6
CONTINUOUS
 62
    47
 10
-114.842328
 20
-71.202365
 11
-114.229937
 21
-70.848812
  0
LINE
  8
型材断面
  6
CONTINUOUS
 62
    47
 10
-112.443983
 20
-64.183978
 11
-114.229937
 21
-70.848812
  0
LINE
  8
型材断面
  6
CONTINUOUS
 62
    47
 10
-114.842328
 20
-71.202365
 11
-115.152925
 21
-72.361488
  0
LINE
  8
型材断面
  6
CONTINUOUS
 62
    47
 10
-45.676322
 20
-74.25985
 11
-66.95814
 21
-52.977385
  0
LINE
  8
型材断面
  6
CONTINUOUS
 62
    47
 10
-84.862683
 20
-62.679723
 11
-86.630418
 21
-60.911925
  0
LINE
  8
型材断面
  6
CONTINUOUS
 62
    47
 10
-87.478963
 20
-61.760443
 11
-86.771872
 21
-62.467555
  0
LINE
  8
型材断面
  6
CONTINUOUS
 62
    47
 10
-87.478963
 20
-61.760443
 11
-86.630418
 21
-60.911925
  0
LINE
  8
型材断面
  6
CONTINUOUS
 62
    47
 10
-90.166032
 20
-66.568713
 11
-90.873138
 21
-66.568703
  0
LINE
  8
型材断面
  6
CONTINUOUS
 62
    47
 10
-90.166032
 20
-66.568713
 11
-90.166028
 21
-65.86162
  0
LINE
  8
型材断面
  6
CONTINUOUS
 62
    47
 10
-86.771872
 20
-62.467555
 11
-90.16602
 21
-65.861615
  0
LINE
  8
型材断面
  6
CONTINUOUS
 62
    47
 10
-90.873138
 20
-66.568703
 11
-94.055167
 21
-69.750645
  0
ARC
  8
型材断面
  6
CONTINUOUS
 62
    47
 10
-94.055192
 20
-71.164892
 40
1.0
 50
224.999052
 51
314.999131
  0
LINE
  8
型材断面
  6
CONTINUOUS
 62
    47
 10
-93.348082
 20
-71.871977
 11
-92.64098
 21
-71.164887
  0
ARC
  8
型材断面
  6
CONTINUOUS
 62
    47
 10
-91.93389
 20
-71.87204
 40
1.0
 50
44.999194
 51
134.999219
  0
LINE
  8
型材断面
  6
CONTINUOUS
 62
    47
 10
-76.448283
 20
-53.41643
 11
-75.811873
 21
-54.052835
  0
LINE
  8
型材断面
  6
CONTINUOUS
 62
    47
 10
-77.296797
 20
-53.416395
 11
-76.448283
 21
-53.41643
  0
LINE
  8
型材断面
  6
CONTINUOUS
 62
    47
 10
-72.912692
 20
-49.88095
 11
-72.276307
 21
-50.517355
  0
LINE
  8
型材断面
  6
CONTINUOUS
 62
    47
 10
-72.912692
 20
-49.88095
 11
-72.912677
 21
-49.032413
  0
LINE
  8
型材断面
  6
CONTINUOUS
 62
    47
 10
-72.276307
 20
-50.517355
 11
-70.50853
 21
-48.749643
  0
LINE
  8
型材断面
  6
CONTINUOUS
 62
    47
 10
-72.912677
 20
-49.032413
 11
-70.50849
 21
-46.628302
  0
LINE
  8
型材断面
  6
CONTINUOUS
 62
    47
 10
-75.811873
 20
-54.052835
 11
-77.579688
 21
-55.820575
  0
LINE
  8
型材断面
  6
CONTINUOUS
 62
    47
 10
-77.296797
 20
-53.416395
 11
-79.701008
 21
-55.82054
  0
LINE
  8
型材断面
  6
CONTINUOUS
 62
    47
 10
-68.033677
 20
-51.224538
 11
-70.50853
 21
-48.749643
  0
LINE
  8
型材断面
  6
CONTINUOUS
 62
    47
 10
-75.104857
 20
-58.295488
 11
-77.579688
 21
-55.820575
  0
LINE
  8
型材断面
  6
CONTINUOUS
 62
    47
 10
-76.165525
 20
-59.356125
 11
-79.701008
 21
-55.82054
  0
LINE
  8
型材断面
  6
CONTINUOUS
 62
    47
 10
-44.277012
 20
-72.86059
 11
-70.50849
 21
-46.628302
  0
ARC
  8
型材断面
  6
CONTINUOUS
 62
    47
 10
-44.983922
 20
-61.264069
 40
0.3
 50
44.999067
 51
134.999067
  0
LINE
  8
型材断面
  6
CONTINUOUS
 62
    47
 10
-45.488635
 20
-61.344495
 11
-45.196043
 21
-61.051905
  0
ARC
  8
型材断面
  6
CONTINUOUS
 62
    47
 10
-45.276518
 20
-61.556655
 40
0.3
 50
134.999067
 51
222.304783
  0
LINE
  8
型材断面
  6
CONTINUOUS
 62
    47
 10
-45.498375
 20
-61.75855
 11
-39.62666
 21
-68.21042
  0
LINE
  8
型材断面
  6
CONTINUOUS
 62
    47
 10
-44.77178
 20
-61.051915
 11
-37.205865
 21
-68.618073
  0
LINE
  8
型材断面
  6
CONTINUOUS
 62
    47
 10
-44.277012
 20
-72.86059
 11
-39.62667
 21
-68.210402
  0
LINE
  8
型材断面
  6
CONTINUOUS
 62
    47
 10
-68.033677
 20
-51.224538
 11
-75.104857
 21
-58.295488
  0
LINE
  8
型材断面
  6
CONTINUOUS
 62
    47
 10
-112.443983
 20
-64.183978
 11
-98.791823
 21
-67.842303
  0
LINE
  8
型材断面
  6
CONTINUOUS
 62
    47
 10
-94.762305
 20
-71.871947
 11
-98.791823
 21
-67.842303
  0
LINE
  8
型材断面
  6
CONTINUOUS
 62
    47
 10
-113.858158
 20
-61.734462
 11
-97.75652
 21
-66.049153
  0
LINE
  8
型材断面
  6
CONTINUOUS
 62
    47
 10
-94.055188
 20
-69.750633
 11
-97.75652
 21
-66.049153
  0
LINE
  8
型材断面
  6
CONTINUOUS
 62
    47
 10
-53.725683
 20
-104.29857
 11
-82.797763
 21
-112.087895
  0
LINE
  8
型材断面
  6
CONTINUOUS
 62
    47
 10
-93.451828
 20
-94.73282
 11
-95.866655
 21
-95.37984
  0
LINE
  8
型材断面
  6
CONTINUOUS
 62
    47
 10
-96.177218
 20
-94.220717
 11
-95.211295
 21
-93.96191
  0
LINE
  8
型材断面
  6
CONTINUOUS
 62
    47
 10
-96.177218
 20
-94.220717
 11
-95.866655
 21
-95.37984
  0
LINE
  8
型材断面
  6
CONTINUOUS
 62
    47
 10
-96.099985
 20
-88.71309
 11
-96.712335
 21
-88.359535
  0
LINE
  8
型材断面
  6
CONTINUOUS
 62
    47
 10
-96.099985
 20
-88.71309
 11
-96.453542
 21
-89.325447
  0
LINE
  8
型材断面
  6
CONTINUOUS
 62
    47
 10
-95.211295
 20
-93.96191
 11
-96.453545
 21
-89.325457
  0
LINE
  8
型材断面
  6
CONTINUOUS
 62
    47
 10
-96.712335
 20
-88.359535
 11
-97.876955
 21
-84.012838
  0
ARC
  8
型材断面
  6
CONTINUOUS
 62
    47
 10
-97.169831
 20
-82.788145
 40
1.0
 50
14.999049
 51
104.999128
  0
LINE
  8
型材断面
  6
CONTINUOUS
 62
    47
 10
-96.203895
 20
-82.529305
 11
-95.945095
 21
-83.495225
  0
ARC
  8
型材断面
  6
CONTINUOUS
 62
    47
 10
-94.97917
 20
-83.236457
 40
1.0
 50
194.998961
 51
284.998986
  0
LINE
  8
型材断面
  6
CONTINUOUS
 62
    47
 10
-90.79678
 20
-106.96235
 11
-89.927427
 21
-106.729438
  0
LINE
  8
型材断面
  6
CONTINUOUS
 62
    47
 10
-91.531617
 20
-106.538098
 11
-90.79678
 21
-106.96235
  0
LINE
  8
型材断面
  6
CONTINUOUS
 62
    47
 10
-89.502758
 20
-111.792005
 11
-88.633422
 21
-111.559085
  0
LINE
  8
型材断面
  6
CONTINUOUS
 62
    47
 10
-89.502758
 20
-111.792005
 11
-89.927042
 21
-112.526845
  0
LINE
  8
型材断面
  6
CONTINUOUS
 62
    47
 10
-88.633422
 20
-111.559085
 11
-87.98642
 21
-113.973875
  0
LINE
  8
型材断面
  6
CONTINUOUS
 62
    47
 10
-89.927042
 20
-112.526845
 11
-89.047123
 21
-115.810995
  0
LINE
  8
型材断面
  6
CONTINUOUS
 62
    47
 10
-89.927427
 20
-106.729438
 11
-90.574453
 21
-104.314603
  0
LINE
  8
型材断面
  6
CONTINUOUS
 62
    47
 10
-91.531617
 20
-106.538098
 11
-92.41156
 21
-103.25391
  0
LINE
  8
型材断面
  6
CONTINUOUS
 62
    47
 10
-84.605663
 20
-113.068083
 11
-87.98642
 21
-113.973875
  0
LINE
  8
型材断面
  6
CONTINUOUS
 62
    47
 10
-87.193692
 20
-103.408795
 11
-90.574453
 21
-104.314603
  0
LINE
  8
型材断面
  6
CONTINUOUS
 62
    47
 10
-87.581887
 20
-101.959903
 11
-92.41156
 21
-103.25391
  0
LINE
  8
型材断面
  6
CONTINUOUS
 62
    47
 10
-53.21353
 20
-106.210045
 11
-89.047123
 21
-115.810995
  0
ARC
  8
型材断面
  6
CONTINUOUS
 62
    47
 10
-59.624328
 20
-115.899337
 40
0.3
 50
194.999113
 51
284.999113
  0
LINE
  8
型材断面
  6
CONTINUOUS
 62
    47
 10
-60.02119
 20
-115.577262
 11
-59.914095
 21
-115.976937
  0
ARC
  8
型材断面
  6
CONTINUOUS
 62
    47
 10
-59.731418
 20
-115.499649
 40
0.3
 50
107.693397
 51
194.999113
  0
LINE
  8
型材断面
  6
CONTINUOUS
 62
    47
 10
-59.822583
 20
-115.213803
 11
-51.511505
 21
-112.562447
  0
LINE
  8
型材断面
  6
CONTINUOUS
 62
    47
 10
-59.546675
 20
-116.189075
 11
-49.211233
 21
-113.419875
  0
LINE
  8
型材断面
  6
CONTINUOUS
 62
    47
 10
-53.21353
 20
-106.210045
 11
-51.511525
 21
-112.56246
  0
LINE
  8
型材断面
  6
CONTINUOUS
 62
    47
 10
-84.605663
 20
-113.068083
 11
-87.193692
 21
-103.408795
  0
LINE
  8
型材断面
  6
CONTINUOUS
 62
    47
 10
-116.58533
 20
-79.638707
 11
-102.93316
 21
-83.297022
  0
LINE
  8
型材断面
  6
CONTINUOUS
 62
    47
 10
-97.42863
 20
-81.82218
 11
-102.93316
 21
-83.297022
  0
LINE
  8
型材断面
  6
CONTINUOUS
 62
    47
 10
-119.034847
 20
-81.05289
 11
-102.933213
 21
-85.367585
  0
LINE
  8
型材断面
  6
CONTINUOUS
 62
    47
 10
-97.87698
 20
-84.012845
 11
-102.933213
 21
-85.367585
  0
LINE
  8
型材断面
  6
CONTINUOUS
 62
    47
 10
-49.21125
 20
-113.419877
 11
-56.141733
 21
-87.55332
  0
LINE
  8
型材断面
  6
CONTINUOUS
 62
    47
 10
-37.205883
 20
-68.618055
 11
-56.141733
 21
-87.55332
  0
LINE
  8
型材断面
  6
CONTINUOUS
 62
    47
 10
-53.731142
 20
-104.278185
 11
-58.372422
 21
-86.955567
  0
LINE
  8
型材断面
  6
CONTINUOUS
 62
    47
 10
-45.691248
 20
-74.27478
 11
-58.372422
 21
-86.955567
  0
LINE
  8
型材断面
  6
CONTINUOUS
 62
    47
 10
-82.803218
 20
-112.067512
 11
-88.885077
 21
-89.368182
  0
LINE
  8
型材断面
  6
CONTINUOUS
 62
    47
 10
-88.885077
 20
-89.368182
 11
-90.140348
 21
-89.704508
  0
LINE
  8
型材断面
  6
CONTINUOUS
 62
    47
 10
-94.720365
 20
-84.202355
 11
-93.75443
 21
-83.943545
  0
LINE
  8
型材断面
  6
CONTINUOUS
 62
    47
 10
-91.304955
 20
-85.357817
 11
-90.140348
 21
-89.704508
  0
ARC
  8
型材断面
  6
CONTINUOUS
 62
    47
 10
-93.236829
 20
-85.875446
 40
2.0
 50
14.998934
 51
104.999024
  0
LINE
  8
型材断面
  6
CONTINUOUS
 62
    47
 10
-83.590297
 20
-69.609048
 11
-84.509205
 21
-68.690122
  0
LINE
  8
型材断面
  6
CONTINUOUS
 62
    47
 10
-87.691227
 20
-71.872067
 11
-84.509205
 21
-68.690122
  0
ARC
  8
型材断面
  6
CONTINUOUS
 62
    47
 10
-89.10544
 20
-70.457869
 40
2.0
 50
224.999157
 51
314.999246
  0
LINE
  8
型材断面
  6
CONTINUOUS
 62
    47
 10
-91.22677
 20
-71.164905
 11
-90.519668
 21
-71.872025
  0
LINE
  8
型材断面
  6
CONTINUOUS
 62
    47
 10
-66.973073
 20
-52.992315
 11
-83.590297
 21
-69.609048
  0
LINE
  8
型材断面
  6
CONTINUOUS
 62
    47
 10
-87.581913
 20
-101.95991
 11
-90.29934
 21
-91.817652
  0
LINE
  8
型材断面
  6
CONTINUOUS
 62
    47
 10
-93.451828
 20
-94.73282
 11
-93.969442
 21
-92.800975
  0
LINE
  8
型材断面
  6
CONTINUOUS
 62
    47
 10
-93.969442
 20
-92.800975
 11
-90.29934
 21
-91.817652
  0
LINE
  8
型材断面
  6
CONTINUOUS
 62
    47
 10
-86.276912
 20
-64.093902
 11
-83.59026
 21
-66.780623
  0
LINE
  8
型材断面
  6
CONTINUOUS
 62
    47
 10
-84.862683
 20
-62.679723
 11
-86.276912
 21
-64.093902
  0
LINE
  8
型材断面
  6
CONTINUOUS
 62
    47
 10
-76.16553
 20
-59.356115
 11
-83.59026
 21
-66.780623
  0
ENDBLK
  0
BLOCK
  2
*GRP_0005
 70
    65
 10
0.0
 20
0.0
  0
LINE
  8
01
  6
CONTINUOUS
 62
    63
 10
-122.541943
 20
-71.830825
 11
-124.280602
 21
-71.36493
  0
LINE
  8
01
  6
CONTINUOUS
 62
    63
 10
-121.506595
 20
-67.967143
 11
-123.245268
 21
-67.501253
  0
LINE
  8
01
  6
CONTINUOUS
 62
    63
 10
-124.612627
 20
-79.558215
 11
-122.541943
 21
-71.830825
  0
LINE
  8
01
  6
CONTINUOUS
 62
    63
 10
-121.506595
 20
-67.967143
 11
-119.43592
 21
-60.239783
  0
LINE
  8
01
  6
CONTINUOUS
 62
    63
 10
-123.245268
 20
-67.501253
 11
-123.633507
 21
-68.950122
  0
LINE
  8
01
  6
CONTINUOUS
 62
    63
 10
-123.27997
 20
-69.5625
 11
-123.633507
 21
-68.950122
  0
LINE
  8
01
  6
CONTINUOUS
 62
    63
 10
-123.27997
 20
-69.5625
 11
-123.892353
 21
-69.916047
  0
LINE
  8
01
  6
CONTINUOUS
 62
    63
 10
-124.280602
 20
-71.36493
 11
-123.892353
 21
-69.916047
  0
LINE
  8
01
  6
CONTINUOUS
 62
    63
 10
-117.628605
 20
-68.85101
 11
-115.88994
 21
-69.31692
  0
LINE
  8
01
  6
CONTINUOUS
 62
    63
 10
-118.741597
 20
-73.004508
 11
-117.00294
 21
-73.47041
  0
LINE
  8
01
  6
CONTINUOUS
 62
    63
 10
-118.741597
 20
-73.004508
 11
-117.628605
 21
-68.85101
  0
LINE
  8
01
  6
CONTINUOUS
 62
    63
 10
-119.435998
 20
-60.239815
 11
-113.858108
 21
-61.734483
  0
LINE
  8
01
  6
CONTINUOUS
 62
    63
 10
-115.88994
 20
-69.31692
 11
-113.858108
 21
-61.734483
  0
LINE
  8
01
  6
CONTINUOUS
 62
    63
 10
-117.00294
 20
-73.47041
 11
-119.034803
 21
-81.052925
  0
LINE
  8
01
  6
CONTINUOUS
 62
    63
 10
-124.61264
 20
-79.558265
 11
-119.034803
 21
-81.052925
  0
LINE
  8
01
  6
CONTINUOUS
 62
    63
 10
-117.869082
 20
-73.23832
 11
-117.235042
 21
-74.33655
  0
LINE
  8
01
  6
CONTINUOUS
 62
    63
 10
-123.246577
 20
-79.924325
 11
-124.24658
 21
-78.1922
  0
LINE
  8
01
  6
CONTINUOUS
 62
    63
 10
-121.880555
 20
-80.290367
 11
-123.880525
 21
-76.826182
  0
LINE
  8
01
  6
CONTINUOUS
 62
    63
 10
-120.514545
 20
-80.656405
 11
-123.514485
 21
-75.46016
  0
LINE
  8
01
  6
CONTINUOUS
 62
    63
 10
-119.148525
 20
-81.02245
 11
-123.148438
 21
-74.094145
  0
LINE
  8
01
  6
CONTINUOUS
 62
    63
 10
-118.699227
 20
-79.800627
 11
-122.782383
 21
-72.72812
  0
LINE
  8
01
  6
CONTINUOUS
 62
    63
 10
-123.439238
 20
-71.590387
 11
-124.055142
 21
-70.523557
  0
LINE
  8
01
  6
CONTINUOUS
 62
    63
 10
-118.333187
 20
-78.434605
 11
-123.41147
 21
-69.638415
  0
LINE
  8
01
  6
CONTINUOUS
 62
    63
 10
-117.967133
 20
-77.068588
 11
-123.32305
 21
-67.791522
  0
LINE
  8
01
  6
CONTINUOUS
 62
    63
 10
-117.601092
 20
-75.70257
 11
-122.169528
 21
-67.789508
  0
LINE
  8
01
  6
CONTINUOUS
 62
    63
 10
-118.5078
 20
-72.131988
 11
-121.318192
 21
-67.26405
  0
LINE
  8
01
  6
CONTINUOUS
 62
    63
 10
-118.14175
 20
-70.765963
 11
-120.952142
 21
-65.89803
  0
LINE
  8
01
  6
CONTINUOUS
 62
    63
 10
-117.775698
 20
-69.399932
 11
-120.58609
 21
-64.531995
  0
LINE
  8
01
  6
CONTINUOUS
 62
    63
 10
-116.811513
 20
-69.06997
 11
-120.220047
 21
-63.16599
  0
LINE
  8
01
  6
CONTINUOUS
 62
    63
 10
-115.770845
 20
-68.872468
 11
-119.854007
 21
-61.799972
  0
LINE
  8
01
  6
CONTINUOUS
 62
    63
 10
-115.404803
 20
-67.506448
 11
-119.487957
 21
-60.433945
  0
LINE
  8
01
  6
CONTINUOUS
 62
    63
 10
-115.038753
 20
-66.140417
 11
-118.26403
 21
-60.553855
  0
LINE
  8
01
  6
CONTINUOUS
 62
    63
 10
-114.672703
 20
-64.774398
 11
-116.898013
 21
-60.919905
  0
LINE
  8
01
  6
CONTINUOUS
 62
    63
 10
-114.306655
 20
-63.408382
 11
-115.532005
 21
-61.285942
  0
ENDBLK
  0
BLOCK
  2
*GRP_0006
 70
    65
 10
0.0
 20
0.0
  0
LINE
  8
ゴム等
  6
CONTINUOUS
 10
-89.61194
 20
-106.748393
 11
-91.350595
 21
-107.214265
  0
LINE
  8
ゴム等
  6
CONTINUOUS
 10
-92.282342
 20
-103.736928
 11
-91.350595
 21
-107.214265
  0
LINE
  8
ゴム等
  6
CONTINUOUS
 10
-88.3696
 20
-111.384837
 11
-90.108275
 21
-111.850713
  0
LINE
  8
ゴム等
  6
CONTINUOUS
 10
-89.176533
 20
-115.328043
 11
-90.108275
 21
-111.850713
  0
LINE
  8
ゴム等
  6
CONTINUOUS
 10
-88.3696
 20
-111.384837
 11
-88.110793
 21
-112.35076
  0
LINE
  8
ゴム等
  6
CONTINUOUS
 10
-88.110793
 20
-112.35076
 11
-87.627827
 21
-112.221353
  0
LINE
  8
ゴム等
  6
CONTINUOUS
 10
-89.61194
 20
-106.748393
 11
-89.87075
 21
-105.78246
  0
LINE
  8
ゴム等
  6
CONTINUOUS
 10
-89.387785
 20
-105.653053
 11
-89.87075
 21
-105.78246
  0
ARC
  8
ゴム等
  6
CONTINUOUS
 10
-88.218034
 20
-108.859566
 40
1.0
 50
-75.000076
 51
14.999924
  0
LINE
  8
ゴム等
  6
CONTINUOUS
 10
-87.252103
 20
-108.60074
 11
-87.252103
 21
-108.60074
  0
ARC
  8
ゴム等
  6
CONTINUOUS
 10
-88.218034
 20
-108.859566
 40
1.0
 50
14.999924
 51
104.999924
  0
LINE
  8
ゴム等
  6
CONTINUOUS
 10
-90.022337
 20
-108.307737
 11
-88.476845
 21
-107.89363
  0
ARC
  8
ゴム等
  6
CONTINUOUS
 10
-89.763515
 20
-109.273675
 40
1.0
 50
104.999924
 51
194.999924
  0
LINE
  8
ゴム等
  6
CONTINUOUS
 10
-90.729435
 20
-109.53249
 11
-90.729435
 21
-109.53249
  0
LINE
  8
ゴム等
  6
CONTINUOUS
 10
-89.504702
 20
-110.239598
 11
-87.95921
 21
-109.825487
  0
ARC
  8
ゴム等
  6
CONTINUOUS
 10
-89.763515
 20
-109.273675
 40
1.0
 50
194.999924
 51
284.999924
  0
LINE
  8
ゴム等
  6
CONTINUOUS
 10
-92.237943
 20
-103.902655
 11
-92.448077
 21
-103.781343
  0
LINE
  8
ゴム等
  6
CONTINUOUS
 10
-88.20328
 20
-112.00558
 11
-87.76561
 21
-112.258273
  0
LINE
  8
ゴム等
  6
CONTINUOUS
 10
-93.814095
 20
-104.147358
 11
-91.871912
 21
-105.268678
  0
LINE
  8
ゴム等
  6
CONTINUOUS
 10
-89.66737
 20
-106.541475
 11
-86.360563
 21
-108.450665
  0
LINE
  8
ゴム等
  6
CONTINUOUS
 10
-95.180123
 20
-104.513385
 11
-91.505895
 21
-106.63471
  0
LINE
  8
ゴム等
  6
CONTINUOUS
 10
-90.771043
 20
-107.058975
 11
-89.056402
 21
-108.048917
  0
LINE
  8
ゴム等
  6
CONTINUOUS
 10
-93.557863
 20
-114.43146
 11
-93.557863
 21
-114.43146
  0
ARC
  8
ゴム等
  6
CONTINUOUS
 10
-94.65321
 20
-114.207323
 40
0.5
 50
284.999924
 51
374.999924
  0
LINE
  8
ゴム等
  6
CONTINUOUS
 10
-95.98197
 20
-107.316417
 11
-94.170245
 21
-114.0779
  0
ARC
  8
ゴム等
  6
CONTINUOUS
 10
-96.464935
 20
-107.44584
 40
0.5
 50
14.999924
 51
104.999924
  0
LINE
  8
ゴム等
  6
CONTINUOUS
 10
-96.594345
 20
-106.962865
 11
-97.111975
 21
-105.031023
  0
LINE
  8
ゴム等
  6
CONTINUOUS
 10
-92.282342
 20
-103.736928
 11
-97.111975
 21
-105.031023
  0
LINE
  8
ゴム等
  6
CONTINUOUS
 10
-90.344643
 20
-108.459853
 11
-96.54615
 21
-104.879405
  0
LINE
  8
ゴム等
  6
CONTINUOUS
 10
-90.75829
 20
-109.37573
 11
-96.897567
 21
-105.831215
  0
LINE
  8
ゴム等
  6
CONTINUOUS
 10
-88.990352
 20
-111.551165
 11
-95.919168
 21
-107.550803
  0
LINE
  8
ゴム等
  6
CONTINUOUS
 10
-90.041795
 20
-112.09881
 11
-95.553145
 21
-108.916823
  0
LINE
  8
ゴム等
  6
CONTINUOUS
 10
-89.675775
 20
-113.464843
 11
-95.18712
 21
-110.282857
  0
LINE
  8
ゴム等
  6
CONTINUOUS
 10
-89.309753
 20
-114.830855
 11
-94.821105
 21
-111.648865
  0
LINE
  8
ゴム等
  6
CONTINUOUS
 10
-90.045382
 20
-115.560858
 11
-94.455075
 21
-113.0149
  0
LINE
  8
ゴム等
  6
CONTINUOUS
 10
-91.411408
 20
-115.926877
 11
-94.169625
 21
-114.334403
  0
LINE
  8
ゴム等
  6
CONTINUOUS
 10
-92.777425
 20
-116.2929
 11
-94.3354
 21
-115.393395
  0
LINE
  8
ゴム等
  6
CONTINUOUS
 10
-89.176533
 20
-115.328043
 11
-94.00617
 21
-116.62213
  0
LINE
  8
ゴム等
  6
CONTINUOUS
 10
-94.523805
 20
-114.690277
 11
-94.00617
 21
-116.62213
  0
LINE
  8
ゴム等
  6
CONTINUOUS
 10
-87.627827
 20
-112.221353
 11
-86.12395
 21
-109.333733
  0
LINE
  8
ゴム等
  6
CONTINUOUS
 10
-89.387785
 20
-105.653053
 11
-86.641593
 21
-107.401873
  0
LINE
  8
ゴム等
  6
CONTINUOUS
 10
-86.12395
 20
-109.333733
 11
-86.641593
 21
-107.401873
  0
LINE
  8
ゴム等
  6
CONTINUOUS
 10
-87.97295
 20
-109.82916
 11
-86.74977
 21
-110.535362
  0
LINE
  8
ゴム等
  6
CONTINUOUS
 10
-87.245953
 20
-109.09419
 11
-86.287417
 21
-109.647605
  0
LINE
  8
ゴム等
  6
CONTINUOUS
 10
-89.33896
 20
-110.195185
 11
-87.212105
 21
-111.42313
  0
ENDBLK
  0
BLOCK
  2
*GRP_0007
 70
    65
 10
0.0
 20
0.0
  0
LINE
  8
ゴム等
  6
CONTINUOUS
 10
-75.52918
 20
-54.1942
 11
-76.801923
 21
-52.921372
  0
LINE
  8
ゴム等
  6
CONTINUOUS
 10
-79.34759
 20
-55.466878
 11
-76.801923
 21
-52.921372
  0
LINE
  8
ゴム等
  6
CONTINUOUS
 10
-72.134947
 20
-50.8002
 11
-73.407702
 21
-49.527362
  0
LINE
  8
ゴム等
  6
CONTINUOUS
 10
-70.862047
 20
-46.981858
 11
-73.407702
 21
-49.527362
  0
LINE
  8
ゴム等
  6
CONTINUOUS
 10
-72.134947
 20
-50.8002
 11
-71.42783
 21
-50.093115
  0
LINE
  8
ゴム等
  6
CONTINUOUS
 10
-71.42783
 20
-50.093115
 11
-71.074283
 21
-50.446677
  0
LINE
  8
ゴム等
  6
CONTINUOUS
 10
-75.52918
 20
-54.1942
 11
-76.236308
 21
-54.901292
  0
LINE
  8
ゴム等
  6
CONTINUOUS
 10
-75.88276
 20
-55.254855
 11
-76.236308
 21
-54.901292
  0
ARC
  8
ゴム等
  6
CONTINUOUS
 10
-73.266402
 20
-53.062917
 40
1.0
 50
-45.001771
 51
44.998229
  0
LINE
  8
ゴム等
  6
CONTINUOUS
 10
-72.559313
 20
-53.770035
 11
-72.559313
 21
-53.770035
  0
ARC
  8
ゴム等
  6
CONTINUOUS
 10
-73.266402
 20
-53.062917
 40
1.0
 50
224.998229
 51
314.998229
  0
LINE
  8
ゴム等
  6
CONTINUOUS
 10
-75.104867
 20
-52.63858
 11
-73.973525
 21
-53.769992
  0
ARC
  8
ゴム等
  6
CONTINUOUS
 10
-74.397738
 20
-51.931511
 40
1.0
 50
134.998229
 51
224.998229
  0
LINE
  8
ゴム等
  6
CONTINUOUS
 10
-75.10481
 20
-51.224367
 11
-75.10481
 21
-51.224367
  0
LINE
  8
ゴム等
  6
CONTINUOUS
 10
-73.690607
 20
-51.224405
 11
-72.559263
 21
-52.355818
  0
ARC
  8
ゴム等
  6
CONTINUOUS
 10
-74.397738
 20
-51.931511
 40
1.0
 50
44.998229
 51
134.998229
  0
LINE
  8
ゴム等
  6
CONTINUOUS
 10
-79.22627
 20
-55.345555
 11
-79.46891
 21
-55.34554
  0
LINE
  8
ゴム等
  6
CONTINUOUS
 10
-71.680525
 20
-50.345798
 11
-71.175143
 21
-50.345807
  0
LINE
  8
ゴム等
  6
CONTINUOUS
 10
-80.468875
 20
-54.345528
 11
-78.226238
 21
-54.345593
  0
LINE
  8
ゴム等
  6
CONTINUOUS
 10
-75.680648
 20
-54.345677
 11
-71.862273
 21
-54.345795
  0
LINE
  8
ゴム等
  6
CONTINUOUS
 10
-81.468845
 20
-53.34549
 11
-77.226205
 21
-53.345618
  0
LINE
  8
ゴム等
  6
CONTINUOUS
 10
-76.377672
 20
-53.345647
 11
-74.39778
 21
-53.345715
  0
LINE
  8
ゴム等
  6
CONTINUOUS
 10
-75.104637
 20
-45.567515
 11
-75.104637
 21
-45.567515
  0
ARC
  8
ゴム等
  6
CONTINUOUS
 10
-76.165298
 20
-45.213942
 40
0.5
 50
314.998229
 51
404.998229
  0
LINE
  8
ゴム等
  6
CONTINUOUS
 10
-80.761655
 20
-50.517095
 11
-75.811755
 21
-45.567497
  0
ARC
  8
ゴム等
  6
CONTINUOUS
 10
-81.115198
 20
-50.163536
 40
0.5
 50
224.998229
 51
314.998229
  0
LINE
  8
ゴム等
  6
CONTINUOUS
 10
-81.46876
 20
-50.51707
 11
-82.883013
 21
-51.93123
  0
LINE
  8
ゴム等
  6
CONTINUOUS
 10
-79.34759
 20
-55.466878
 11
-82.883013
 21
-51.93123
  0
LINE
  8
ゴム等
  6
CONTINUOUS
 10
-75.307928
 20
-52.345685
 11
-82.468815
 21
-52.345463
  0
LINE
  8
ゴム等
  6
CONTINUOUS
 10
-75.208183
 20
-51.345693
 11
-82.297217
 21
-51.345467
  0
LINE
  8
ゴム等
  6
CONTINUOUS
 10
-72.589355
 20
-50.345767
 11
-80.590067
 21
-50.345518
  0
LINE
  8
ゴム等
  6
CONTINUOUS
 10
-73.226075
 20
-49.34575
 11
-79.59004
 21
-49.345553
  0
LINE
  8
ゴム等
  6
CONTINUOUS
 10
-72.226052
 20
-48.34577
 11
-78.590002
 21
-48.345578
  0
LINE
  8
ゴム等
  6
CONTINUOUS
 10
-71.226025
 20
-47.345815
 11
-77.58999
 21
-47.345615
  0
LINE
  8
ゴム等
  6
CONTINUOUS
 10
-71.498067
 20
-46.345792
 11
-76.58995
 21
-46.345637
  0
LINE
  8
ゴム等
  6
CONTINUOUS
 10
-72.498035
 20
-45.345762
 11
-75.68296
 21
-45.34567
  0
LINE
  8
ゴム等
  6
CONTINUOUS
 10
-73.497998
 20
-44.345735
 11
-75.296998
 21
-44.345683
  0
LINE
  8
ゴム等
  6
CONTINUOUS
 10
-70.862047
 20
-46.981858
 11
-74.397475
 21
-43.446213
  0
LINE
  8
ゴム等
  6
CONTINUOUS
 10
-75.811735
 20
-44.86038
 11
-74.397475
 21
-43.446213
  0
LINE
  8
ゴム等
  6
CONTINUOUS
 10
-71.074283
 20
-50.446677
 11
-71.215805
 21
-53.699365
  0
LINE
  8
ゴム等
  6
CONTINUOUS
 10
-75.88276
 20
-55.254855
 11
-72.630073
 21
-55.113537
  0
LINE
  8
ゴム等
  6
CONTINUOUS
 10
-71.215805
 20
-53.699365
 11
-72.630073
 21
-55.113537
  0
LINE
  8
ゴム等
  6
CONTINUOUS
 10
-72.569327
 20
-52.345767
 11
-71.156917
 21
-52.345815
  0
LINE
  8
ゴム等
  6
CONTINUOUS
 10
-72.307245
 20
-53.345777
 11
-71.200425
 21
-53.34581
  0
LINE
  8
ゴム等
  6
CONTINUOUS
 10
-73.569283
 20
-51.345742
 11
-71.113395
 21
-51.34582
  0
ENDBLK
  0
BLOCK
  2
*GRP_0008
 70
    65
 10
0.0
 20
0.0
  0
LINE
  8
型材断面
  6
CONTINUOUS
 10
-62.30064
 20
18.379877
 11
-61.68991
 21
17.769147
  0
LINE
  8
型材断面
  6
CONTINUOUS
 10
-68.888022
 20
11.792507
 11
-68.277287
 21
11.18177
  0
LINE
  8
型材断面
  6
CONTINUOUS
 10
-61.68991
 20
17.769147
 11
-68.277287
 21
11.18177
  0
LINE
  8
ボルト／ビス
  6
CONTINUOUS
 10
-69.794333
 20
12.215128
 11
-68.48104
 21
15.031488
  0
LINE
  8
ボルト／ビス
  6
CONTINUOUS
 10
-68.48104
 20
15.031488
 11
-67.010333
 21
16.50219
  0
LINE
  8
ボルト／ビス
  6
CONTINUOUS
 10
-69.794333
 20
12.215128
 11
-66.2588
 21
15.750655
  0
LINE
  8
ボルト／ビス
  6
CONTINUOUS
 10
-68.888022
 20
11.792507
 11
-65.594333
 21
15.08619
  0
LINE
  8
ボルト／ビス
  6
CONTINUOUS
 10
-62.723262
 20
19.28619
 11
-65.539617
 21
17.972903
  0
LINE
  8
ボルト／ビス
  6
CONTINUOUS
 10
-65.539617
 20
17.972903
 11
-67.010333
 21
16.50219
  0
LINE
  8
ボルト／ビス
  6
CONTINUOUS
 10
-62.723262
 20
19.28619
 11
-66.2588
 21
15.750655
  0
LINE
  8
ボルト／ビス
  6
CONTINUOUS
 10
-62.30064
 20
18.379877
 11
-65.594333
 21
15.08619
  0
LINE
  8
ボルト／ビス
  6
CONTINUOUS
 10
-62.723262
 20
19.28619
 11
-62.30064
 21
18.379877
  0
LINE
  8
ボルト／ビス
  6
CONTINUOUS
 10
-69.794333
 20
12.215128
 11
-68.88802
 21
11.792503
  0
ENDBLK
  0
BLOCK
  2
*GRP_0009
 70
    65
 10
0.0
 20
0.0
  0
LINE
  8
ボルト／ビス
  6
CONTINUOUS
 10
-64.53546
 20
18.977062
 11
-65.341467
 21
19.653383
  0
ARC
  8
ボルト／ビス
  6
CONTINUOUS
 10
-66.434206
 20
18.351109
 40
1.7
 50
49.999989
 51
135.0
  0
LINE
  8
ボルト／ビス
  6
CONTINUOUS
 10
-67.636287
 20
19.55319
 11
-68.848812
 21
18.340668
  0
LINE
  8
ボルト／ビス
  6
CONTINUOUS
 10
-69.485207
 20
14.027315
 11
-70.161528
 21
14.833323
  0
ARC
  8
ボルト／ビス
  6
CONTINUOUS
 10
-68.859252
 20
15.926063
 40
1.7
 50
135.0
 51
220.000011
  0
LINE
  8
ボルト／ビス
  6
CONTINUOUS
 10
-70.061335
 20
17.128142
 11
-68.848812
 21
18.340668
  0
LINE
  8
ボルト／ビス
  6
CONTINUOUS
 10
-66.881963
 20
19.763177
 11
-67.053197
 21
19.934412
  0
LINE
  8
ボルト／ビス
  6
CONTINUOUS
 10
-67.62199
 20
18.103795
 11
-68.116965
 21
17.60882
  0
LINE
  8
ボルト／ビス
  6
CONTINUOUS
 10
-67.798825
 20
18.846315
 11
-66.881963
 21
19.763177
  0
LINE
  8
ボルト／ビス
  6
CONTINUOUS
 10
-67.62199
 20
18.103795
 11
-67.798825
 21
18.28063
  0
ARC
  8
ボルト／ビス
  6
CONTINUOUS
 10
-67.515981
 20
18.563473
 40
0.4
 50
135.0
 51
225.0
  0
LINE
  8
ボルト／ビス
  6
CONTINUOUS
 10
-70.271323
 20
16.373818
 11
-70.442558
 21
16.545053
  0
LINE
  8
ボルト／ビス
  6
CONTINUOUS
 10
-68.61194
 20
17.113845
 11
-68.116965
 21
17.60882
  0
LINE
  8
ボルト／ビス
  6
CONTINUOUS
 10
-69.35446
 20
17.29068
 11
-70.271323
 21
16.373818
  0
LINE
  8
ボルト／ビス
  6
CONTINUOUS
 10
-68.61194
 20
17.113845
 11
-68.788775
 21
17.29068
  0
ARC
  8
ボルト／ビス
  6
CONTINUOUS
 10
-69.071616
 20
17.007839
 40
0.4
 50
45.0
 51
135.0
  0
LINE
  8
ボルト／ビス
  6
CONTINUOUS
 10
-64.53546
 20
18.977062
 11
-69.485207
 21
14.027315
  0
LINE
  8
ボルト／ビス
  6
CONTINUOUS
 10
-58.878605
 20
11.198887
 11
-58.878605
 21
10.49178
  0
LINE
  8
ボルト／ビス
  6
CONTINUOUS
 10
-61.707032
 20
8.37046
 11
-60.999925
 21
8.37046
  0
LINE
  8
ボルト／ビス
  6
CONTINUOUS
 10
-58.878605
 20
11.198887
 11
-61.707032
 21
8.37046
  0
LINE
  8
ボルト／ビス
  6
CONTINUOUS
 10
-58.878605
 20
10.49178
 11
-60.999925
 21
8.37046
  0
LINE
  8
ボルト／ビス
  6
CONTINUOUS
 10
-70.242792
 20
19.734648
 11
-58.825663
 21
8.317518
  0
LINE
  8
ボルト／ビス
  6
CONTINUOUS
 10
-65.59612
 20
17.916403
 11
-58.878605
 21
11.198887
  0
LINE
  8
ボルト／ビス
  6
CONTINUOUS
 10
-68.424547
 20
15.087975
 11
-61.707032
 21
8.37046
  0
LINE
  8
ボルト／ビス
  6
CONTINUOUS
 10
-68.070995
 20
15.441527
 11
-60.999925
 21
8.37046
  0
LINE
  8
ボルト／ビス
  6
CONTINUOUS
 10
-65.949672
 20
17.56285
 11
-58.878605
 21
10.49178
  0
ENDBLK
  0
BLOCK
  2
*DIM_0010
 70
    65
 10
0.0
 20
0.0
  0
LINE
  8
寸法
  6
CONTINUOUS
 10
21.874313
 20
103.501872
 11
21.874313
 21
113.0581
  0
LINE
  8
寸法
  6
CONTINUOUS
 10
24.874313
 20
103.501872
 11
24.874313
 21
113.0581
  0
LINE
  8
寸法
  6
CONTINUOUS
 10
21.874313
 20
113.0581
 11
24.874313
 21
113.0581
  0
POINT
  8
寸法
 10
21.874313
 20
113.0581
  0
POINT
  8
寸法
 10
24.874313
 20
113.0581
  0
TEXT
  7
TextStyle03
  8
寸法
  6
CONTINUOUS
 10
22.6
 20
113.425
  1
3
 40
3.0
 72
     5
 11
24.1
 21
113.425
  0
ENDBLK
  0
BLOCK
  2
*DIM_0011
 70
    65
 10
0.0
 20
0.0
  0
LINE
  8
寸法
  6
CONTINUOUS
 10
-82.661215
 20
3.86891
 11
-96.535603
 21
17.743722
  0
LINE
  8
寸法
  6
CONTINUOUS
 10
-72.87046
 20
22.362422
 11
-82.393318
 21
31.885572
  0
LINE
  8
寸法
  6
CONTINUOUS
 10
-96.535603
 20
17.743722
 11
-82.393318
 21
31.885572
  0
POINT
  8
寸法
 10
-96.535603
 20
17.743722
  0
POINT
  8
寸法
 10
-82.393318
 20
31.885572
  0
TEXT
  7
TextStyle03
  8
寸法
  6
CONTINUOUS
 10
-90.866291
 20
23.937388
  1
20
 40
3.0
 50
45.0
 72
     5
 11
-88.612388
 21
26.191291
  0
ENDBLK
  0
BLOCK
  2
*GRP_0012
 70
    65
 10
0.0
 20
0.0
  0
POLYLINE
  8
寸法
  6
BYBLOCK
 62
     0
 66
     1
  0
VERTEX
  8
寸法
 10
-65.809847
 20
18.02987
  0
VERTEX
  8
寸法
 10
-71.61429
 20
44.104593
  0
VERTEX
  8
寸法
 10
-84.452908
 20
44.104593
  0
SEQEND
  0
ENDBLK
  0
BLOCK
  2
*GRP_0013
 70
    65
 10
0.0
 20
0.0
  0
POLYLINE
  8
寸法
  6
BYBLOCK
 62
     0
 66
     1
  0
VERTEX
  8
寸法
 10
-5.281355
 20
78.27345
  0
VERTEX
  8
寸法
 10
-2.68328
 20
76.77345
  0
VERTEX
  8
寸法
 10
-4.18328
 20
79.371525
  0
SEQEND
  0
POLYLINE
  8
寸法
  6
BYBLOCK
 62
     0
 66
     1
  0
VERTEX
  8
寸法
 10
-2.68328
 20
76.77345
  0
VERTEX
  8
寸法
 10
-18.07486
 20
92.16503
  0
VERTEX
  8
寸法
 10
-33.07648
 20
92.16503
  0
SEQEND
  0
ENDBLK
  0
BLOCK
  2
*DIM_0014
 70
    65
 10
0.0
 20
0.0
  0
LINE
  8
寸法
  6
CONTINUOUS
 10
125.874367
 20
5.333323
 11
125.874367
 21
57.831295
  0
LINE
  8
寸法
  6
CONTINUOUS
 10
-79.125735
 20
5.333323
 11
-79.125735
 21
57.831295
  0
LINE
  8
寸法
  6
CONTINUOUS
 10
125.874367
 20
57.831295
 11
-79.125735
 21
57.831295
  0
POINT
  8
寸法
 10
125.874367
 20
57.831295
  0
POINT
  8
寸法
 10
-79.125735
 20
57.831295
  0
TEXT
  7
TextStyle03
  8
寸法
  6
CONTINUOUS
 10
20.9125
 20
58.2
  1
205
 40
3.0
 72
     5
 11
25.7875
 21
58.2
  0
ENDBLK
  0
BLOCK
  2
*DIM_0015
 70
    65
 10
0.0
 20
0.0
  0
LINE
  8
寸法
  6
CONTINUOUS
 10
130.874367
 20
0.333323
 11
145.48741
 21
0.333323
  0
LINE
  8
寸法
  6
CONTINUOUS
 10
28.374313
 20
102.830242
 11
145.48741
 21
102.830242
  0
LINE
  8
寸法
  6
CONTINUOUS
 10
145.48741
 20
0.333323
 11
145.48741
 21
102.830242
  0
POINT
  8
寸法
 10
145.48741
 20
0.333323
  0
POINT
  8
寸法
 10
145.48741
 20
102.830242
  0
TEXT
  7
TextStyle03
  8
寸法
  6
CONTINUOUS
 10
145.1
 20
47.45
  1
102.5
 40
3.0
 50
90.0
 72
     5
 11
145.1
 21
55.7
  0
ENDBLK
  0
BLOCK
  2
*GRP_0016
 70
    65
 10
0.0
 20
0.0
  0
POLYLINE
  8
寸法
  6
BYBLOCK
 62
     0
 66
     1
  0
VERTEX
  8
寸法
 10
22.451415
 20
-3.533995
  0
VERTEX
  8
寸法
 10
23.124313
 20
-0.610433
  0
VERTEX
  8
寸法
 10
21.079785
 20
-2.805862
  0
SEQEND
  0
POLYLINE
  8
寸法
  6
BYBLOCK
 62
     0
 66
     1
  0
VERTEX
  8
寸法
 10
23.124313
 20
-0.610433
  0
VERTEX
  8
寸法
 10
-0.78075
 20
-45.641922
  0
VERTEX
  8
寸法
 10
2.543088
 20
-45.641922
  0
SEQEND
  0
ENDBLK
  0
BLOCK
  2
*GRP_0017
 70
    65
 10
0.0
 20
0.0
  0
LINE
  8
型材断面
  6
CONTINUOUS
 10
109.049265
 20
18.379877
 11
108.438535
 21
17.769147
  0
LINE
  8
型材断面
  6
CONTINUOUS
 10
115.636648
 20
11.792507
 11
115.025913
 21
11.18177
  0
LINE
  8
型材断面
  6
CONTINUOUS
 10
108.438535
 20
17.769147
 11
115.025913
 21
11.18177
  0
LINE
  8
ボルト／ビス
  6
CONTINUOUS
 10
116.542958
 20
12.215128
 11
115.229665
 21
15.031488
  0
LINE
  8
ボルト／ビス
  6
CONTINUOUS
 10
115.229665
 20
15.031488
 11
113.758957
 21
16.50219
  0
LINE
  8
ボルト／ビス
  6
CONTINUOUS
 10
116.542958
 20
12.215128
 11
113.007425
 21
15.750655
  0
LINE
  8
ボルト／ビス
  6
CONTINUOUS
 10
115.636648
 20
11.792507
 11
112.342958
 21
15.08619
  0
LINE
  8
ボルト／ビス
  6
CONTINUOUS
 10
109.471888
 20
19.28619
 11
112.288242
 21
17.972903
  0
LINE
  8
ボルト／ビス
  6
CONTINUOUS
 10
112.288242
 20
17.972903
 11
113.758957
 21
16.50219
  0
LINE
  8
ボルト／ビス
  6
CONTINUOUS
 10
109.471888
 20
19.28619
 11
113.007425
 21
15.750655
  0
LINE
  8
ボルト／ビス
  6
CONTINUOUS
 10
109.049265
 20
18.379877
 11
112.342958
 21
15.08619
  0
LINE
  8
ボルト／ビス
  6
CONTINUOUS
 10
109.471888
 20
19.28619
 11
109.049265
 21
18.379877
  0
LINE
  8
ボルト／ビス
  6
CONTINUOUS
 10
116.542958
 20
12.215128
 11
115.636645
 21
11.792503
  0
ENDBLK
  0
BLOCK
  2
*GRP_0018
 70
    65
 10
0.0
 20
0.0
  0
LINE
  8
ボルト／ビス
  6
CONTINUOUS
 10
111.284085
 20
18.977062
 11
112.090093
 21
19.653383
  0
ARC
  8
ボルト／ビス
  6
CONTINUOUS
 10
113.182831
 20
18.351109
 40
1.7
 50
45.0
 51
130.000011
  0
LINE
  8
ボルト／ビス
  6
CONTINUOUS
 10
114.384913
 20
19.55319
 11
115.597437
 21
18.340668
  0
LINE
  8
ボルト／ビス
  6
CONTINUOUS
 10
116.233833
 20
14.027315
 11
116.910153
 21
14.833323
  0
ARC
  8
ボルト／ビス
  6
CONTINUOUS
 10
115.607877
 20
15.926063
 40
1.7
 50
319.999989
 51
405.0
  0
LINE
  8
ボルト／ビス
  6
CONTINUOUS
 10
116.80996
 20
17.128142
 11
115.597437
 21
18.340668
  0
LINE
  8
ボルト／ビス
  6
CONTINUOUS
 10
113.630588
 20
19.763177
 11
113.801822
 21
19.934412
  0
LINE
  8
ボルト／ビス
  6
CONTINUOUS
 10
114.370615
 20
18.103795
 11
114.86559
 21
17.60882
  0
LINE
  8
ボルト／ビス
  6
CONTINUOUS
 10
114.54745
 20
18.846315
 11
113.630588
 21
19.763177
  0
LINE
  8
ボルト／ビス
  6
CONTINUOUS
 10
114.370615
 20
18.103795
 11
114.54745
 21
18.28063
  0
ARC
  8
ボルト／ビス
  6
CONTINUOUS
 10
114.264606
 20
18.563473
 40
0.4
 50
315.0
 51
405.0
  0
LINE
  8
ボルト／ビス
  6
CONTINUOUS
 10
117.019947
 20
16.373818
 11
117.191182
 21
16.545053
  0
LINE
  8
ボルト／ビス
  6
CONTINUOUS
 10
115.360565
 20
17.113845
 11
114.86559
 21
17.60882
  0
LINE
  8
ボルト／ビス
  6
CONTINUOUS
 10
116.103085
 20
17.29068
 11
117.019947
 21
16.373818
  0
LINE
  8
ボルト／ビス
  6
CONTINUOUS
 10
115.360565
 20
17.113845
 11
115.5374
 21
17.29068
  0
ARC
  8
ボルト／ビス
  6
CONTINUOUS
 10
115.820241
 20
17.007839
 40
0.4
 50
45.0
 51
135.0
  0
LINE
  8
ボルト／ビス
  6
CONTINUOUS
 10
111.284085
 20
18.977062
 11
116.233833
 21
14.027315
  0
LINE
  8
ボルト／ビス
  6
CONTINUOUS
 10
105.62723
 20
11.198887
 11
105.62723
 21
10.49178
  0
LINE
  8
ボルト／ビス
  6
CONTINUOUS
 10
108.455658
 20
8.37046
 11
107.74855
 21
8.37046
  0
LINE
  8
ボルト／ビス
  6
CONTINUOUS
 10
105.62723
 20
11.198887
 11
108.455658
 21
8.37046
  0
LINE
  8
ボルト／ビス
  6
CONTINUOUS
 10
105.62723
 20
10.49178
 11
107.74855
 21
8.37046
  0
LINE
  8
ボルト／ビス
  6
CONTINUOUS
 10
116.991417
 20
19.734648
 11
105.574288
 21
8.317518
  0
LINE
  8
ボルト／ビス
  6
CONTINUOUS
 10
112.344745
 20
17.916403
 11
105.62723
 21
11.198887
  0
LINE
  8
ボルト／ビス
  6
CONTINUOUS
 10
115.173172
 20
15.087975
 11
108.455658
 21
8.37046
  0
LINE
  8
ボルト／ビス
  6
CONTINUOUS
 10
114.81962
 20
15.441527
 11
107.74855
 21
8.37046
  0
LINE
  8
ボルト／ビス
  6
CONTINUOUS
 10
112.698298
 20
17.56285
 11
105.62723
 21
10.49178
  0
ENDBLK
  0
BLOCK
  2
*DIM_0019
 70
    65
 10
0.0
 20
0.0
  0
LINE
  8
寸法
  6
CONTINUOUS
 10
129.40984
 20
3.86891
 11
143.284228
 21
17.743722
  0
LINE
  8
寸法
  6
CONTINUOUS
 10
119.619085
 20
22.362422
 11
129.141943
 21
31.885572
  0
LINE
  8
寸法
  6
CONTINUOUS
 10
143.284228
 20
17.743722
 11
129.141943
 21
31.885572
  0
POINT
  8
寸法
 10
143.284228
 20
17.743722
  0
POINT
  8
寸法
 10
129.141943
 20
31.885572
  0
TEXT
  7
TextStyle03
  8
寸法
  6
CONTINUOUS
 10
135.337388
 20
26.191291
  1
20
 40
3.0
 50
315.0
 72
     5
 11
137.591291
 21
23.937388
  0
ENDBLK
  0
BLOCK
  2
*GRP_0020
 70
    65
 10
0.0
 20
0.0
  0
LINE
  8
01
  6
CONTINUOUS
 62
    63
 10
-148.462597
 20
58.46015
 11
-146.341283
 21
59.874365
  0
LINE
  8
01
  6
CONTINUOUS
 62
    63
 10
-150.4425
 20
63.975583
 11
-151.856715
 21
61.85426
  0
LINE
  8
01
  6
CONTINUOUS
 62
    63
 10
-148.391888
 20
68.996045
 11
-151.927425
 21
65.460507
  0
LINE
  8
01
  6
CONTINUOUS
 62
    63
 10
-141.320828
 20
61.924978
 11
-144.856358
 21
58.38944
  0
LINE
  8
01
  6
CONTINUOUS
 62
    63
 10
-148.462597
 20
58.46015
 11
-151.856715
 21
61.85426
  0
LINE
  8
01
  6
CONTINUOUS
 62
    63
 10
-151.927425
 20
65.460507
 11
-150.4425
 21
63.975583
  0
LINE
  8
01
  6
CONTINUOUS
 62
    63
 10
-146.341283
 20
59.874365
 11
-144.856358
 21
58.38944
  0
LINE
  8
01
  6
CONTINUOUS
 62
    63
 10
-145.209908
 20
65.10695
 11
-145.209908
 21
65.814065
  0
LINE
  8
01
  6
CONTINUOUS
 62
    63
 10
-145.209908
 20
65.10695
 11
-144.502808
 21
65.106957
  0
LINE
  8
01
  6
CONTINUOUS
 62
    63
 10
-141.320828
 20
61.924978
 11
-144.502808
 21
65.106957
  0
LINE
  8
01
  6
CONTINUOUS
 62
    63
 10
-145.209908
 20
65.814065
 11
-148.391888
 21
68.996045
  0
LINE
  8
01
  6
CONTINUOUS
 62
    63
 10
-149.998492
 20
59.996045
 11
-143.24976
 21
59.996045
  0
LINE
  8
01
  6
CONTINUOUS
 62
    63
 10
-151.498492
 20
61.496038
 11
-141.74976
 21
61.496038
  0
LINE
  8
01
  6
CONTINUOUS
 62
    63
 10
-151.095525
 20
62.996045
 11
-142.391895
 21
62.996045
  0
LINE
  8
01
  6
CONTINUOUS
 62
    63
 10
-150.962962
 20
64.496045
 11
-143.891888
 21
64.496045
  0
LINE
  8
01
  6
CONTINUOUS
 62
    63
 10
-149.891888
 20
67.496045
 11
-146.891895
 21
67.496045
  0
LINE
  8
01
  6
CONTINUOUS
 62
    63
 10
-151.391895
 20
65.996038
 11
-145.391888
 21
65.996038
  0
ENDBLK
  0
BLOCK
  2
*GRP_0021
 70
    65
 10
0.0
 20
0.0
  0
LINE
  8
01
  6
DOT
 62
    63
 10
-149.098883
 20
82.431035
 11
-152.634412
 21
85.966565
  0
LINE
  8
01
  6
DOT
 62
    63
 10
-146.97756
 20
91.623417
 11
-129.299895
 21
73.945745
  0
LINE
  8
01
  6
DOT
 62
    63
 10
-149.098883
 20
82.431035
 11
-154.048635
 21
77.48129
  0
LINE
  8
01
  6
DOT
 62
    63
 10
-144.149137
 20
67.581792
 11
-135.663855
 21
67.581792
  0
LINE
  8
01
  6
DOT
 62
    63
 10
-129.299895
 20
73.945745
 11
-135.663855
 21
67.581792
  0
LINE
  8
01
  6
DOT
 62
    63
 10
-146.97756
 20
91.623417
 11
-140.967158
 21
67.581792
  0
LINE
  8
01
  6
DOT
 62
    63
 10
-146.97756
 20
91.623417
 11
-152.634412
 21
85.966565
  0
LINE
  8
01
  6
DOT
 62
    63
 10
-144.149137
 20
67.5818
 11
-154.048635
 21
77.48129
  0
ENDBLK
  0
BLOCK
  2
*GRP_0022
 70
    65
 10
0.0
 20
0.0
  0
LINE
  8
ボルト／ビス
  6
CONTINUOUS
 62
    64
 10
-145.916955
 20
69.349482
 11
-145.110945
 21
70.025802
  0
ARC
  8
ボルト／ビス
  6
CONTINUOUS
 62
    64
 10
-144.018191
 20
68.723532
 40
1.7
 50
45.0
 51
130.000011
  0
LINE
  8
ボルト／ビス
  6
CONTINUOUS
 62
    64
 10
-142.816125
 20
69.925618
 11
-141.6036
 21
68.713092
  0
LINE
  8
ボルト／ビス
  6
CONTINUOUS
 62
    64
 10
-140.967202
 20
64.399738
 11
-140.290883
 21
65.20574
  0
ARC
  8
ボルト／ビス
  6
CONTINUOUS
 62
    64
 10
-141.593144
 20
66.298486
 40
1.7
 50
319.999989
 51
405.0
  0
LINE
  8
ボルト／ビス
  6
CONTINUOUS
 62
    64
 10
-140.391075
 20
67.500568
 11
-141.6036
 21
68.713092
  0
LINE
  8
ボルト／ビス
  6
CONTINUOUS
 62
    64
 10
-143.570453
 20
70.135602
 11
-143.39922
 21
70.306835
  0
LINE
  8
ボルト／ビス
  6
CONTINUOUS
 62
    64
 10
-142.83042
 20
68.476212
 11
-142.33545
 21
67.981243
  0
LINE
  8
ボルト／ビス
  6
CONTINUOUS
 62
    64
 10
-142.653593
 20
69.218735
 11
-143.570453
 21
70.135602
  0
LINE
  8
ボルト／ビス
  6
CONTINUOUS
 62
    64
 10
-142.83042
 20
68.476212
 11
-142.653585
 21
68.653047
  0
ARC
  8
ボルト／ビス
  6
CONTINUOUS
 62
    64
 10
-142.936415
 20
68.935897
 40
0.4
 50
315.0
 51
405.0
  0
LINE
  8
ボルト／ビス
  6
CONTINUOUS
 62
    64
 10
-140.18109
 20
66.74624
 11
-140.009858
 21
66.917473
  0
LINE
  8
ボルト／ビス
  6
CONTINUOUS
 62
    64
 10
-141.84048
 20
67.486265
 11
-142.33545
 21
67.981243
  0
LINE
  8
ボルト／ビス
  6
CONTINUOUS
 62
    64
 10
-141.09795
 20
67.6631
 11
-140.18109
 21
66.74624
  0
LINE
  8
ボルト／ビス
  6
CONTINUOUS
 62
    64
 10
-141.84048
 20
67.486265
 11
-141.663637
 21
67.663107
  0
ARC
  8
ボルト／ビス
  6
CONTINUOUS
 62
    64
 10
-141.38078
 20
67.380262
 40
0.4
 50
45.0
 51
135.0
  0
LINE
  8
ボルト／ビス
  6
CONTINUOUS
 62
    64
 10
-145.916955
 20
69.349482
 11
-140.967202
 21
64.399738
  0
LINE
  8
ボルト／ビス
  6
CONTINUOUS
 62
    64
 10
-155.816453
 20
57.32867
 11
-155.816445
 21
56.621563
  0
LINE
  8
ボルト／ビス
  6
CONTINUOUS
 62
    64
 10
-152.988023
 20
54.50024
 11
-153.695122
 21
54.50024
  0
LINE
  8
ボルト／ビス
  6
CONTINUOUS
 62
    64
 10
-155.816453
 20
57.32867
 11
-152.988023
 21
54.50024
  0
LINE
  8
ボルト／ビス
  6
CONTINUOUS
 62
    64
 10
-155.816445
 20
56.621563
 11
-153.695122
 21
54.50024
  0
LINE
  8
ボルト／ビス
  6
CONTINUOUS
 62
    64
 10
-142.02786
 20
65.460395
 11
-152.988023
 21
54.50024
  0
LINE
  8
ボルト／ビス
  6
CONTINUOUS
 62
    64
 10
-144.856297
 20
68.288825
 11
-155.816453
 21
57.32867
  0
LINE
  8
ボルト／ビス
  6
CONTINUOUS
 62
    64
 10
-144.50274
 20
67.935268
 11
-155.816445
 21
56.621563
  0
LINE
  8
ボルト／ビス
  6
CONTINUOUS
 62
    64
 10
-142.381418
 20
65.813953
 11
-153.695122
 21
54.50024
  0
LINE
  8
ボルト／ビス
  6
DASHDOT
 62
    64
 10
-139.482277
 20
70.834408
 11
-156.877103
 21
53.439582
  0
ENDBLK
  0
BLOCK
  2
*GRP_0023
 70
    65
 10
0.0
 20
0.0
  0
LINE
  8
型材断面
  6
CONTINUOUS
 62
    47
 10
-144.00813
 20
107.038025
 11
-140.472607
 21
110.573547
  0
LINE
  8
型材断面
  6
CONTINUOUS
 62
    47
 10
-144.00813
 20
107.038025
 11
-144.856657
 21
107.886552
  0
LINE
  8
型材断面
  6
CONTINUOUS
 62
    47
 10
-140.472607
 20
110.573547
 11
-142.735335
 21
112.836268
  0
LINE
  8
型材断面
  6
CONTINUOUS
 62
    47
 10
-159.854325
 20
87.216957
 11
-159.854317
 21
85.716957
  0
LINE
  8
型材断面
  6
CONTINUOUS
 62
    47
 10
-159.154313
 20
85.716957
 11
-159.854317
 21
85.716957
  0
ARC
  8
型材断面
  6
CONTINUOUS
 62
    47
 10
-158.654308
 20
78.91694
 40
0.5
 50
179.999956
 51
269.999956
  0
LINE
  8
型材断面
  6
CONTINUOUS
 62
    47
 10
-158.654325
 20
78.416945
 11
-157.65432
 21
78.416937
  0
ARC
  8
型材断面
  6
CONTINUOUS
 62
    47
 10
-157.654308
 20
78.916939
 40
0.5
 50
269.999956
 51
359.999956
  0
LINE
  8
型材断面
  6
CONTINUOUS
 62
    47
 10
-159.15432
 20
78.916948
 11
-159.154313
 21
85.716957
  0
LINE
  8
型材断面
  6
CONTINUOUS
 62
    47
 10
-162.654323
 20
87.216957
 11
-162.65433
 21
78.917232
  0
LINE
  8
型材断面
  6
CONTINUOUS
 62
    47
 10
-162.154245
 20
78.917232
 11
-162.65433
 21
78.917232
  0
LINE
  8
型材断面
  6
CONTINUOUS
 62
    47
 10
-157.154235
 20
88.217247
 11
-155.654242
 21
88.217247
  0
LINE
  8
型材断面
  6
CONTINUOUS
 62
    47
 10
-155.654242
 20
88.217247
 11
-155.654242
 21
87.21725
  0
LINE
  8
型材断面
  6
CONTINUOUS
 62
    47
 10
-157.154235
 20
87.21725
 11
-155.654242
 21
87.21725
  0
LINE
  8
型材断面
  6
CONTINUOUS
 62
    47
 10
-157.154332
 20
78.91694
 11
-157.154317
 21
87.21725
  0
LINE
  8
型材断面
  6
CONTINUOUS
 62
    47
 10
-159.854325
 20
87.216957
 11
-162.654307
 21
87.216957
  0
LINE
  8
型材断面
  6
CONTINUOUS
 62
    47
 10
-142.735335
 20
112.836268
 11
-164.654355
 21
90.917247
  0
LINE
  8
型材断面
  6
CONTINUOUS
 62
    47
 10
-164.65437
 20
76.91723
 11
-164.654355
 21
90.917247
  0
LINE
  8
型材断面
  6
CONTINUOUS
 62
    47
 10
-144.856642
 20
107.886537
 11
-162.654315
 21
90.088873
  0
LINE
  8
型材断面
  6
CONTINUOUS
 62
    47
 10
-157.154317
 20
88.91693
 11
-162.654315
 21
88.91693
  0
LINE
  8
型材断面
  6
CONTINUOUS
 62
    47
 10
-162.654315
 20
90.088873
 11
-162.654315
 21
88.91693
  0
LINE
  8
型材断面
  6
CONTINUOUS
 62
    47
 10
-157.154317
 20
88.217247
 11
-157.154317
 21
88.91693
  0
LINE
  8
型材断面
  6
CONTINUOUS
 62
    47
 10
-162.154245
 20
78.917232
 11
-162.154245
 21
77.417232
  0
LINE
  8
型材断面
  6
CONTINUOUS
 62
    47
 10
-164.65434
 20
76.91723
 11
-162.65424
 21
76.91723
  0
ARC
  8
型材断面
  6
CONTINUOUS
 62
    47
 10
-162.654233
 20
77.417235
 40
0.5
 50
-90.0
 51
0.0
  0
ENDBLK
  0
BLOCK
  2
*GRP_0024
 70
    65
 10
0.0
 20
0.0
  0
LINE
  8
ゴム等
  6
CONTINUOUS
 62
    63
 10
-121.733932
 20
77.834833
 11
-122.08749
 21
78.188375
  0
LINE
  8
ゴム等
  6
CONTINUOUS
 62
    63
 10
-122.08749
 20
78.188375
 11
-121.380375
 21
78.895483
  0
LINE
  8
ゴム等
  6
CONTINUOUS
 62
    63
 10
-121.380375
 20
78.895483
 11
-122.653162
 21
80.16827
  0
LINE
  8
ゴム等
  6
CONTINUOUS
 62
    63
 10
-122.653162
 20
80.16827
 11
-125.198752
 21
77.622695
  0
LINE
  8
ゴム等
  6
CONTINUOUS
 62
    63
 10
-116.925608
 20
82.64315
 11
-117.279158
 21
82.9967
  0
LINE
  8
ゴム等
  6
CONTINUOUS
 62
    63
 10
-117.279158
 20
82.9967
 11
-117.986265
 21
82.2896
  0
LINE
  8
ゴム等
  6
CONTINUOUS
 62
    63
 10
-116.925608
 20
82.64315
 11
-116.9256
 21
79.53188
  0
LINE
  8
ゴム等
  6
CONTINUOUS
 62
    63
 10
-117.986265
 20
82.2896
 11
-119.259052
 21
83.562395
  0
LINE
  8
ゴム等
  6
CONTINUOUS
 62
    63
 10
-119.259052
 20
83.562395
 11
-116.71347
 21
86.107978
  0
LINE
  8
ゴム等
  6
CONTINUOUS
 62
    63
 10
-118.622655
 20
77.834817
 11
-116.9256
 21
79.53188
  0
ARC
  8
ゴム等
  6
CONTINUOUS
 62
    63
 10
-120.249
 20
81.158216
 40
1.0
 50
135.000021
 51
225.000021
  0
LINE
  8
ゴム等
  6
CONTINUOUS
 62
    63
 10
-120.9561
 20
81.865325
 11
-120.9561
 21
81.865325
  0
ARC
  8
ゴム等
  6
CONTINUOUS
 62
    63
 10
-120.249
 20
81.158216
 40
1.0
 50
45.000021
 51
135.000021
  0
LINE
  8
ゴム等
  6
CONTINUOUS
 62
    63
 10
-119.541892
 20
81.865325
 11
-118.410533
 21
80.733958
  0
ARC
  8
ゴム等
  6
CONTINUOUS
 62
    63
 10
-119.117629
 20
80.026846
 40
1.0
 50
315.000021
 51
405.000021
  0
LINE
  8
ゴム等
  6
CONTINUOUS
 62
    63
 10
-118.410525
 20
79.319743
 11
-118.410525
 21
79.319743
  0
LINE
  8
ゴム等
  6
CONTINUOUS
 62
    63
 10
-120.9561
 20
80.451117
 11
-119.824748
 21
79.319743
  0
ARC
  8
ゴム等
  6
CONTINUOUS
 62
    63
 10
-119.117629
 20
80.026846
 40
1.0
 50
225.000021
 51
315.000021
  0
LINE
  8
ゴム等
  6
CONTINUOUS
 62
    63
 10
-121.733932
 20
77.834833
 11
-118.622655
 21
77.834817
  0
LINE
  8
ゴム等
  6
CONTINUOUS
 10
-118.46826
 20
77.989213
 11
-121.88832
 21
77.98922
  0
LINE
  8
ゴム等
  6
CONTINUOUS
 10
-122.832225
 20
79.989215
 11
-127.565272
 21
79.989215
  0
LINE
  8
ゴム等
  6
CONTINUOUS
 10
-118.832235
 20
83.989213
 11
-131.56527
 21
83.989213
  0
LINE
  8
ゴム等
  6
CONTINUOUS
 10
-116.832233
 20
85.989215
 11
-133.565272
 21
85.989215
  0
LINE
  8
ゴム等
  6
CONTINUOUS
 10
-122.474107
 20
79.989215
 11
-120.494212
 21
79.989215
  0
LINE
  8
ゴム等
  6
CONTINUOUS
 10
-116.925608
 20
81.98921
 11
-119.665777
 21
81.98921
  0
LINE
  8
ゴム等
  6
CONTINUOUS
 10
-129.565268
 20
81.989202
 11
-120.80529
 21
81.98921
  0
LINE
  8
ゴム等
  6
CONTINUOUS
 10
-116.9256
 20
79.989215
 11
-118.118347
 21
79.989215
  0
LINE
  8
ゴム等
  6
CONTINUOUS
 62
    63
 10
-135.80535
 20
88.229292
 11
-134.391143
 21
89.6435
  0
LINE
  8
ゴム等
  6
CONTINUOUS
 62
    63
 10
-127.320068
 20
96.71456
 11
-128.734282
 21
95.300345
  0
LINE
  8
ゴム等
  6
CONTINUOUS
 62
    63
 10
-128.734282
 20
95.300345
 11
-128.734282
 21
95.300345
  0
ARC
  8
ゴム等
  6
CONTINUOUS
 62
    63
 10
-129.08784
 20
94.946795
 40
0.5
 50
315.000021
 51
405.000021
  0
LINE
  8
ゴム等
  6
CONTINUOUS
 62
    63
 10
-134.391143
 20
89.6435
 11
-134.391143
 21
89.6435
  0
LINE
  8
ゴム等
  6
CONTINUOUS
 62
    63
 10
-133.684043
 20
89.643507
 11
-128.73429
 21
94.593253
  0
ARC
  8
ゴム等
  6
CONTINUOUS
 62
    63
 10
-134.037585
 20
89.997046
 40
0.5
 50
225.000021
 51
315.000021
  0
LINE
  8
ゴム等
  6
CONTINUOUS
 62
    63
 10
-125.198752
 20
77.622695
 11
-135.80535
 21
88.229292
  0
LINE
  8
ゴム等
  6
CONTINUOUS
 62
    63
 10
-116.71347
 20
86.107978
 11
-127.320068
 21
96.71456
  0
LINE
  8
ゴム等
  6
CONTINUOUS
 10
-124.594718
 20
93.98921
 11
-129.338332
 21
93.989202
  0
LINE
  8
ゴム等
  6
CONTINUOUS
 10
-122.594722
 20
91.989215
 11
-131.338335
 21
91.989207
  0
LINE
  8
ゴム等
  6
CONTINUOUS
 10
-120.594712
 20
89.989213
 11
-133.338338
 21
89.989213
  0
LINE
  8
ゴム等
  6
CONTINUOUS
 10
-118.594725
 20
87.989218
 11
-135.565275
 21
87.989218
  0
LINE
  8
ゴム等
  6
CONTINUOUS
 10
-128.107237
 20
95.927412
 11
-126.53292
 21
95.927405
  0
ENDBLK
  0
ENDSEC
  0
SECTION
  2
ENTITIES
  0
POLYLINE
  8
通り芯
  6
CONTINUOUS
 66
     1
 70
     1
  0
VERTEX
  8
通り芯
 10
-210.0
 20
-148.5
  0
VERTEX
  8
通り芯
 10
210.0
 20
-148.5
  0
VERTEX
  8
通り芯
 10
210.0
 20
148.5
  0
VERTEX
  8
通り芯
 10
-210.0
 20
148.5
  0
SEQEND
  0
INSERT
  2
*GRP_0002
  8
型材
  6
CONTINUOUS
 10
0.0
 20
0.0
  0
INSERT
  2
*GRP_0001
  8
型材断面
  6
CONTINUOUS
 10
0.0
 20
0.0
  0
LINE
  8
型材断面
  6
CONTINUOUS
 10
21.874313
 20
98.501872
 11
21.874313
 21
77.991405
  0
LINE
  8
型材断面
  6
CONTINUOUS
 10
23.374313
 20
66.3645
 11
23.374313
 21
-8.036145
  0
LINE
  8
型材断面
  6
CONTINUOUS
 10
24.874313
 20
98.501872
 11
24.874313
 21
76.576867
  0
LINE
  8
型材断面
  6
CONTINUOUS
 10
21.874313
 20
98.50488
 11
-84.78258
 21
-8.152013
  0
LINE
  8
型材断面
  6
CONTINUOUS
 10
23.374313
 20
94.349213
 11
-81.95479
 21
-10.97989
  0
LINE
  8
型材断面
  6
CONTINUOUS
 10
23.374313
 20
47.255925
 11
-58.408522
 21
-34.52691
  0
LINE
  8
型材断面
  6
CONTINUOUS
 10
23.374313
 20
7.520212
 11
-38.540982
 21
-54.395082
  0
LINE
  8
型材断面
  6
CONTINUOUS
 10
23.374313
 20
-8.036138
 11
-30.76293
 21
-62.17338
  0
INSERT
  2
*GRP_0003
  8
型材断面
  6
CONTINUOUS
 10
0.0
 20
0.0
  0
INSERT
  2
*GRP_0004
  8
型材断面
  6
CONTINUOUS
 62
    47
 10
0.0
 20
0.0
  0
LINE
  8
型材断面
  6
CONTINUOUS
 10
23.374313
 20
65.929785
 11
23.374313
 21
94.349213
  0
POLYLINE
  8
型材断面
  6
CONTINUOUS
 66
     1
 70
     1
  0
VERTEX
  8
型材断面
 10
-14.450575
 20
-104.499442
  0
VERTEX
  8
型材断面
 10
-45.548557
 20
-104.499442
  0
VERTEX
  8
型材断面
 10
-45.548557
 20
-110.7761
  0
VERTEX
  8
型材断面
 10
-14.450575
 20
-110.7761
  0
SEQEND
  0
LINE
  8
型材断面
  6
CONTINUOUS
 10
24.874313
 20
98.504873
 11
185.0
 21
-61.620815
  0
LINE
  8
型材断面
  6
CONTINUOUS
 10
23.374313
 20
94.349213
 11
185.0
 21
-67.276475
  0
LINE
  8
型材断面
  6
CONTINUOUS
 10
23.374313
 20
7.520205
 11
139.394518
 21
-108.5
  0
LINE
  8
型材断面
  6
CONTINUOUS
 10
23.374313
 20
-8.036145
 11
123.838168
 21
-108.5
  0
LINE
  8
型材断面
  6
CONTINUOUS
 10
23.374313
 20
47.255918
 11
179.13023
 21
-108.5
  0
LINE
  8
型材断面
  6
CONTINUOUS
 10
23.374313
 20
61.396732
 11
23.374313
 21
-8.036145
  0
POLYLINE
  8
型材断面
  6
CONTINUOUS
 66
     1
 70
     1
  0
VERTEX
  8
型材断面
 10
40.595917
 20
-55.744195
  0
VERTEX
  8
型材断面
 10
9.497935
 20
-55.744195
  0
VERTEX
  8
型材断面
 10
9.497935
 20
-62.020853
  0
VERTEX
  8
型材断面
 10
40.595917
 20
-62.020853
  0
SEQEND
  0
LINE
  8
型材断面
  6
CONTINUOUS
 10
-96.096275
 20
-25.122678
 11
-89.02521
 21
-18.051613
  0
LINE
  8
型材断面
  6
CONTINUOUS
 10
-98.924065
 20
-22.2948
 11
-91.853
 21
-15.223735
  0
LINE
  8
型材断面
  6
CONTINUOUS
 62
    47
 10
-136.017525
 20
66.521038
 11
-136.724618
 21
66.52106
  0
LINE
  8
型材断面
  6
CONTINUOUS
 62
    47
 10
-136.017525
 20
66.521038
 11
-136.01751
 21
67.228138
  0
LINE
  8
型材断面
  6
CONTINUOUS
 62
    47
 10
-136.724618
 20
66.52106
 11
-139.906643
 21
63.339118
  0
LINE
  8
型材断面
  6
CONTINUOUS
 62
    47
 10
-147.684735
 20
69.703182
 11
-146.97762
 21
70.410275
  0
LINE
  8
型材断面
  6
CONTINUOUS
 62
    47
 10
-147.684735
 20
69.703182
 11
-147.68475
 21
68.288968
  0
LINE
  8
型材断面
  6
CONTINUOUS
 62
    47
 10
-147.68475
 20
68.288968
 11
-140.96733
 21
61.57136
  0
LINE
  8
型材断面
  6
CONTINUOUS
 62
    47
 10
-140.96733
 20
61.57136
 11
-138.846007
 21
61.571337
  0
LINE
  8
型材断面
  6
CONTINUOUS
 62
    47
 10
-136.01751
 20
67.228145
 11
-132.835477
 21
70.410095
  0
LINE
  8
型材断面
  6
CONTINUOUS
 62
    47
 10
-107.649953
 20
77.751665
 11
-116.359958
 21
86.46149
  0
LINE
  8
型材断面
  6
CONTINUOUS
 62
    47
 10
-120.956235
 20
74.794385
 11
-123.431138
 21
77.269235
  0
LINE
  8
型材断面
  6
CONTINUOUS
 62
    47
 10
-122.016915
 20
73.733742
 11
-125.552483
 21
77.269242
  0
LINE
  8
型材断面
  6
CONTINUOUS
 62
    47
 10
-123.431138
 20
77.269235
 11
-121.663343
 21
79.036977
  0
LINE
  8
型材断面
  6
CONTINUOUS
 62
    47
 10
-118.12776
 20
82.572455
 11
-116.359965
 21
84.340198
  0
LINE
  8
型材断面
  6
CONTINUOUS
 62
    47
 10
-113.885063
 20
81.865347
 11
-116.359965
 21
84.340198
  0
LINE
  8
型材断面
  6
CONTINUOUS
 62
    47
 10
-129.088177
 20
66.662697
 11
-122.016915
 21
73.733742
  0
LINE
  8
型材断面
  6
CONTINUOUS
 62
    47
 10
-120.956235
 20
74.794385
 11
-113.885063
 21
81.865347
  0
LINE
  8
型材断面
  6
CONTINUOUS
 62
    47
 10
-118.764157
 20
84.057365
 11
-116.359868
 21
86.46158
  0
LINE
  8
型材断面
  6
CONTINUOUS
 62
    47
 10
-118.764157
 20
83.208845
 11
-118.12776
 21
82.572455
  0
LINE
  8
型材断面
  6
CONTINUOUS
 62
    47
 10
-118.764157
 20
84.057365
 11
-118.764157
 21
83.208845
  0
LINE
  8
型材断面
  6
CONTINUOUS
 62
    47
 10
-123.148283
 20
79.673367
 11
-125.552483
 21
77.269242
  0
LINE
  8
型材断面
  6
CONTINUOUS
 62
    47
 10
-122.299748
 20
79.673367
 11
-121.663343
 21
79.036977
  0
LINE
  8
型材断面
  6
CONTINUOUS
 62
    47
 10
-123.148283
 20
79.673367
 11
-122.299748
 21
79.673367
  0
LINE
  8
型材断面
  6
CONTINUOUS
 62
    47
 10
-143.654198
 20
66.662495
 11
-143.654198
 21
67.086763
  0
LINE
  8
型材断面
  6
CONTINUOUS
 62
    47
 10
-143.654198
 20
66.662495
 11
-143.229937
 21
66.662495
  0
LINE
  8
型材断面
  6
CONTINUOUS
 62
    47
 10
-139.906643
 20
63.339118
 11
-143.229937
 21
66.662495
  0
LINE
  8
型材断面
  6
CONTINUOUS
 62
    47
 10
-143.654198
 20
67.086763
 11
-146.97762
 21
70.410275
  0
LINE
  8
型材断面
  6
CONTINUOUS
 62
    47
 10
-132.835477
 20
70.410095
 11
-131.916248
 21
69.490842
  0
LINE
  8
型材断面
  6
CONTINUOUS
 62
    47
 10
-131.916248
 20
69.490842
 11
-132.8355
 21
68.57162
  0
LINE
  8
型材断面
  6
CONTINUOUS
 62
    47
 10
-132.8355
 20
68.57162
 11
-131.138468
 21
66.874535
  0
LINE
  8
型材断面
  6
CONTINUOUS
 62
    47
 10
-131.138468
 20
66.874535
 11
-130.219215
 21
67.793765
  0
LINE
  8
型材断面
  6
CONTINUOUS
 62
    47
 10
-129.088177
 20
66.662697
 11
-130.219215
 21
67.793765
  0
LINE
  8
型材断面
  6
CONTINUOUS
 62
    47
 10
-112.82439
 20
81.087537
 11
-129.0882
 21
64.824222
  0
LINE
  8
型材断面
  6
CONTINUOUS
 62
    47
 10
-129.0882
 20
64.824222
 11
-130.219245
 21
65.95529
  0
LINE
  8
型材断面
  6
CONTINUOUS
 62
    47
 10
-135.849953
 20
60.324703
 11
-130.219245
 21
65.95529
  0
LINE
  8
型材断面
  6
CONTINUOUS
 62
    47
 10
-138.846007
 20
61.571337
 11
-137.573182
 21
62.844103
  0
LINE
  8
型材断面
  6
CONTINUOUS
 62
    47
 10
-137.573182
 20
62.844103
 11
-136.371112
 21
61.642002
  0
LINE
  8
型材断面
  6
CONTINUOUS
 62
    47
 10
-107.649953
 20
77.751665
 11
-107.649953
 21
58.861422
  0
LINE
  8
型材断面
  6
CONTINUOUS
 62
    47
 10
-136.371112
 20
61.642002
 11
-137.14995
 21
60.86318
  0
LINE
  8
型材断面
  6
CONTINUOUS
 62
    47
 10
-102.399945
 20
58.561415
 11
-102.699945
 21
58.861415
  0
LINE
  8
型材断面
  6
CONTINUOUS
 62
    47
 10
-102.399945
 20
58.561415
 11
-102.099945
 21
58.861415
  0
LINE
  8
型材断面
  6
CONTINUOUS
 62
    47
 10
-107.649953
 20
58.861422
 11
-102.699953
 21
58.861422
  0
LINE
  8
型材断面
  6
CONTINUOUS
 62
    47
 10
-112.82439
 20
81.087537
 11
-111.41016
 21
79.673337
  0
LINE
  8
型材断面
  6
CONTINUOUS
 62
    47
 10
-110.703053
 20
78.966237
 11
-109.149953
 21
77.413175
  0
LINE
  8
型材断面
  6
CONTINUOUS
 62
    47
 10
-111.410197
 20
79.6733
 11
-112.47084
 21
78.612687
  0
LINE
  8
型材断面
  6
CONTINUOUS
 62
    47
 10
-112.47084
 20
78.612687
 11
-111.763725
 21
77.905587
  0
LINE
  8
型材断面
  6
CONTINUOUS
 62
    47
 10
-110.703105
 20
78.966185
 11
-111.763725
 21
77.905587
  0
LINE
  8
型材断面
  6
CONTINUOUS
 62
    47
 10
-160.154242
 20
79.4171
 11
-159.454245
 21
79.417048
  0
LINE
  8
型材断面
  6
CONTINUOUS
 62
    47
 10
-159.454245
 20
78.417102
 11
-159.454245
 21
79.417048
  0
LINE
  8
型材断面
  6
CONTINUOUS
 62
    47
 10
-157.154242
 20
78.41705
 11
-159.454245
 21
78.417102
  0
LINE
  8
型材断面
  6
CONTINUOUS
 62
    47
 10
-161.854283
 20
83.217058
 11
-162.15423
 21
83.51705
  0
LINE
  8
型材断面
  6
CONTINUOUS
 62
    47
 10
-161.854283
 20
83.217058
 11
-162.154237
 21
82.917102
  0
ARC
  8
型材断面
  6
CONTINUOUS
 62
    47
 10
-161.654304
 20
86.717032
 40
0.5
 50
90.000009
 51
180.000009
  0
LINE
  8
型材断面
  6
CONTINUOUS
 62
    47
 10
-161.654235
 20
87.216935
 11
-160.654237
 21
87.216987
  0
ARC
  8
型材断面
  6
CONTINUOUS
 62
    47
 10
-160.654304
 20
86.717032
 40
0.5
 50
0.000009
 51
90.000009
  0
LINE
  8
型材断面
  6
CONTINUOUS
 62
    47
 10
-162.15423
 20
83.51705
 11
-162.15423
 21
86.717045
  0
LINE
  8
型材断面
  6
CONTINUOUS
 62
    47
 10
-160.154242
 20
79.4171
 11
-160.154235
 21
86.717045
  0
LINE
  8
型材断面
  6
CONTINUOUS
 62
    47
 10
-162.154237
 20
82.917102
 11
-162.154245
 21
76.917163
  0
LINE
  8
型材断面
  6
CONTINUOUS
 62
    47
 10
-164.65437
 20
76.91723
 11
-162.154245
 21
76.917163
  0
ARC
  8
型材断面
  6
CONTINUOUS
 62
    47
 10
-156.654223
 20
86.717254
 40
0.5
 50
90.0
 51
179.999951
  0
LINE
  8
型材断面
  6
CONTINUOUS
 62
    47
 10
-155.154233
 20
85.21706
 11
-155.654242
 21
85.71707
  0
LINE
  8
型材断面
  6
CONTINUOUS
 62
    47
 10
-155.154233
 20
81.217055
 11
-155.654242
 21
80.717045
  0
LINE
  8
型材断面
  6
CONTINUOUS
 62
    47
 10
-155.154233
 20
85.21706
 11
-155.15424
 21
81.217048
  0
LINE
  8
型材断面
  6
CONTINUOUS
 62
    47
 10
-156.654233
 20
87.21725
 11
-156.154245
 21
87.21725
  0
LINE
  8
型材断面
  6
CONTINUOUS
 62
    47
 10
-155.654242
 20
85.71707
 11
-155.654242
 21
86.717247
  0
ARC
  8
型材断面
  6
CONTINUOUS
 62
    47
 10
-156.154227
 20
86.717254
 40
0.5
 50
0.0
 51
90.0
  0
LINE
  8
型材断面
  6
CONTINUOUS
 62
    47
 10
-160.954245
 20
77.217132
 11
-160.954245
 21
75.717132
  0
LINE
  8
型材断面
  6
CONTINUOUS
 62
    47
 10
-160.954245
 20
75.717132
 11
-163.1544
 21
75.717193
  0
LINE
  8
型材断面
  6
CONTINUOUS
 62
    47
 10
-155.654242
 20
80.717045
 11
-155.654242
 21
78.417013
  0
LINE
  8
型材断面
  6
CONTINUOUS
 62
    47
 10
-153.354397
 20
68.116925
 11
-163.1544
 21
68.117195
  0
LINE
  8
型材断面
  6
CONTINUOUS
 62
    47
 10
-163.1544
 20
75.717193
 11
-163.1544
 21
68.117195
  0
LINE
  8
型材断面
  6
CONTINUOUS
 62
    47
 10
-160.654395
 20
66.917195
 11
-160.654395
 21
65.417128
  0
LINE
  8
型材断面
  6
CONTINUOUS
 62
    47
 10
-160.654395
 20
65.417128
 11
-159.654397
 21
65.417098
  0
LINE
  8
型材断面
  6
CONTINUOUS
 62
    47
 10
-159.654397
 20
66.917195
 11
-159.654397
 21
65.417098
  0
LINE
  8
型材断面
  6
CONTINUOUS
 62
    47
 10
-163.1544
 20
66.917195
 11
-160.654395
 21
66.917128
  0
LINE
  8
型材断面
  6
CONTINUOUS
 62
    47
 10
-156.854378
 20
83.217058
 11
-157.154325
 21
83.51705
  0
LINE
  8
型材断面
  6
CONTINUOUS
 62
    47
 10
-156.854378
 20
83.217058
 11
-157.154332
 21
82.917102
  0
LINE
  8
型材断面
  6
CONTINUOUS
 62
    47
 10
-157.154235
 20
86.717247
 11
-157.154235
 21
83.51696
  0
LINE
  8
型材断面
  6
CONTINUOUS
 62
    47
 10
-157.154235
 20
82.9172
 11
-157.154242
 21
78.41705
  0
LINE
  8
型材断面
  6
CONTINUOUS
 62
    47
 10
-146.270565
 20
59.803655
 11
-148.391888
 21
58.38944
  0
LINE
  8
型材断面
  6
CONTINUOUS
 62
    47
 10
-151.927417
 20
61.924978
 11
-150.513225
 21
64.046263
  0
LINE
  8
型材断面
  6
CONTINUOUS
 62
    47
 10
-149.223615
 20
56.392737
 11
-146.423467
 21
58.259503
  0
LINE
  8
型材断面
  6
CONTINUOUS
 62
    47
 10
-146.423467
 20
58.259503
 11
-145.704878
 21
57.540913
  0
LINE
  8
型材断面
  6
CONTINUOUS
 62
    47
 10
-145.704878
 20
57.540913
 11
-144.85635
 21
58.38944
  0
LINE
  8
型材断面
  6
CONTINUOUS
 62
    47
 10
-146.270565
 20
59.803655
 11
-144.85635
 21
58.38944
  0
LINE
  8
型材断面
  6
CONTINUOUS
 62
    47
 10
-149.223615
 20
56.392737
 11
-153.92412
 21
61.09325
  0
LINE
  8
型材断面
  6
CONTINUOUS
 62
    47
 10
-153.92412
 20
61.09325
 11
-152.22708
 21
63.638818
  0
LINE
  8
型材断面
  6
CONTINUOUS
 62
    47
 10
-150.37179
 20
59.945075
 11
-150.37179
 21
60.369342
  0
LINE
  8
型材断面
  6
CONTINUOUS
 62
    47
 10
-150.37179
 20
59.945075
 11
-149.947523
 21
59.945075
  0
LINE
  8
型材断面
  6
CONTINUOUS
 62
    47
 10
-151.927417
 20
61.924978
 11
-150.37179
 21
60.369342
  0
LINE
  8
型材断面
  6
CONTINUOUS
 62
    47
 10
-149.947523
 20
59.945075
 11
-148.391888
 21
58.38944
  0
LINE
  8
型材断面
  6
CONTINUOUS
 62
    47
 10
-150.513225
 20
64.046263
 11
-152.154397
 21
65.687495
  0
LINE
  8
型材断面
  6
CONTINUOUS
 62
    47
 10
-152.22708
 20
63.638818
 11
-153.654397
 21
65.066187
  0
LINE
  8
型材断面
  6
CONTINUOUS
 62
    47
 10
-153.654397
 20
65.066187
 11
-153.654397
 21
66.916933
  0
LINE
  8
型材断面
  6
CONTINUOUS
 62
    47
 10
-159.654397
 20
66.917098
 11
-153.654397
 21
66.916933
  0
LINE
  8
型材断面
  6
CONTINUOUS
 62
    47
 10
-160.954245
 20
77.217132
 11
-155.481548
 21
77.21702
  0
LINE
  8
型材断面
  6
CONTINUOUS
 62
    47
 10
-155.654242
 20
78.417013
 11
-154.984477
 21
78.416998
  0
LINE
  8
型材断面
  6
CONTINUOUS
 62
    47
 10
-155.481548
 20
77.21702
 11
-153.354397
 21
75.089862
  0
LINE
  8
型材断面
  6
CONTINUOUS
 62
    47
 10
-153.354397
 20
68.116925
 11
-153.354397
 21
75.089862
  0
LINE
  8
型材断面
  6
CONTINUOUS
 62
    47
 10
-152.154397
 20
65.687495
 11
-152.154397
 21
74.458857
  0
LINE
  8
型材断面
  6
CONTINUOUS
 62
    47
 10
-152.154397
 20
74.458857
 11
-151.59036
 21
75.022888
  0
LINE
  8
型材断面
  6
CONTINUOUS
 62
    47
 10
-154.984477
 20
78.416998
 11
-151.59036
 21
75.022888
  0
LINE
  8
型材断面
  6
CONTINUOUS
 62
    47
 10
-107.649953
 20
57.361422
 11
-107.649953
 21
51.892425
  0
LINE
  8
型材断面
  6
CONTINUOUS
 62
    47
 10
-109.149953
 20
77.413175
 11
-109.149953
 21
51.892425
  0
LINE
  8
型材断面
  6
CONTINUOUS
 62
    47
 10
-135.849953
 20
60.324703
 11
-135.849953
 21
51.892425
  0
LINE
  8
型材断面
  6
CONTINUOUS
 62
    47
 10
-137.14995
 20
60.86318
 11
-137.14995
 21
51.892425
  0
LINE
  8
型材断面
  6
CONTINUOUS
 62
    47
 10
-164.6544
 20
76.91723
 11
-164.6544
 21
51.892425
  0
LINE
  8
型材断面
  6
CONTINUOUS
 62
    47
 10
-163.1544
 20
66.917195
 11
-163.1544
 21
51.892425
  0
LINE
  8
型材断面
  6
CONTINUOUS
 10
-116.35995
 20
86.46149
 11
-99.49706
 21
103.32438
  0
LINE
  8
型材断面
  6
CONTINUOUS
 10
-116.35995
 20
86.46149
 11
-99.49706
 21
69.598605
  0
LINE
  8
型材断面
  6
CONTINUOUS
 62
    47
 10
-107.649953
 20
57.361422
 11
-99.49706
 21
57.361422
  0
LINE
  8
型材断面
  6
CONTINUOUS
 62
    47
 10
-102.099938
 20
58.861422
 11
-99.49706
 21
58.861422
  0
LINE
  8
ガラス
  6
CONTINUOUS
 10
23.374313
 20
78.784267
 11
-74.173952
 21
-18.760977
  0
LINE
  8
ガラス
  6
CONTINUOUS
 10
23.374313
 20
79.49136
 11
-74.527498
 21
-18.40742
  0
LINE
  8
ガラス
  6
CONTINUOUS
 10
23.374313
 20
72.420337
 11
-70.992
 21
-21.943033
  0
LINE
  8
ガラス
  6
CONTINUOUS
 10
23.374313
 20
73.127445
 11
-71.345553
 21
-21.589467
  0
LINE
  8
ガラス
  6
CONTINUOUS
 10
23.374313
 20
63.93522
 11
-66.74944
 21
-26.185728
  0
LINE
  8
ガラス
  6
CONTINUOUS
 10
23.374313
 20
63.22812
 11
-66.39589
 21
-26.539287
  0
LINE
  8
ガラス
  6
CONTINUOUS
 10
23.374313
 20
54.318705
 11
-61.941187
 21
-30.994132
  0
LINE
  8
ガラス
  6
CONTINUOUS
 10
23.374313
 20
55.02579
 11
-62.29473
 21
-30.640578
  0
LINE
  8
ガラス
  6
CONTINUOUS
 10
23.374313
 20
72.420337
 11
185.0
 21
-89.20031
  0
LINE
  8
ガラス
  6
CONTINUOUS
 10
23.374313
 20
73.127445
 11
185.0
 21
-88.493205
  0
LINE
  8
ガラス
  6
CONTINUOUS
 10
23.374313
 20
78.784267
 11
185.0
 21
-82.836415
  0
LINE
  8
ガラス
  6
CONTINUOUS
 10
23.374313
 20
79.49136
 11
185.0
 21
-82.129325
  0
LINE
  8
ガラス
  6
CONTINUOUS
 10
23.374313
 20
63.22812
 11
185.0
 21
-98.392535
  0
LINE
  8
ガラス
  6
CONTINUOUS
 10
23.374313
 20
63.93522
 11
185.0
 21
-97.685437
  0
LINE
  8
ガラス
  6
CONTINUOUS
 10
23.374313
 20
54.318705
 11
185.0
 21
-107.301937
  0
LINE
  8
ガラス
  6
CONTINUOUS
 10
23.374313
 20
55.02579
 11
185.0
 21
-106.59485
  0
LINE
  8
ガラス
  6
CONTINUOUS
 10
-139.694467
 20
84.340317
 11
-144.502785
 21
89.148642
  0
LINE
  8
ガラス
  6
CONTINUOUS
 10
-144.502785
 20
89.148642
 11
-109.483987
 21
124.166355
  0
LINE
  8
ガラス
  6
CONTINUOUS
 10
-144.149235
 20
88.795092
 11
-108.776875
 21
124.166355
  0
LINE
  8
ガラス
  6
CONTINUOUS
 10
-140.048017
 20
84.693875
 11
-100.574312
 21
124.166355
  0
LINE
  8
ガラス
  6
CONTINUOUS
 10
-139.694467
 20
84.340317
 11
-99.867202
 21
124.166355
  0
LINE
  8
ガラス
  6
CONTINUOUS
 10
-87.122815
 20
-56.176795
 11
-99.709145
 21
-43.590082
  0
LINE
  8
ガラス
  6
CONTINUOUS
 10
-87.688375
 20
-47.125803
 11
-91.930925
 21
-42.88312
  0
LINE
  8
ガラス
  6
CONTINUOUS
 10
-91.930925
 20
-42.88312
 11
-91.931077
 21
-51.36838
  0
LINE
  8
ガラス
  6
CONTINUOUS
 10
-96.173638
 20
-47.125695
 11
-87.688375
 21
-47.125803
  0
LINE
  8
ガラス
  6
CONTINUOUS
 10
-69.365007
 20
-37.712435
 11
-87.476362
 21
-55.823235
  0
LINE
  8
ガラス
  6
CONTINUOUS
 10
-69.01146
 20
-38.065992
 11
-87.122815
 21
-56.176795
  0
LINE
  8
ガラス
  6
CONTINUOUS
 10
-73.466172
 20
-33.61114
 11
-91.577523
 21
-51.72193
  0
LINE
  8
ガラス
  6
CONTINUOUS
 10
-73.81972
 20
-33.257582
 11
-91.931067
 21
-51.368372
  0
LINE
  8
ガラス
  6
CONTINUOUS
 10
-78.062277
 20
-29.014887
 11
-96.173618
 21
-47.125673
  0
LINE
  8
ガラス
  6
CONTINUOUS
 10
-78.415827
 20
-28.661327
 11
-96.527167
 21
-46.77211
  0
LINE
  8
ガラス
  6
CONTINUOUS
 10
-81.244228
 20
-25.832838
 11
-99.355562
 21
-43.943615
  0
LINE
  8
ガラス
  6
CONTINUOUS
 10
-81.597778
 20
-25.479275
 11
-99.709112
 21
-43.590052
  0
LINE
  8
ガラス
  6
CONTINUOUS
 10
-98.660768
 20
-99.234307
 11
-115.85435
 21
-103.841015
  0
LINE
  8
ガラス
  6
CONTINUOUS
 10
-103.67629
 20
-106.78976
 11
-109.471838
 21
-108.342573
  0
LINE
  8
ガラス
  6
CONTINUOUS
 10
-109.471838
 20
-108.342573
 11
-105.229108
 21
-100.99418
  0
LINE
  8
ガラス
  6
CONTINUOUS
 10
-111.024665
 20
-102.54699
 11
-103.67629
 21
-106.78976
  0
LINE
  8
ガラス
  6
CONTINUOUS
 10
-92.51505
 20
-124.104007
 11
-99.143743
 21
-99.363713
  0
LINE
  8
ガラス
  6
CONTINUOUS
 10
-92.032085
 20
-123.974608
 11
-98.66078
 21
-99.23431
  0
LINE
  8
ガラス
  6
CONTINUOUS
 10
-98.600432
 20
-125.734475
 11
-105.229125
 21
-100.99418
  0
LINE
  8
ガラス
  6
CONTINUOUS
 10
-98.117468
 20
-125.605073
 11
-104.74616
 21
-100.864778
  0
LINE
  8
ガラス
  6
CONTINUOUS
 10
-104.878953
 20
-127.41669
 11
-111.507645
 21
-102.676395
  0
LINE
  8
ガラス
  6
CONTINUOUS
 10
-104.395982
 20
-127.287285
 11
-111.024675
 21
-102.546993
  0
LINE
  8
ガラス
  6
CONTINUOUS
 10
-109.225663
 20
-128.58131
 11
-115.85436
 21
-103.841017
  0
LINE
  8
ガラス
  6
CONTINUOUS
 10
-108.742698
 20
-128.451908
 11
-115.371393
 21
-103.711615
  0
INSERT
  2
*GRP_0005
  8
ゴム等
  6
CONTINUOUS
 62
    63
 10
0.0
 20
0.0
  0
INSERT
  2
*GRP_0006
  8
ゴム等
  6
CONTINUOUS
 10
0.0
 20
0.0
  0
INSERT
  2
*GRP_0007
  8
ゴム等
  6
CONTINUOUS
 10
0.0
 20
0.0
  0
INSERT
  2
*GRP_0020
  8
ゴム等
  6
DOT
 62
    63
 10
0.0
 20
0.0
  0
INSERT
  2
*GRP_0021
  8
ゴム等
  6
CONTINUOUS
 62
    63
 10
0.0
 20
0.0
  0
ARC
  8
ボルト／ビス
  6
DOT
 62
    64
 10
-119.153924
 20
-70.668204
 40
8.471617
 50
109.279796
 51
220.718388
  0
LINE
  8
ボルト／ビス
  6
DOT
 62
    64
 10
-121.951098
 20
-62.671673
 11
-125.57478
 21
-76.19457
  0
LINE
  8
ボルト／ビス
  6
DOT
 62
    64
 10
-127.33685
 20
-68.47543
 11
-109.274118
 21
-73.315637
  0
LINE
  8
ボルト／ビス
  6
DOT
 62
    64
 10
-111.016535
 20
-75.95457
 11
-109.463533
 21
-70.159037
  0
LINE
  8
ボルト／ビス
  6
DOT
 62
    64
 10
-111.016535
 20
-75.95457
 11
-109.791777
 21
-75.247477
  0
LINE
  8
ボルト／ビス
  6
DOT
 62
    64
 10
-108.756445
 20
-71.383782
 11
-109.463533
 21
-70.159037
  0
LINE
  8
ボルト／ビス
  6
DOT
 62
    64
 10
-108.756445
 20
-71.383782
 11
-109.791777
 21
-75.247477
  0
LINE
  8
ボルト／ビス
  6
DOT
 62
    64
 10
-122.986438
 20
-66.535355
 11
-109.463533
 21
-70.159037
  0
LINE
  8
ボルト／ビス
  6
DOT
 62
    64
 10
-124.53945
 20
-72.330885
 11
-111.016535
 21
-75.95457
  0
LINE
  8
ボルト／ビス
  6
DOT
 62
    64
 10
-123.245273
 20
-67.501275
 11
-108.756445
 21
-71.383782
  0
LINE
  8
ボルト／ビス
  6
DOT
 62
    64
 10
-124.280608
 20
-71.364967
 11
-109.791777
 21
-75.247477
  0
INSERT
  2
*GRP_0008
  8
ボルト／ビス
  6
CONTINUOUS
 10
0.0
 20
0.0
  0
INSERT
  2
*GRP_0009
  8
ボルト／ビス
  6
CONTINUOUS
 10
0.0
 20
0.0
  0
INSERT
  2
*GRP_0017
  8
ボルト／ビス
  6
CONTINUOUS
 10
0.0
 20
0.0
  0
INSERT
  2
*GRP_0018
  8
ボルト／ビス
  6
CONTINUOUS
 10
0.0
 20
0.0
  0
INSERT
  2
*GRP_0022
  8
ボルト／ビス
  6
CONTINUOUS
 10
0.0
 20
0.0
  0
TEXT
  7
TextStyle03
  8
文字
  6
CONTINUOUS
 10
84.4
 20
107.725
  1
ＮＳコード：ＮＳ４Ｃ　ＮＳ４ＣＫ
 40
5.0
 72
     5
 11
173.775
 21
107.725
  0
TEXT
  7
TextStyle03
  8
文字
  6
CONTINUOUS
 10
84.575
 20
126.425
  1
シリーズ：ＴＦ４・ＴＦ４Ｋ
 40
5.0
 72
     5
 11
157.075
 21
126.425
  0
TEXT
  7
TextStyle03
  8
文字
  6
CONTINUOUS
 10
84.575
 20
120.8
  1
　　　　　四角錘（固定・上下可動）
 40
5.0
 72
     5
 11
179.575
 21
120.8
  0
TEXT
  7
TextStyle03
  8
文字
  6
CONTINUOUS
 10
84.575
 20
115.175
  1
図面名　：頂部～稜線フレーム断面詳細図
 40
5.0
 72
     5
 11
190.825
 21
115.175
  0
TEXT
  7
TextStyle03
  8
文字
  6
CONTINUOUS
 10
-42.95
 20
-109.475
  1
稜線フレーム
 40
4.0
 72
     5
 11
-16.45
 21
-109.475
  0
TEXT
  7
TextStyle03
  8
文字
  6
CONTINUOUS
 10
-111.55
 20
42.85
  1
ゴムパッキン付き
 40
3.0
 72
     5
 11
-84.925
 21
42.85
  0
TEXT
  7
TextStyle03
  8
文字
  6
CONTINUOUS
 10
-66.025
 20
95.125
  1
キャップ
 40
3.5
 72
     5
 11
-50.675
 21
95.125
  0
TEXT
  7
TextStyle03
  8
文字
  6
CONTINUOUS
 10
-66.025
 20
91.175
  1
AL-2.0t(焼付塗装)
 40
3.5
 72
     5
 11
-32.675
 21
91.175
  0
TEXT
  7
TextStyle03
  8
文字
  6
CONTINUOUS
 10
3.9
 20
-48.025
  1
フレーム集合部シール
 40
4.0
 72
     5
 11
48.4
 21
-48.025
  0
TEXT
  7
TextStyle03
  8
文字
  6
CONTINUOUS
 10
14.5
 20
-60.7
  1
棟フレーム
 40
4.0
 72
     5
 11
36.5
 21
-60.7
  0
POLYLINE
  8
文字
  6
CONTINUOUS
 66
     1
 70
     1
  0
VERTEX
  8
文字
 10
-99.49706
 20
124.166355
  0
VERTEX
  8
文字
 10
-173.723838
 20
124.166355
  0
VERTEX
  8
文字
 10
-173.723838
 20
51.892425
  0
VERTEX
  8
文字
 10
-99.49706
 20
51.892425
  0
SEQEND
  0
TEXT
  7
TextStyle03
  8
文字
  6
CONTINUOUS
 10
-162.375
 20
118.0
  1
シングルガラスタイプ
 40
3.5
 72
     5
 11
-123.325
 21
118.0
  0
INSERT
  2
*DIM_0010
  8
寸法
  6
CONTINUOUS
 10
0.0
 20
0.0
  0
INSERT
  2
*DIM_0011
  8
寸法
  6
CONTINUOUS
 10
0.0
 20
0.0
  0
INSERT
  2
*GRP_0012
  8
寸法
  6
CONTINUOUS
 10
0.0
 20
0.0
  0
INSERT
  2
*GRP_0013
  8
寸法
  6
CONTINUOUS
 10
0.0
 20
0.0
  0
INSERT
  2
*DIM_0014
  8
寸法
  6
CONTINUOUS
 10
0.0
 20
0.0
  0
INSERT
  2
*DIM_0015
  8
寸法
  6
CONTINUOUS
 10
0.0
 20
0.0
  0
INSERT
  2
*GRP_0016
  8
寸法
  6
CONTINUOUS
 10
0.0
 20
0.0
  0
INSERT
  2
*DIM_0019
  8
寸法
  6
CONTINUOUS
 10
0.0
 20
0.0
  0
INSERT
  2
*GRP_0023
  8
寸法
  6
CONTINUOUS
 10
0.0
 20
0.0
  0
INSERT
  2
*HAT_0001
  8
ﾊｯﾁﾝｸﾞ
 10
0.0
 20
0.0
  0
INSERT
  2
*HAT_0002
  8
ﾊｯﾁﾝｸﾞ
 10
0.0
 20
0.0
  0
INSERT
  2
*HAT_0003
  8
ﾊｯﾁﾝｸﾞ
 10
0.0
 20
0.0
  0
LINE
  8
その他部品等
  6
CONTINUOUS
 10
-121.95979
 20
-121.640507
 11
-111.81373
 21
-118.921883
  0
LINE
  8
その他部品等
  6
CONTINUOUS
 10
-114.401912
 20
-109.262622
 11
-126.479673
 21
-112.498845
  0
LINE
  8
その他部品等
  6
CONTINUOUS
 10
-96.096242
 20
-25.122665
 11
-88.66905
 21
-32.550325
  0
LINE
  8
その他部品等
  6
CONTINUOUS
 10
-95.74034
 20
-39.621175
 11
-104.581598
 21
-30.779357
  0
LINE
  8
その他部品等
  6
CONTINUOUS
 10
-116.213645
 20
-102.501142
 11
-128.291407
 21
-105.737363
  0
LINE
  8
その他部品等
  6
CONTINUOUS
 10
-128.291407
 20
-105.737363
 11
-114.401912
 21
-109.262622
  0
LINE
  8
その他部品等
  6
CONTINUOUS
 10
-95.74034
 20
-39.621175
 11
-104.581598
 21
-30.779357
  0
LINE
  8
その他部品等
  6
CONTINUOUS
 10
-100.690245
 20
-44.570765
 11
-109.5315
 21
-35.728947
  0
LINE
  8
その他部品等
  6
CONTINUOUS
 10
-109.5315
 20
-35.728947
 11
-95.74034
 21
-39.621175
  0
LINE
  8
その他部品等
  6
CONTINUOUS
 10
23.561813
 20
-8.223645
 11
23.561813
 21
54.13121
  0
LINE
  8
その他部品等
  6
CONTINUOUS
 10
23.624313
 20
-8.286145
 11
23.624313
 21
54.068713
  0
LINE
  8
その他部品等
  6
CONTINUOUS
 10
23.499313
 20
-8.161145
 11
23.499313
 21
54.19371
  0
LINE
  8
その他部品等
  6
CONTINUOUS
 10
23.436813
 20
-8.098645
 11
23.436813
 21
54.256207
  0
LINE
  8
その他部品等
  6
CONTINUOUS
 10
23.124313
 20
-8.286145
 11
23.124313
 21
54.068713
  0
LINE
  8
その他部品等
  6
CONTINUOUS
 10
23.186813
 20
-8.223638
 11
23.186813
 21
54.13121
  0
LINE
  8
その他部品等
  6
CONTINUOUS
 10
23.311813
 20
-8.098638
 11
23.311813
 21
54.256207
  0
LINE
  8
その他部品等
  6
CONTINUOUS
 10
23.249313
 20
-8.161138
 11
23.249313
 21
54.19371
  0
INSERT
  2
*GRP_0024
  8
その他部品等
  6
CONTINUOUS
 10
0.0
 20
0.0
  0
LINE
  8
その他部品等
  6
CONTINUOUS
 10
-154.049032
 20
98.694147
 11
-144.50316
 21
89.148275
  0
LINE
  8
その他部品等
  6
CONTINUOUS
 10
-148.39218
 20
104.351
 11
-138.846217
 21
94.805038
  0
LINE
  8
その他部品等
  6
CONTINUOUS
 10
-142.734728
 20
112.835668
 11
-120.815025
 21
112.835668
  0
LINE
  8
その他部品等
  6
CONTINUOUS
 10
-154.049032
 20
98.694147
 11
-138.846217
 21
94.805038
  0
ENDSEC
  0
EOF
