  0
SECTION
  2
HEADER
  9
$EXTMIN
 10
-210.0
 20
-148.5
  9
$EXTMAX
 10
210.0
 20
148.5
  9
$PDMODE
 70
    32
  9
$PDSIZE
 40
1.5
  9
$LTSCALE
 40
10.0
  0
ENDSEC
  0
SECTION
  2
TABLES
  0
TABLE
  2
LTYPE
 70
    15
  0
LTYPE
  2
CONTINUOUS
 70
    64
  3
実線
 72
    65
 73
     0
 40
0.0
  0
LTYPE
  2
DASHED
 70
    64
  3
破線A
 72
    65
 73
     2
 40
0.6
 49
0.4
 49
-0.2
  0
LTYPE
  2
DASHEDX2
 70
    64
  3
破線B
 72
    65
 73
     2
 40
1.3
 49
0.9
 49
-0.4
  0
LTYPE
  2
DASHDOT
 70
    64
  3
１点鎖線A
 72
    65
 73
     4
 40
0.5375
 49
0.375
 49
-0.05
 49
0.0625
 49
-0.05
  0
LTYPE
  2
DASHDOTX2
 70
    64
  3
１点鎖線B
 72
    65
 73
     4
 40
1.075
 49
0.75
 49
-0.1
 49
0.125
 49
-0.1
  0
LTYPE
  2
DIVIDE2
 70
    64
  3
２点鎖線A
 72
    65
 73
     6
 40
0.5125
 49
0.3
 49
-0.0375
 49
0.05
 49
-0.0375
 49
0.05
 49
-0.0375
  0
LTYPE
  2
DIVIDE
 70
    64
  3
２点鎖線B
 72
    65
 73
     6
 40
1.05
 49
0.55
 49
-0.1
 49
0.1
 49
-0.1
 49
0.1
 49
-0.1
  0
LTYPE
  2
DOT
 70
    64
  3
点線A
 72
    65
 73
     2
 40
0.1125
 49
0.0625
 49
-0.05
  0
LTYPE
  2
DOTX2
 70
    64
  3
点線B
 72
    65
 73
     2
 40
0.275
 49
0.15
 49
-0.125
  0
LTYPE
  2
CONTINUOUS
 70
    64
  3
実線
 72
    65
 73
     0
 40
0.0
  0
LTYPE
  2
CONTINUOUS
 70
    64
  3
実線
 72
    65
 73
     0
 40
0.0
  0
LTYPE
  2
CONTINUOUS
 70
    64
  3
実線
 72
    65
 73
     0
 40
0.0
  0
LTYPE
  2
CONTINUOUS
 70
    64
  3
実線
 72
    65
 73
     0
 40
0.0
  0
LTYPE
  2
CONTINUOUS
 70
    64
  3
実線
 72
    65
 73
     0
 40
0.0
  0
LTYPE
  2
CONTINUOUS
 70
    64
  3
実線
 72
    65
 73
     0
 40
0.0
  0
ENDTAB
  0
TABLE
  2
LAYER
 70
    34
  0
LAYER
  2
通り芯
 70
     0
 62
    15
  6
CONTINUOUS
  0
LAYER
  2
補助線
 70
     0
 62
    16
  6
DOT
  0
LAYER
  2
躯体
 70
     0
 62
    31
  6
CONTINUOUS
  0
LAYER
  2
型材
 70
     0
 62
    32
  6
CONTINUOUS
  0
LAYER
  2
型材断面
 70
     0
 62
    47
  6
CONTINUOUS
  0
LAYER
  2
ガラス
 70
     0
 62
    48
  6
CONTINUOUS
  0
LAYER
  2
ゴム等
 70
     0
 62
    63
  6
CONTINUOUS
  0
LAYER
  2
ボルト／ビス
 70
     0
 62
    64
  6
CONTINUOUS
  0
LAYER
  2
文字
 70
     0
 62
    79
  6
CONTINUOUS
  0
LAYER
  2
寸法
 70
     0
 62
    80
  6
CONTINUOUS
  0
LAYER
  2
ﾊｯﾁﾝｸﾞ
 70
     0
 62
    95
  6
CONTINUOUS
  0
LAYER
  2
別途部材
 70
     0
 62
    96
  6
CONTINUOUS
  0
LAYER
  2
曲げ物
 70
     0
 62
   111
  6
CONTINUOUS
  0
LAYER
  2
鉄骨等
 70
     0
 62
   112
  6
CONTINUOUS
  0
LAYER
  2
St
 70
     0
 62
   127
  6
CONTINUOUS
  0
LAYER
  2
その他部品等
 70
     0
 62
   128
  6
CONTINUOUS
  0
LAYER
  2
ｶﾞｽｹｯﾄ
 70
     0
 62
   143
  6
CONTINUOUS
  0
LAYER
  2
ｽｹｯﾁ
 70
     0
 62
    14
  6
CONTINUOUS
  0
LAYER
  2
0
 70
     0
 62
    17
  6
CONTINUOUS
  0
LAYER
  2
1
 70
     0
 62
    30
  6
CONTINUOUS
  0
LAYER
  2
4
 70
     0
 62
    33
  6
CONTINUOUS
  0
LAYER
  2
ﾚｲﾔ3
 70
     0
 62
    46
  6
CONTINUOUS
  0
LAYER
  2
外形線
 70
     0
 62
    49
  6
CONTINUOUS
  0
LAYER
  2
部品
 70
     0
 62
    14
  6
CONTINUOUS
  0
LAYER
  2
サッシ芯
 70
     0
 62
    17
  6
DASHDOTX2
  0
LAYER
  2
寸法線
 70
     0
 62
    62
  6
CONTINUOUS
  0
LAYER
  2
姿図外形線
 70
     0
 62
    65
  6
CONTINUOUS
  0
LAYER
  2
姿補助線
 70
     0
 62
    30
  6
CONTINUOUS
  0
LAYER
  2
透視線
 70
     0
 62
    78
  6
DOT
  0
LAYER
  2
用紙
 70
     0
 62
    81
  6
CONTINUOUS
  0
LAYER
  2
実線図枠
 70
     0
 62
    94
  6
CONTINUOUS
  0
LAYER
  2
補助図枠
 70
     0
 62
    97
  6
CONTINUOUS
  0
LAYER
  2
建具記号
 70
     0
 62
   110
  6
CONTINUOUS
  0
LAYER
  2
補助文字
 70
     0
 62
   113
  6
CONTINUOUS
  0
ENDTAB
  0
TABLE
  2
STYLE
 70
    10
  0
STYLE
  2
STANDARD
 70
     0
 40
1.0
 41
1.0
 42
1.0
 50
0.0
 71
     0
  3
TXT
  4
BIGFONT
  0
STYLE
  2
TATE
 70
     4
 40
1.0
 41
1.0
 42
1.0
 50
0.0
 71
     0
  3
TXT
  4
BIGFONT
  0
STYLE
  2
TextStyle03
 70
     0
 40
1.0
 41
1.0
 42
1.0
 50
0.0
 71
     0
  3
MONOTXT
  4
BIGFONT
  0
STYLE
  2
TextStyle04
 70
     0
 40
1.0
 41
1.0
 42
1.0
 50
0.0
 71
     0
  3
MONOTXT
  4
BIGFONT
  0
STYLE
  2
TextStyle05
 70
     0
 40
1.0
 41
1.0
 42
1.0
 50
0.0
 71
     0
  3
MONOTXT
  4
BIGFONT
  0
STYLE
  2
TextStyle06
 70
     0
 40
1.0
 41
1.0
 42
1.0
 50
0.0
 71
     0
  3
MONOTXT
  4
BIGFONT
  0
STYLE
  2
TextStyle07
 70
     0
 40
1.0
 41
1.0
 42
1.0
 50
0.0
 71
     0
  3
MONOTXT
  4
BIGFONT
  0
STYLE
  2
TextStyle08
 70
     0
 40
1.0
 41
1.0
 42
1.0
 50
0.0
 71
     0
  3
MONOTXT
  4
BIGFONT
  0
STYLE
  2
TextStyle09
 70
     0
 40
1.0
 41
1.0
 42
1.0
 50
0.0
 71
     0
  3
MONOTXT
  4
BIGFONT
  0
STYLE
  2
TextStyle10
 70
     0
 40
1.0
 41
1.0
 42
1.0
 50
0.0
 71
     0
  3
MONOTXT
  4
BIGFONT
  0
ENDTAB
  0
ENDSEC
  0
SECTION
  2
BLOCKS
  0
BLOCK
  2
*GRP_0001
 70
    65
 10
0.0
 20
0.0
  0
LINE
  8
型材断面
  6
CONTINUOUS
 10
195.0
 20
133.5
 11
195.0
 21
-133.5
  0
LINE
  8
型材断面
  6
CONTINUOUS
 10
195.0
 20
-133.5
 11
-185.0
 21
-133.5
  0
LINE
  8
型材断面
  6
CONTINUOUS
 10
-185.0
 20
-133.5
 11
-185.0
 21
133.5
  0
LINE
  8
型材断面
  6
CONTINUOUS
 10
195.0
 20
133.5
 11
-185.0
 21
133.5
  0
LINE
  8
型材断面
  6
CONTINUOUS
 10
145.0
 20
-133.5
 11
145.0
 21
-118.5
  0
LINE
  8
型材断面
  6
CONTINUOUS
 10
195.0
 20
-118.5
 11
145.0
 21
-118.5
  0
ENDBLK
  0
BLOCK
  2
*DIM_0002
 70
    65
 10
0.0
 20
0.0
  0
LINE
  8
寸法
  6
BYBLOCK
 62
     0
 10
-92.435405
 20
-26.094458
 11
-62.435405
 21
-26.094458
  0
POINT
  8
寸法
 62
     0
 10
-92.435405
 20
-26.094458
  0
POINT
  8
寸法
 62
     0
 10
-62.435405
 20
-26.094458
  0
TEXT
  7
TextStyle03
  8
寸法
  6
CONTINUOUS
 62
     0
 10
-88.325
 20
-25.725
  1
呼称寸法　600
 40
3.0
 72
     5
 11
-66.575
 21
-25.725
  0
ENDBLK
  0
BLOCK
  2
*DIM_0003
 70
    65
 10
0.0
 20
0.0
  0
LINE
  8
寸法
  6
BYBLOCK
 62
     0
 10
-61.435402
 20
1.691987
 11
-40.885975
 21
1.691987
  0
LINE
  8
寸法
  6
BYBLOCK
 62
     0
 10
-53.411528
 20
7.241987
 11
-40.885975
 21
7.241987
  0
LINE
  8
寸法
  6
BYBLOCK
 62
     0
 10
-40.885975
 20
1.691987
 11
-40.885975
 21
7.241987
  0
POINT
  8
寸法
 62
     0
 10
-40.885975
 20
1.691987
  0
POINT
  8
寸法
 62
     0
 10
-40.885975
 20
7.241987
  0
TEXT
  7
TextStyle03
  8
寸法
  6
CONTINUOUS
 62
     0
 10
-41.3
 20
2.0125
  1
111
 40
3.0
 50
90.0
 72
     5
 11
-41.3
 21
6.8875
  0
ENDBLK
  0
BLOCK
  2
*DIM_0004
 70
    65
 10
0.0
 20
0.0
  0
LINE
  8
寸法
  6
BYBLOCK
 62
     0
 10
-61.435402
 20
31.691993
 11
-40.885975
 21
31.691993
  0
LINE
  8
寸法
  6
BYBLOCK
 62
     0
 10
-53.411528
 20
26.141993
 11
-40.885975
 21
26.141993
  0
LINE
  8
寸法
  6
BYBLOCK
 62
     0
 10
-40.885975
 20
31.691993
 11
-40.885975
 21
26.141993
  0
POINT
  8
寸法
 62
     0
 10
-40.885975
 20
31.691993
  0
POINT
  8
寸法
 62
     0
 10
-40.885975
 20
26.141993
  0
TEXT
  7
TextStyle03
  8
寸法
  6
CONTINUOUS
 62
     0
 10
-41.3
 20
26.4625
  1
111
 40
3.0
 50
90.0
 72
     5
 11
-41.3
 21
31.3375
  0
ENDBLK
  0
BLOCK
  2
*DIM_0005
 70
    65
 10
0.0
 20
0.0
  0
LINE
  8
寸法
  6
CONTINUOUS
 62
     0
 10
-67.435405
 20
32.691987
 11
-67.435405
 21
52.642592
  0
LINE
  8
寸法
  6
CONTINUOUS
 62
     0
 10
-87.435405
 20
32.691987
 11
-87.435405
 21
52.642592
  0
LINE
  8
寸法
  6
CONTINUOUS
 62
     0
 10
-67.435405
 20
52.642592
 11
-87.435405
 21
52.642592
  0
POINT
  8
寸法
 62
     0
 10
-67.435405
 20
52.642592
 50
-270.0
  0
POINT
  8
寸法
 62
     0
 10
-87.435405
 20
52.642592
 50
-270.0
  0
TEXT
  7
TextStyle03
  8
寸法
  6
CONTINUOUS
 62
     0
 10
-79.9125
 20
53.05
  1
400
 40
3.0
 72
     5
 11
-75.0375
 21
53.05
  0
ENDBLK
  0
BLOCK
  2
*GRP_0006
 70
    65
 10
0.0
 20
0.0
  0
POLYLINE
  8
寸法
  6
CONTINUOUS
 62
     0
 66
     1
  0
VERTEX
  8
寸法
 10
-64.771885
 20
14.188283
  0
VERTEX
  8
寸法
 10
-61.09069
 20
10.507087
  0
VERTEX
  8
寸法
 10
-38.248113
 20
10.507087
  0
SEQEND
  0
ENDBLK
  0
BLOCK
  2
*DIM_0007
 70
    65
 10
0.0
 20
0.0
  0
LINE
  8
寸法
  6
CONTINUOUS
 10
-92.435405
 20
-26.094458
 11
-96.580185
 21
-26.094458
  0
POINT
  8
寸法
 10
-92.435405
 20
-26.094458
  0
POINT
  8
寸法
 10
-96.580185
 20
-26.094458
  0
TEXT
  7
TextStyle03
  8
寸法
  6
CONTINUOUS
 10
-99.85625
 20
-25.3
  1
82.9
 40
3.0
 72
     5
 11
-93.29375
 21
-25.3
  0
ENDBLK
  0
BLOCK
  2
*DIM_0008
 70
    65
 10
0.0
 20
0.0
  0
LINE
  8
寸法
  6
CONTINUOUS
 10
-58.290625
 20
-26.094458
 11
-62.435405
 21
-26.094458
  0
POINT
  8
寸法
 10
-58.290625
 20
-26.094458
  0
POINT
  8
寸法
 10
-62.435405
 20
-26.094458
  0
TEXT
  7
TextStyle03
  8
寸法
  6
CONTINUOUS
 10
-61.63125
 20
-25.175
  1
82.9
 40
3.0
 72
     5
 11
-55.06875
 21
-25.175
  0
ENDBLK
  0
BLOCK
  2
*GRP_0009
 70
    65
 10
0.0
 20
0.0
  0
LINE
  8
別途部材
  6
DOT
 62
    47
 10
22.521667
 20
-53.96653
 11
22.521667
 21
-54.06653
  0
ARC
  8
別途部材
  6
DOT
 62
    47
 10
22.671668
 20
-53.96653
 40
0.15
 50
90.0
 51
180.0
  0
LINE
  8
別途部材
  6
DOT
 62
    47
 10
22.75645
 20
-54.06653
 11
22.75645
 21
-56.31653
  0
LINE
  8
別途部材
  6
DOT
 62
    47
 10
21.12667
 20
-59.791532
 11
40.27145
 21
-59.791532
  0
LINE
  8
別途部材
  6
DOT
 62
    47
 10
21.12667
 20
-58.041532
 11
40.27145
 21
-58.041532
  0
LINE
  8
別途部材
  6
DOT
 62
    47
 10
22.75645
 20
-56.31653
 11
40.27145
 21
-56.31653
  0
LINE
  8
別途部材
  6
DOT
 62
    47
 10
22.521667
 20
-54.06653
 11
40.27145
 21
-54.06653
  0
LINE
  8
別途部材
  6
DOT
 62
    47
 10
22.671667
 20
-53.81653
 11
40.27145
 21
-53.81653
  0
LINE
  8
別途部材
  6
DOT
 62
    47
 10
58.021233
 20
-53.96653
 11
58.021233
 21
-54.06653
  0
ARC
  8
別途部材
  6
DOT
 62
    47
 10
57.871232
 20
-53.96653
 40
0.15
 50
0.0
 51
90.0
  0
LINE
  8
別途部材
  6
DOT
 62
    47
 10
57.78645
 20
-54.06653
 11
57.78645
 21
-56.31653
  0
LINE
  8
別途部材
  6
DOT
 62
    47
 10
59.41623
 20
-59.791532
 11
40.27145
 21
-59.791532
  0
LINE
  8
別途部材
  6
DOT
 62
    47
 10
59.41623
 20
-58.041532
 11
40.27145
 21
-58.041532
  0
LINE
  8
別途部材
  6
DOT
 62
    47
 10
57.78645
 20
-56.31653
 11
40.27145
 21
-56.31653
  0
LINE
  8
別途部材
  6
DOT
 62
    47
 10
58.021233
 20
-54.06653
 11
40.27145
 21
-54.06653
  0
LINE
  8
別途部材
  6
DOT
 62
    47
 10
57.871233
 20
-53.81653
 11
40.27145
 21
-53.81653
  0
LINE
  8
鉄骨等
  6
DOT
 62
    47
 10
21.12667
 20
-59.791532
 11
21.12667
 21
-58.041532
  0
LINE
  8
鉄骨等
  6
DOT
 62
    47
 10
21.12667
 20
-58.041532
 11
23.23145
 21
-56.316532
  0
LINE
  8
鉄骨等
  6
DOT
 62
    47
 10
59.41623
 20
-59.791532
 11
59.41623
 21
-58.041532
  0
LINE
  8
鉄骨等
  6
DOT
 62
    47
 10
59.41623
 20
-58.041532
 11
57.31145
 21
-56.316532
  0
ENDBLK
  0
BLOCK
  2
*GRP_0010
 70
    65
 10
0.0
 20
0.0
  0
LINE
  8
補助線
  6
BYBLOCK
 62
    64
 10
49.772505
 20
-69.616947
 11
49.97748
 21
-69.760073
  0
LINE
  8
補助線
  6
BYBLOCK
 62
    64
 10
49.946555
 20
-69.586023
 11
49.80343
 21
-69.790997
  0
LINE
  8
補助線
  6
BYBLOCK
 62
    64
 10
41.778385
 20
-64.035145
 11
41.573408
 21
-63.89202
  0
LINE
  8
補助線
  6
BYBLOCK
 62
    64
 10
41.747458
 20
-63.861092
 11
41.604335
 21
-64.06607
  0
LINE
  8
補助線
  6
BYBLOCK
 62
    64
 10
33.579283
 20
-58.310222
 11
33.374305
 21
-58.1671
  0
LINE
  8
補助線
  6
BYBLOCK
 62
    64
 10
33.548355
 20
-58.136172
 11
33.405233
 21
-58.34115
  0
LINE
  8
型材断面
  6
CONTINUOUS
 10
51.000565
 20
-68.94987
 11
51.186125
 21
-69.99417
  0
LINE
  8
型材断面
  6
CONTINUOUS
 10
51.186125
 20
-69.99417
 11
50.613632
 21
-70.814083
  0
LINE
  8
型材断面
  6
CONTINUOUS
 10
50.613632
 20
-70.814083
 11
49.569333
 21
-70.999643
  0
LINE
  8
型材断面
  6
CONTINUOUS
 10
41.96214
 20
-63.553633
 11
41.389645
 21
-64.373542
  0
LINE
  8
型材断面
  6
CONTINUOUS
 10
33.782452
 20
-56.927527
 11
32.738153
 21
-57.11309
  0
LINE
  8
型材断面
  6
CONTINUOUS
 10
32.738153
 20
-57.11309
 11
32.16566
 21
-57.933
  0
LINE
  8
型材断面
  6
CONTINUOUS
 10
32.16566
 20
-57.933
 11
32.351225
 21
-58.977303
  0
LINE
  8
型材断面
  6
CONTINUOUS
 10
51.000565
 20
-68.94987
 11
33.782467
 21
-56.927525
  0
LINE
  8
型材断面
  6
CONTINUOUS
 10
49.569333
 20
-70.999643
 11
32.35122
 21
-58.977293
  0
LINE
  8
ボルト／ビス
  6
CONTINUOUS
 62
    64
 10
50.139415
 20
-69.30981
 11
50.335167
 21
-69.728157
  0
LINE
  8
ボルト／ビス
  6
CONTINUOUS
 62
    64
 10
50.139415
 20
-69.30981
 11
49.67924
 21
-69.270165
  0
LINE
  8
ボルト／ビス
  6
CONTINUOUS
 62
    64
 10
49.61057
 20
-70.06721
 11
50.070745
 21
-70.106855
  0
LINE
  8
ボルト／ビス
  6
CONTINUOUS
 62
    64
 10
49.61057
 20
-70.06721
 11
49.414818
 21
-69.648862
  0
CIRCLE
  8
ボルト／ビス
  6
CONTINUOUS
 62
    64
 10
49.874993
 20
-69.68851
 40
0.4
  0
LINE
  8
ボルト／ビス
  6
CONTINUOUS
 62
    64
 10
49.67924
 20
-69.270165
 11
49.414818
 21
-69.648862
  0
LINE
  8
ボルト／ビス
  6
CONTINUOUS
 62
    64
 10
50.335167
 20
-69.728157
 11
50.070745
 21
-70.106855
  0
LINE
  8
ボルト／ビス
  6
CONTINUOUS
 62
    64
 10
41.94032
 20
-63.584883
 11
41.480142
 21
-63.545235
  0
LINE
  8
ボルト／ビス
  6
CONTINUOUS
 62
    64
 10
41.94032
 20
-63.584883
 11
42.136073
 21
-64.003227
  0
LINE
  8
ボルト／ビス
  6
CONTINUOUS
 62
    64
 10
41.411472
 20
-64.34228
 11
41.21572
 21
-63.923935
  0
LINE
  8
ボルト／ビス
  6
CONTINUOUS
 62
    64
 10
41.411472
 20
-64.34228
 11
41.871647
 21
-64.381927
  0
CIRCLE
  8
ボルト／ビス
  6
CONTINUOUS
 62
    64
 10
41.675895
 20
-63.963583
 40
0.4
  0
LINE
  8
ボルト／ビス
  6
CONTINUOUS
 62
    64
 10
42.136073
 20
-64.003227
 11
41.871647
 21
-64.381927
  0
LINE
  8
ボルト／ビス
  6
CONTINUOUS
 62
    64
 10
41.480142
 20
-63.545235
 11
41.21572
 21
-63.923935
  0
LINE
  8
ボルト／ビス
  6
CONTINUOUS
 62
    64
 10
33.741215
 20
-57.859962
 11
33.28104
 21
-57.820315
  0
LINE
  8
ボルト／ビス
  6
CONTINUOUS
 62
    64
 10
33.741215
 20
-57.859962
 11
33.936967
 21
-58.27831
  0
LINE
  8
ボルト／ビス
  6
CONTINUOUS
 62
    64
 10
33.212372
 20
-58.617363
 11
33.01662
 21
-58.199015
  0
LINE
  8
ボルト／ビス
  6
CONTINUOUS
 62
    64
 10
33.212372
 20
-58.617363
 11
33.672547
 21
-58.657007
  0
CIRCLE
  8
ボルト／ビス
  6
CONTINUOUS
 62
    64
 10
33.476793
 20
-58.238663
 40
0.4
  0
LINE
  8
ボルト／ビス
  6
CONTINUOUS
 62
    64
 10
33.936967
 20
-58.27831
 11
33.672547
 21
-58.657007
  0
LINE
  8
ボルト／ビス
  6
CONTINUOUS
 62
    64
 10
33.28104
 20
-57.820315
 11
33.01662
 21
-58.199015
  0
ENDBLK
  0
BLOCK
  2
*GRP_0011
 70
    65
 10
0.0
 20
0.0
  0
LINE
  8
補助線
  6
BYBLOCK
 62
    64
 10
33.579285
 20
-69.616947
 11
33.37431
 21
-69.760073
  0
LINE
  8
補助線
  6
BYBLOCK
 62
    64
 10
33.405235
 20
-69.586023
 11
33.54836
 21
-69.790997
  0
LINE
  8
補助線
  6
BYBLOCK
 62
    64
 10
41.573405
 20
-64.035145
 11
41.778383
 21
-63.89202
  0
LINE
  8
補助線
  6
BYBLOCK
 62
    64
 10
41.604333
 20
-63.861092
 11
41.747455
 21
-64.06607
  0
LINE
  8
補助線
  6
BYBLOCK
 62
    64
 10
49.772508
 20
-58.310222
 11
49.977485
 21
-58.1671
  0
LINE
  8
補助線
  6
BYBLOCK
 62
    64
 10
49.803435
 20
-58.136172
 11
49.946558
 21
-58.34115
  0
LINE
  8
型材断面
  6
CONTINUOUS
 10
32.351225
 20
-68.94987
 11
32.165665
 21
-69.99417
  0
LINE
  8
型材断面
  6
CONTINUOUS
 10
32.165665
 20
-69.99417
 11
32.738157
 21
-70.814083
  0
LINE
  8
型材断面
  6
CONTINUOUS
 10
32.738157
 20
-70.814083
 11
33.782458
 21
-70.999643
  0
LINE
  8
型材断面
  6
CONTINUOUS
 10
41.38965
 20
-63.553633
 11
41.962145
 21
-64.373542
  0
LINE
  8
型材断面
  6
CONTINUOUS
 10
49.569338
 20
-56.927527
 11
50.613638
 21
-57.11309
  0
LINE
  8
型材断面
  6
CONTINUOUS
 10
50.613638
 20
-57.11309
 11
51.18613
 21
-57.933
  0
LINE
  8
型材断面
  6
CONTINUOUS
 10
51.18613
 20
-57.933
 11
51.000565
 21
-58.977303
  0
LINE
  8
型材断面
  6
CONTINUOUS
 10
32.351225
 20
-68.94987
 11
49.569323
 21
-56.927525
  0
LINE
  8
型材断面
  6
CONTINUOUS
 10
33.782458
 20
-70.999643
 11
51.00057
 21
-58.977293
  0
LINE
  8
ボルト／ビス
  6
CONTINUOUS
 62
    64
 10
33.212375
 20
-69.30981
 11
33.016623
 21
-69.728157
  0
LINE
  8
ボルト／ビス
  6
CONTINUOUS
 62
    64
 10
33.212375
 20
-69.30981
 11
33.67255
 21
-69.270165
  0
LINE
  8
ボルト／ビス
  6
CONTINUOUS
 62
    64
 10
33.74122
 20
-70.06721
 11
33.281045
 21
-70.106855
  0
LINE
  8
ボルト／ビス
  6
CONTINUOUS
 62
    64
 10
33.74122
 20
-70.06721
 11
33.936973
 21
-69.648862
  0
CIRCLE
  8
ボルト／ビス
  6
CONTINUOUS
 62
    64
 10
33.476798
 20
-69.68851
 40
0.4
  0
LINE
  8
ボルト／ビス
  6
CONTINUOUS
 62
    64
 10
33.67255
 20
-69.270165
 11
33.936973
 21
-69.648862
  0
LINE
  8
ボルト／ビス
  6
CONTINUOUS
 62
    64
 10
33.016623
 20
-69.728157
 11
33.281045
 21
-70.106855
  0
LINE
  8
ボルト／ビス
  6
CONTINUOUS
 62
    64
 10
41.41147
 20
-63.584883
 11
41.871647
 21
-63.545235
  0
LINE
  8
ボルト／ビス
  6
CONTINUOUS
 62
    64
 10
41.41147
 20
-63.584883
 11
41.215718
 21
-64.003227
  0
LINE
  8
ボルト／ビス
  6
CONTINUOUS
 62
    64
 10
41.940317
 20
-64.34228
 11
42.13607
 21
-63.923935
  0
LINE
  8
ボルト／ビス
  6
CONTINUOUS
 62
    64
 10
41.940317
 20
-64.34228
 11
41.480142
 21
-64.381927
  0
CIRCLE
  8
ボルト／ビス
  6
CONTINUOUS
 62
    64
 10
41.675895
 20
-63.963583
 40
0.4
  0
LINE
  8
ボルト／ビス
  6
CONTINUOUS
 62
    64
 10
41.215718
 20
-64.003227
 11
41.480142
 21
-64.381927
  0
LINE
  8
ボルト／ビス
  6
CONTINUOUS
 62
    64
 10
41.871647
 20
-63.545235
 11
42.13607
 21
-63.923935
  0
LINE
  8
ボルト／ビス
  6
CONTINUOUS
 62
    64
 10
49.610575
 20
-57.859962
 11
50.07075
 21
-57.820315
  0
LINE
  8
ボルト／ビス
  6
CONTINUOUS
 62
    64
 10
49.610575
 20
-57.859962
 11
49.414823
 21
-58.27831
  0
LINE
  8
ボルト／ビス
  6
CONTINUOUS
 62
    64
 10
50.139417
 20
-58.617363
 11
50.33517
 21
-58.199015
  0
LINE
  8
ボルト／ビス
  6
CONTINUOUS
 62
    64
 10
50.139417
 20
-58.617363
 11
49.679242
 21
-58.657007
  0
CIRCLE
  8
ボルト／ビス
  6
CONTINUOUS
 62
    64
 10
49.874998
 20
-58.238663
 40
0.4
  0
LINE
  8
ボルト／ビス
  6
CONTINUOUS
 62
    64
 10
49.414823
 20
-58.27831
 11
49.679242
 21
-58.657007
  0
LINE
  8
ボルト／ビス
  6
CONTINUOUS
 62
    64
 10
50.07075
 20
-57.820315
 11
50.33517
 21
-58.199015
  0
ENDBLK
  0
BLOCK
  2
*DIM_0012
 70
    65
 10
0.0
 20
0.0
  0
LINE
  8
寸法
  6
BYBLOCK
 62
     0
 10
60.871233
 20
-53.81653
 11
77.313903
 21
-53.81653
  0
LINE
  8
寸法
  6
BYBLOCK
 62
     0
 10
77.313903
 20
-61.31653
 11
77.313903
 21
-53.81653
  0
POINT
  8
寸法
 62
     0
 10
77.313903
 20
-61.31653
  0
POINT
  8
寸法
 62
     0
 10
77.313903
 20
-53.81653
  0
TEXT
  7
TextStyle03
  8
寸法
  6
CONTINUOUS
 62
     0
 10
76.675
 20
-52.275
  1
上昇87以上
 40
3.0
 50
90.0
 72
     5
 11
76.675
 21
-35.775
  0
ENDBLK
  0
BLOCK
  2
*DIM_0013
 70
    65
 10
0.0
 20
0.0
  0
LINE
  8
寸法
  6
CONTINUOUS
 10
172.304785
 20
74.557477
 11
182.013138
 21
74.557477
  0
LINE
  8
寸法
  6
CONTINUOUS
 10
172.304785
 20
44.557477
 11
182.013138
 21
44.557477
  0
LINE
  8
寸法
  6
CONTINUOUS
 10
182.013138
 20
74.557477
 11
182.013138
 21
44.557477
  0
POINT
  8
寸法
 10
182.013138
 20
74.557477
  0
POINT
  8
寸法
 10
182.013138
 20
44.557477
  0
TEXT
  7
TextStyle03
  8
寸法
  6
CONTINUOUS
 10
181.625
 20
57.1125
  1
600
 40
3.0
 50
90.0
 72
     5
 11
181.625
 21
61.9875
  0
ENDBLK
  0
BLOCK
  2
*DIM_0014
 70
    65
 10
0.0
 20
0.0
  0
LINE
  8
寸法
  6
CONTINUOUS
 10
137.304785
 20
79.557477
 11
137.304785
 21
88.71135
  0
LINE
  8
寸法
  6
CONTINUOUS
 10
167.304785
 20
79.557477
 11
167.304785
 21
88.71135
  0
LINE
  8
寸法
  6
CONTINUOUS
 10
137.304785
 20
88.71135
 11
167.304785
 21
88.71135
  0
POINT
  8
寸法
 10
137.304785
 20
88.71135
  0
POINT
  8
寸法
 10
167.304785
 20
88.71135
  0
TEXT
  7
TextStyle03
  8
寸法
  6
CONTINUOUS
 10
149.8625
 20
89.075
  1
600
 40
3.0
 72
     5
 11
154.7375
 21
89.075
  0
ENDBLK
  0
BLOCK
  2
*DIM_0015
 70
    65
 10
0.0
 20
0.0
  0
LINE
  8
寸法
  6
CONTINUOUS
 10
-55.010573
 20
-61.31653
 11
-39.354838
 21
-61.31653
  0
LINE
  8
寸法
  6
CONTINUOUS
 10
-53.290625
 20
-73.491357
 11
-39.354838
 21
-73.491357
  0
LINE
  8
寸法
  6
CONTINUOUS
 10
-39.354838
 20
-61.31653
 11
-39.354838
 21
-73.491357
  0
POINT
  8
寸法
 10
-39.354838
 20
-61.31653
  0
POINT
  8
寸法
 10
-39.354838
 20
-73.491357
  0
TEXT
  7
TextStyle03
  8
寸法
  6
CONTINUOUS
 10
-39.75
 20
-71.55
  1
243.5
 40
3.0
 50
90.0
 72
     5
 11
-39.75
 21
-63.3
  0
ENDBLK
  0
BLOCK
  2
*DIM_0016
 70
    65
 10
0.0
 20
0.0
  0
LINE
  8
寸法
  6
CONTINUOUS
 10
62.67945
 20
-61.31653
 11
77.313903
 21
-61.31653
  0
LINE
  8
寸法
  6
CONTINUOUS
 10
64.41623
 20
-73.491357
 11
77.313903
 21
-73.491357
  0
LINE
  8
寸法
  6
CONTINUOUS
 10
77.313903
 20
-61.31653
 11
77.313903
 21
-73.491357
  0
POINT
  8
寸法
 10
77.313903
 20
-61.31653
  0
POINT
  8
寸法
 10
77.313903
 20
-73.491357
  0
TEXT
  7
TextStyle03
  8
寸法
  6
CONTINUOUS
 10
76.925
 20
-71.55
  1
243.5
 40
3.0
 50
90.0
 72
     5
 11
76.925
 21
-63.3
  0
ENDBLK
  0
ENDSEC
  0
SECTION
  2
ENTITIES
  0
POLYLINE
  8
通り芯
  6
CONTINUOUS
 66
     1
 70
     1
  0
VERTEX
  8
通り芯
 10
-210.0
 20
-148.5
  0
VERTEX
  8
通り芯
 10
210.0
 20
-148.5
  0
VERTEX
  8
通り芯
 10
210.0
 20
148.5
  0
VERTEX
  8
通り芯
 10
-210.0
 20
148.5
  0
SEQEND
  0
INSERT
  2
*GRP_0001
  8
型材断面
  6
CONTINUOUS
 10
0.0
 20
0.0
  0
LINE
  8
型材断面
  6
DASHDOT
 10
-92.435405
 20
-77.76228
 11
-92.435405
 21
31.69199
  0
LINE
  8
型材断面
  6
DASHDOT
 10
-77.435405
 20
-77.76228
 11
-77.435405
 21
31.69199
  0
LINE
  8
型材断面
  6
DASHDOT
 10
-62.435405
 20
-77.76228
 11
-62.435405
 21
31.69199
  0
LINE
  8
型材断面
  6
CONTINUOUS
 10
-100.459278
 20
7.241987
 11
-104.345038
 21
8.136073
  0
LINE
  8
型材断面
  6
CONTINUOUS
 10
-100.459278
 20
7.241987
 11
-104.345038
 21
6.347903
  0
LINE
  8
型材断面
  6
CONTINUOUS
 10
-104.345038
 20
6.347903
 11
-104.345038
 21
8.136073
  0
LINE
  8
型材断面
  6
CONTINUOUS
 10
-100.459278
 20
16.69199
 11
-104.345038
 21
14.448545
  0
LINE
  8
型材断面
  6
CONTINUOUS
 10
-100.459278
 20
16.69199
 11
-104.345038
 21
18.935435
  0
LINE
  8
型材断面
  6
CONTINUOUS
 10
-104.345038
 20
18.935435
 11
-104.345038
 21
14.448545
  0
LINE
  8
型材断面
  6
CONTINUOUS
 10
-100.459278
 20
26.141993
 11
-104.345038
 21
25.247907
  0
LINE
  8
型材断面
  6
CONTINUOUS
 10
-100.459278
 20
26.141993
 11
-104.345038
 21
27.036077
  0
LINE
  8
型材断面
  6
CONTINUOUS
 10
-104.345038
 20
27.036077
 11
-104.345038
 21
25.247907
  0
LINE
  8
型材断面
  6
CONTINUOUS
 10
-54.411528
 20
7.241987
 11
-50.525767
 21
8.136073
  0
LINE
  8
型材断面
  6
CONTINUOUS
 10
-54.411528
 20
7.241987
 11
-50.525767
 21
6.347903
  0
LINE
  8
型材断面
  6
CONTINUOUS
 10
-50.525767
 20
6.347903
 11
-50.525767
 21
8.136073
  0
LINE
  8
型材断面
  6
CONTINUOUS
 10
-54.411528
 20
16.69199
 11
-50.525767
 21
14.448545
  0
LINE
  8
型材断面
  6
CONTINUOUS
 10
-54.411528
 20
16.69199
 11
-50.525767
 21
18.935435
  0
LINE
  8
型材断面
  6
CONTINUOUS
 10
-50.525767
 20
18.935435
 11
-50.525767
 21
14.448545
  0
LINE
  8
型材断面
  6
CONTINUOUS
 10
-54.411528
 20
26.141993
 11
-50.525767
 21
25.247907
  0
LINE
  8
型材断面
  6
CONTINUOUS
 10
-54.411528
 20
26.141993
 11
-50.525767
 21
27.036077
  0
LINE
  8
型材断面
  6
CONTINUOUS
 10
-50.525767
 20
27.036077
 11
-50.525767
 21
25.247907
  0
LINE
  8
型材断面
  6
CONTINUOUS
 10
-77.435405
 20
39.715863
 11
-79.67885
 21
43.601622
  0
LINE
  8
型材断面
  6
CONTINUOUS
 10
-77.435405
 20
39.715863
 11
-75.19196
 21
43.601622
  0
LINE
  8
型材断面
  6
CONTINUOUS
 10
-75.19196
 20
43.601622
 11
-79.67885
 21
43.601622
  0
LINE
  8
型材断面
  6
CONTINUOUS
 10
-77.435405
 20
-6.331887
 11
-79.67885
 21
-10.217648
  0
LINE
  8
型材断面
  6
CONTINUOUS
 10
-77.435405
 20
-6.331887
 11
-75.19196
 21
-10.217648
  0
LINE
  8
型材断面
  6
CONTINUOUS
 10
-75.19196
 20
-10.217648
 11
-79.67885
 21
-10.217648
  0
LINE
  8
型材断面
  6
DOT
 10
-66.771885
 20
1.69199
 11
-66.771885
 21
31.691993
  0
LINE
  8
型材断面
  6
DOT
 10
-64.771885
 20
1.69199
 11
-64.771885
 21
31.691993
  0
LINE
  8
型材断面
  6
CONTINUOUS
 10
-35.48472
 20
-6.182028
 11
-37.728165
 21
-10.067788
  0
LINE
  8
型材断面
  6
CONTINUOUS
 10
-35.48472
 20
-6.182028
 11
-33.241275
 21
-10.067788
  0
LINE
  8
型材断面
  6
CONTINUOUS
 10
-33.241275
 20
-10.067788
 11
-37.728165
 21
-10.067788
  0
LINE
  8
型材断面
  6
CONTINUOUS
 10
-35.48472
 20
-13.871575
 11
-34.590635
 21
-17.757335
  0
LINE
  8
型材断面
  6
CONTINUOUS
 10
-35.48472
 20
-13.871575
 11
-36.378805
 21
-17.757335
  0
LINE
  8
型材断面
  6
CONTINUOUS
 10
-36.378805
 20
-17.757335
 11
-34.590635
 21
-17.757335
  0
LINE
  8
型材断面
  6
CONTINUOUS
 10
-44.5186
 20
-11.47568
 11
8.13808
 21
-11.47568
  0
LINE
  8
型材断面
  6
CONTINUOUS
 10
-44.5186
 20
-22.675673
 11
8.13808
 21
-22.675673
  0
LINE
  8
型材断面
  6
CONTINUOUS
 10
-44.5186
 20
-29.515618
 11
8.13808
 21
-29.515618
  0
POLYLINE
  8
型材断面
  6
CONTINUOUS
 66
     1
 70
     1
  0
VERTEX
  8
型材断面
 10
-68.075518
 20
-11.538357
  0
VERTEX
  8
型材断面
 10
-86.63073
 20
-11.538357
  0
VERTEX
  8
型材断面
 10
-86.63073
 20
-16.330393
  0
VERTEX
  8
型材断面
 10
-68.075518
 20
-16.330393
  0
SEQEND
  0
POLYLINE
  8
型材断面
  6
CONTINUOUS
 66
     1
 70
     1
  0
VERTEX
  8
型材断面
 10
-68.075518
 20
49.54706
  0
VERTEX
  8
型材断面
 10
-86.63073
 20
49.54706
  0
VERTEX
  8
型材断面
 10
-86.63073
 20
44.755025
  0
VERTEX
  8
型材断面
 10
-68.075518
 20
44.755025
  0
SEQEND
  0
LINE
  8
型材断面
  6
CONTINUOUS
 10
-44.5186
 20
-36.355562
 11
8.13808
 21
-36.355562
  0
LINE
  8
型材断面
  6
CONTINUOUS
 10
-58.290625
 20
-2.45279
 11
-58.290625
 21
35.83677
  0
LINE
  8
型材断面
  6
CONTINUOUS
 10
-58.290625
 20
35.83677
 11
-96.580185
 21
35.83677
  0
LINE
  8
型材断面
  6
CONTINUOUS
 10
-58.290625
 20
-2.45279
 11
-96.580185
 21
-2.45279
  0
LINE
  8
型材断面
  6
CONTINUOUS
 10
-96.580185
 20
35.83677
 11
-96.580185
 21
-2.45279
  0
LINE
  8
型材断面
  6
DASHDOT
 10
-92.435405
 20
31.69199
 11
-62.435405
 21
31.69199
  0
LINE
  8
型材断面
  6
DASHDOT
 10
-92.435405
 20
1.691987
 11
-62.435405
 21
1.691987
  0
INSERT
  2
*GRP_0009
  8
型材断面
  6
DASHDOT
 10
0.0
 20
0.0
  0
INSERT
  2
*GRP_0010
  8
型材断面
  6
CONTINUOUS
 10
0.0
 20
0.0
  0
INSERT
  2
*GRP_0011
  8
型材断面
  6
CONTINUOUS
 10
0.0
 20
0.0
  0
LINE
  8
型材断面
  6
CONTINUOUS
 10
-60.039145
 20
-1.05804
 11
-59.685595
 21
-0.70449
  0
LINE
  8
型材断面
  6
CONTINUOUS
 10
-63.789148
 20
2.69196
 11
-63.435598
 21
3.045507
  0
LINE
  8
型材断面
  6
CONTINUOUS
 10
-63.435598
 20
3.045507
 11
-59.685595
 21
-0.70449
  0
LINE
  8
型材断面
  6
CONTINUOUS
 10
-63.789148
 20
2.69196
 11
-60.039145
 21
-1.05804
  0
LINE
  8
型材断面
  6
CONTINUOUS
 10
-58.290845
 20
-2.45279
 11
-59.862373
 21
-0.88127
  0
LINE
  8
型材断面
  6
CONTINUOUS
 10
-59.685393
 20
16.69199
 11
-59.68537
 21
-0.704715
  0
LINE
  8
型材断面
  6
CONTINUOUS
 10
-77.435402
 20
-1.058055
 11
-60.039142
 21
-1.058043
  0
LINE
  8
型材断面
  6
CONTINUOUS
 10
-76.810405
 20
2.691945
 11
-76.810405
 21
-1.058055
  0
LINE
  8
型材断面
  6
CONTINUOUS
 10
-78.060405
 20
2.691945
 11
-78.060405
 21
-1.058055
  0
LINE
  8
型材断面
  6
DASHDOT
 10
-92.435405
 20
16.69199
 11
-62.435405
 21
16.69199
  0
LINE
  8
型材断面
  6
CONTINUOUS
 10
-60.039145
 20
34.44202
 11
-59.685595
 21
34.08847
  0
LINE
  8
型材断面
  6
CONTINUOUS
 10
-94.831665
 20
34.44202
 11
-95.185215
 21
34.08847
  0
LINE
  8
型材断面
  6
CONTINUOUS
 10
-91.081663
 20
30.69202
 11
-91.435213
 21
30.338472
  0
LINE
  8
型材断面
  6
CONTINUOUS
 10
-94.831665
 20
-1.05804
 11
-95.185215
 21
-0.70449
  0
LINE
  8
型材断面
  6
CONTINUOUS
 10
-91.081663
 20
2.69196
 11
-91.435213
 21
3.045507
  0
LINE
  8
型材断面
  6
CONTINUOUS
 10
-63.435668
 20
16.066745
 11
-59.685668
 21
16.066763
  0
LINE
  8
型材断面
  6
CONTINUOUS
 10
-63.435675
 20
17.316745
 11
-59.685675
 21
17.316763
  0
LINE
  8
型材断面
  6
CONTINUOUS
 10
-58.290845
 20
35.83677
 11
-59.862373
 21
34.26525
  0
LINE
  8
型材断面
  6
CONTINUOUS
 10
-96.579965
 20
35.83677
 11
-95.008438
 21
34.26525
  0
LINE
  8
型材断面
  6
CONTINUOUS
 10
-96.579965
 20
-2.45279
 11
-95.008438
 21
-0.88127
  0
LINE
  8
型材断面
  6
CONTINUOUS
 10
-78.060895
 20
30.692043
 11
-78.06086
 21
34.442043
  0
LINE
  8
型材断面
  6
CONTINUOUS
 10
-76.810895
 20
30.692028
 11
-76.81086
 21
34.442028
  0
LINE
  8
型材断面
  6
CONTINUOUS
 10
-91.43515
 20
17.317725
 11
-95.18515
 21
17.317672
  0
LINE
  8
型材断面
  6
CONTINUOUS
 10
-91.435127
 20
16.067725
 11
-95.185127
 21
16.067672
  0
LINE
  8
型材断面
  6
CONTINUOUS
 10
-76.810405
 20
2.691945
 11
-63.789153
 21
2.691955
  0
LINE
  8
型材断面
  6
CONTINUOUS
 10
-63.435393
 20
16.066745
 11
-63.435375
 21
3.04573
  0
LINE
  8
型材断面
  6
CONTINUOUS
 10
-63.435393
 20
17.316745
 11
-63.435375
 21
30.33825
  0
LINE
  8
型材断面
  6
CONTINUOUS
 10
-63.435375
 20
30.33825
 11
-63.789153
 21
30.692025
  0
LINE
  8
型材断面
  6
CONTINUOUS
 10
-76.810405
 20
30.692035
 11
-63.789153
 21
30.692025
  0
LINE
  8
型材断面
  6
CONTINUOUS
 10
-63.435598
 20
30.338472
 11
-59.68537
 21
34.088695
  0
LINE
  8
型材断面
  6
CONTINUOUS
 10
-59.685393
 20
16.69199
 11
-59.68537
 21
34.088695
  0
LINE
  8
型材断面
  6
CONTINUOUS
 10
-63.789148
 20
30.69202
 11
-60.039142
 21
34.442022
  0
LINE
  8
型材断面
  6
CONTINUOUS
 10
-77.435402
 20
34.442035
 11
-60.039142
 21
34.442022
  0
LINE
  8
型材断面
  6
CONTINUOUS
 10
-78.060405
 20
30.692035
 11
-91.081657
 21
30.692025
  0
LINE
  8
型材断面
  6
CONTINUOUS
 10
-91.435418
 20
17.316615
 11
-91.435435
 21
30.33825
  0
LINE
  8
型材断面
  6
CONTINUOUS
 10
-91.081663
 20
30.69202
 11
-94.831668
 21
34.442022
  0
LINE
  8
型材断面
  6
CONTINUOUS
 10
-77.435408
 20
34.442035
 11
-94.831668
 21
34.442022
  0
LINE
  8
型材断面
  6
CONTINUOUS
 10
-91.435213
 20
30.338472
 11
-95.18544
 21
34.088695
  0
LINE
  8
型材断面
  6
CONTINUOUS
 10
-95.185418
 20
16.69199
 11
-95.18544
 21
34.088695
  0
LINE
  8
型材断面
  6
CONTINUOUS
 10
-78.060405
 20
2.691945
 11
-91.081657
 21
2.691955
  0
LINE
  8
型材断面
  6
CONTINUOUS
 10
-91.435418
 20
16.066615
 11
-91.435435
 21
3.04573
  0
LINE
  8
型材断面
  6
CONTINUOUS
 10
-91.081663
 20
2.69196
 11
-94.831668
 21
-1.058043
  0
LINE
  8
型材断面
  6
CONTINUOUS
 10
-77.435408
 20
-1.058055
 11
-94.831668
 21
-1.058043
  0
LINE
  8
型材断面
  6
CONTINUOUS
 10
-91.435213
 20
3.045507
 11
-95.18544
 21
-0.704715
  0
LINE
  8
型材断面
  6
CONTINUOUS
 10
-95.185418
 20
16.69199
 11
-95.18544
 21
-0.704715
  0
LINE
  8
型材断面
  6
CONTINUOUS
 10
-95.830185
 20
-73.491357
 11
-95.830185
 21
-73.996355
  0
LINE
  8
型材断面
  6
CONTINUOUS
 10
-96.285185
 20
-67.346535
 11
-96.580185
 21
-67.641535
  0
LINE
  8
型材断面
  6
CONTINUOUS
 10
-96.580185
 20
-67.641535
 11
-96.580185
 21
-73.491357
  0
LINE
  8
型材断面
  6
CONTINUOUS
 10
-95.830185
 20
-73.996355
 11
-77.435405
 21
-73.996355
  0
LINE
  8
型材断面
  6
CONTINUOUS
 10
-96.580185
 20
-73.491357
 11
-77.435405
 21
-73.491357
  0
LINE
  8
型材断面
  6
CONTINUOUS
 10
-96.580185
 20
-67.641535
 11
-77.435405
 21
-67.641535
  0
LINE
  8
型材断面
  6
CONTINUOUS
 62
    47
 10
-96.28525
 20
-67.3466
 11
-77.435405
 21
-67.3466
  0
LINE
  8
型材断面
  6
CONTINUOUS
 10
-59.040625
 20
-73.491357
 11
-59.040625
 21
-73.996355
  0
LINE
  8
型材断面
  6
CONTINUOUS
 10
-58.585625
 20
-67.346535
 11
-58.290625
 21
-67.641535
  0
LINE
  8
型材断面
  6
CONTINUOUS
 10
-58.290625
 20
-67.641535
 11
-58.290625
 21
-73.491357
  0
LINE
  8
型材断面
  6
CONTINUOUS
 10
-59.040625
 20
-73.996355
 11
-77.435405
 21
-73.996355
  0
LINE
  8
型材断面
  6
CONTINUOUS
 10
-58.290625
 20
-73.491357
 11
-77.435405
 21
-73.491357
  0
LINE
  8
型材断面
  6
CONTINUOUS
 10
-58.290625
 20
-67.641535
 11
-77.435405
 21
-67.641535
  0
LINE
  8
型材断面
  6
CONTINUOUS
 62
    47
 10
-58.58556
 20
-67.3466
 11
-77.435405
 21
-67.3466
  0
LINE
  8
型材断面
  6
CONTINUOUS
 10
21.87667
 20
-73.491357
 11
21.87667
 21
-73.996355
  0
LINE
  8
型材断面
  6
CONTINUOUS
 10
21.42167
 20
-67.346535
 11
21.12667
 21
-67.641535
  0
LINE
  8
型材断面
  6
CONTINUOUS
 10
21.12667
 20
-67.641535
 11
21.12667
 21
-73.491357
  0
LINE
  8
型材断面
  6
CONTINUOUS
 10
21.87667
 20
-73.996355
 11
40.27145
 21
-73.996355
  0
LINE
  8
型材断面
  6
CONTINUOUS
 10
21.12667
 20
-73.491357
 11
40.27145
 21
-73.491357
  0
LINE
  8
型材断面
  6
CONTINUOUS
 10
21.12667
 20
-67.641535
 11
40.27145
 21
-67.641535
  0
LINE
  8
型材断面
  6
CONTINUOUS
 62
    47
 10
21.421605
 20
-67.3466
 11
40.27145
 21
-67.3466
  0
LINE
  8
型材断面
  6
CONTINUOUS
 10
58.66623
 20
-73.491357
 11
58.66623
 21
-73.996355
  0
LINE
  8
型材断面
  6
CONTINUOUS
 10
59.12123
 20
-67.346535
 11
59.41623
 21
-67.641535
  0
LINE
  8
型材断面
  6
CONTINUOUS
 10
59.41623
 20
-67.641535
 11
59.41623
 21
-73.491357
  0
LINE
  8
型材断面
  6
CONTINUOUS
 10
58.66623
 20
-73.996355
 11
40.27145
 21
-73.996355
  0
LINE
  8
型材断面
  6
CONTINUOUS
 10
59.41623
 20
-73.491357
 11
40.27145
 21
-73.491357
  0
LINE
  8
型材断面
  6
CONTINUOUS
 10
59.41623
 20
-67.641535
 11
40.27145
 21
-67.641535
  0
LINE
  8
型材断面
  6
CONTINUOUS
 62
    47
 10
59.121295
 20
-67.3466
 11
40.27145
 21
-67.3466
  0
LINE
  8
ガラス
  6
CONTINUOUS
 10
167.304785
 20
74.557477
 11
137.304785
 21
74.557477
  0
LINE
  8
ガラス
  6
CONTINUOUS
 10
137.304785
 20
74.557477
 11
137.304785
 21
44.557477
  0
LINE
  8
ガラス
  6
CONTINUOUS
 10
137.304785
 20
44.557477
 11
167.304785
 21
44.557477
  0
LINE
  8
ガラス
  6
CONTINUOUS
 10
167.304785
 20
74.557477
 11
167.304785
 21
44.557477
  0
TEXT
  7
TextStyle03
  8
文字
  6
CONTINUOUS
 10
-98.825
 20
58.075
  1
アンカーピッチ
 40
3.0
 72
     5
 11
-75.575
 21
58.075
  0
TEXT
  7
TextStyle03
  8
文字
  6
CONTINUOUS
 10
-37.5
 20
9.075
  1
ﾊﾞﾗﾝｽｽﾃｰ
 40
3.0
 72
     5
 11
-24.1875
 21
9.075
  0
TEXT
  7
TextStyle03
  8
文字
  6
CONTINUOUS
 10
-31.2
 20
-9.725
  1
は排水穴位置を示す
 40
3.0
 72
     5
 11
-1.2
 21
-9.725
  0
TEXT
  7
TextStyle03
  8
文字
  6
CONTINUOUS
 10
-31.2
 20
-17.575
  1
はケーシング位置を示す
 40
3.0
 72
     5
 11
5.55
 21
-17.575
  0
TEXT
  7
TextStyle03
  8
文字
  6
CONTINUOUS
 10
-31.2
 20
-20.95
  1
４ヶ所中1ヶ所に設定
 40
3.0
 72
     5
 11
0.4875
 21
-20.95
  0
TEXT
  7
TextStyle03
  8
文字
  6
CONTINUOUS
 10
-36.8
 20
-28.1
  1
アンカー数量　４ヶ所
 40
3.0
 72
     5
 11
-3.425
 21
-28.1
  0
TEXT
  7
TextStyle03
  8
文字
  6
CONTINUOUS
 10
-85.65
 20
-15.325
  1
可動装置側
 40
3.0
 72
     5
 11
-69.15
 21
-15.325
  0
TEXT
  7
TextStyle03
  8
文字
  6
CONTINUOUS
 10
-85.65
 20
45.75
  1
可動装置側
 40
3.0
 72
     5
 11
-69.15
 21
45.75
  0
TEXT
  7
TextStyle03
  8
文字
  6
CONTINUOUS
 10
60.5
 20
96.85
  1
ＮＳコード：ＮＳＦ
 40
5.0
 72
     5
 11
110.5
 21
96.85
  0
TEXT
  7
TextStyle03
  8
文字
  6
CONTINUOUS
 10
-36.85
 20
-34.95
  1
アームユニット数　２ヶ所
 40
3.0
 72
     5
 11
3.275
 21
-34.95
  0
LINE
  8
文字
  6
CONTINUOUS
 10
-96.580185
 20
-64.5591
 11
-96.580185
 21
-26.094458
  0
LINE
  8
文字
  6
CONTINUOUS
 10
-58.290625
 20
-64.5591
 11
-58.290625
 21
-26.094458
  0
TEXT
  7
TextStyle03
  8
文字
  6
CONTINUOUS
 10
146.1
 20
52.8
  1
網入り6.8t
 40
3.0
 72
     5
 11
162.7875
 21
52.8
  0
TEXT
  7
TextStyle03
  8
文字
  6
CONTINUOUS
 10
152.725
 20
47.55
  1
×１枚
 40
3.0
 72
     5
 11
162.475
 21
47.55
  0
TEXT
  7
TextStyle03
  8
文字
  6
CONTINUOUS
 10
60.275
 20
119.5
  1
シリーズ：ＴＦＦ
 40
5.0
 72
     5
 11
104.65
 21
119.5
  0
TEXT
  7
TextStyle03
  8
文字
  6
CONTINUOUS
 10
60.275
 20
113.875
  1
　　　　　（上下可動）600×600タイプ
 40
5.0
 72
     5
 11
160.9
 21
113.875
  0
TEXT
  7
TextStyle03
  8
文字
  6
CONTINUOUS
 10
60.275
 20
108.25
  1
図面名　：外観姿図
 40
5.0
 72
     5
 11
110.275
 21
108.25
  0
TEXT
  7
TextStyle03
  8
文字
  6
CONTINUOUS
 10
60.275
 20
102.625
  1
　　　　　　
 40
5.0
 72
     5
 11
93.4
 21
102.625
  0
INSERT
  2
*DIM_0002
  8
寸法
  6
CONTINUOUS
 10
0.0
 20
0.0
  0
INSERT
  2
*DIM_0003
  8
寸法
  6
CONTINUOUS
 10
0.0
 20
0.0
  0
INSERT
  2
*DIM_0004
  8
寸法
  6
CONTINUOUS
 10
0.0
 20
0.0
  0
INSERT
  2
*DIM_0005
  8
寸法
  6
CONTINUOUS
 10
0.0
 20
0.0
  0
INSERT
  2
*GRP_0006
  8
寸法
  6
CONTINUOUS
 10
0.0
 20
0.0
  0
INSERT
  2
*DIM_0007
  8
寸法
  6
CONTINUOUS
 10
0.0
 20
0.0
  0
INSERT
  2
*DIM_0008
  8
寸法
  6
CONTINUOUS
 10
0.0
 20
0.0
  0
INSERT
  2
*DIM_0012
  8
寸法
  6
CONTINUOUS
 10
0.0
 20
0.0
  0
INSERT
  2
*DIM_0013
  8
寸法
  6
CONTINUOUS
 10
0.0
 20
0.0
  0
INSERT
  2
*DIM_0014
  8
寸法
  6
CONTINUOUS
 10
0.0
 20
0.0
  0
INSERT
  2
*DIM_0015
  8
寸法
  6
CONTINUOUS
 10
0.0
 20
0.0
  0
INSERT
  2
*DIM_0016
  8
寸法
  6
CONTINUOUS
 10
0.0
 20
0.0
  0
LINE
  8
別途部材
  6
CONTINUOUS
 62
    47
 10
-95.185188
 20
-61.46653
 11
-95.185188
 21
-61.56653
  0
ARC
  8
別途部材
  6
CONTINUOUS
 62
    47
 10
-95.035187
 20
-61.46653
 40
0.15
 50
90.0
 51
180.0
  0
LINE
  8
別途部材
  6
CONTINUOUS
 62
    47
 10
-94.950405
 20
-61.56653
 11
-94.950405
 21
-63.81653
  0
LINE
  8
別途部材
  6
CONTINUOUS
 62
    47
 10
-96.580185
 20
-67.291532
 11
-77.435405
 21
-67.291532
  0
LINE
  8
別途部材
  6
CONTINUOUS
 62
    47
 10
-96.580185
 20
-65.541532
 11
-77.435405
 21
-65.541532
  0
LINE
  8
別途部材
  6
CONTINUOUS
 62
    47
 10
-94.950405
 20
-63.81653
 11
-77.435405
 21
-63.81653
  0
LINE
  8
別途部材
  6
CONTINUOUS
 62
    47
 10
-95.185188
 20
-61.56653
 11
-77.435405
 21
-61.56653
  0
LINE
  8
別途部材
  6
CONTINUOUS
 62
    47
 10
-95.035188
 20
-61.31653
 11
-77.435405
 21
-61.31653
  0
LINE
  8
別途部材
  6
CONTINUOUS
 62
    47
 10
-59.685623
 20
-61.46653
 11
-59.685623
 21
-61.56653
  0
ARC
  8
別途部材
  6
CONTINUOUS
 62
    47
 10
-59.835623
 20
-61.46653
 40
0.15
 50
0.0
 51
90.0
  0
LINE
  8
別途部材
  6
CONTINUOUS
 62
    47
 10
-59.920405
 20
-61.56653
 11
-59.920405
 21
-63.81653
  0
LINE
  8
別途部材
  6
CONTINUOUS
 62
    47
 10
-58.290625
 20
-67.291532
 11
-77.435405
 21
-67.291532
  0
LINE
  8
別途部材
  6
CONTINUOUS
 62
    47
 10
-58.290625
 20
-65.541532
 11
-77.435405
 21
-65.541532
  0
LINE
  8
別途部材
  6
CONTINUOUS
 62
    47
 10
-59.920405
 20
-63.81653
 11
-77.435405
 21
-63.81653
  0
LINE
  8
別途部材
  6
CONTINUOUS
 62
    47
 10
-59.685623
 20
-61.56653
 11
-77.435405
 21
-61.56653
  0
LINE
  8
別途部材
  6
CONTINUOUS
 62
    47
 10
-59.835623
 20
-61.31653
 11
-77.435405
 21
-61.31653
  0
LINE
  8
別途部材
  6
CONTINUOUS
 62
    47
 10
22.521667
 20
-61.46653
 11
22.521667
 21
-61.56653
  0
ARC
  8
別途部材
  6
CONTINUOUS
 62
    47
 10
22.671668
 20
-61.46653
 40
0.15
 50
90.0
 51
180.0
  0
LINE
  8
別途部材
  6
CONTINUOUS
 62
    47
 10
22.75645
 20
-61.56653
 11
22.75645
 21
-63.81653
  0
LINE
  8
別途部材
  6
CONTINUOUS
 62
    47
 10
21.12667
 20
-67.291532
 11
40.27145
 21
-67.291532
  0
LINE
  8
別途部材
  6
CONTINUOUS
 62
    47
 10
21.12667
 20
-65.541532
 11
40.27145
 21
-65.541532
  0
LINE
  8
別途部材
  6
CONTINUOUS
 62
    47
 10
22.75645
 20
-63.81653
 11
40.27145
 21
-63.81653
  0
LINE
  8
別途部材
  6
CONTINUOUS
 62
    47
 10
22.521667
 20
-61.56653
 11
40.27145
 21
-61.56653
  0
LINE
  8
別途部材
  6
CONTINUOUS
 62
    47
 10
22.671667
 20
-61.31653
 11
40.27145
 21
-61.31653
  0
LINE
  8
別途部材
  6
CONTINUOUS
 62
    47
 10
58.021233
 20
-61.46653
 11
58.021233
 21
-61.56653
  0
ARC
  8
別途部材
  6
CONTINUOUS
 62
    47
 10
57.871232
 20
-61.46653
 40
0.15
 50
0.0
 51
90.0
  0
LINE
  8
別途部材
  6
CONTINUOUS
 62
    47
 10
57.78645
 20
-61.56653
 11
57.78645
 21
-63.81653
  0
LINE
  8
別途部材
  6
CONTINUOUS
 62
    47
 10
59.41623
 20
-67.291532
 11
40.27145
 21
-67.291532
  0
LINE
  8
別途部材
  6
CONTINUOUS
 62
    47
 10
59.41623
 20
-65.541532
 11
40.27145
 21
-65.541532
  0
LINE
  8
別途部材
  6
CONTINUOUS
 62
    47
 10
57.78645
 20
-63.81653
 11
40.27145
 21
-63.81653
  0
LINE
  8
別途部材
  6
CONTINUOUS
 62
    47
 10
58.021233
 20
-61.56653
 11
40.27145
 21
-61.56653
  0
LINE
  8
別途部材
  6
CONTINUOUS
 62
    47
 10
57.871233
 20
-61.31653
 11
40.27145
 21
-61.31653
  0
LINE
  8
曲げ物
  6
CONTINUOUS
 10
-74.611275
 20
19.493035
 11
-80.154242
 21
13.950067
  0
LINE
  8
曲げ物
  6
CONTINUOUS
 10
-75.66648
 20
17.18887
 11
-77.850075
 21
15.005275
  0
LINE
  8
曲げ物
  6
CONTINUOUS
 10
-76.91544
 20
18.43783
 11
-79.099035
 21
16.254235
  0
LINE
  8
鉄骨等
  6
CONTINUOUS
 62
    47
 10
-96.580185
 20
-67.291532
 11
-96.580185
 21
-65.541532
  0
LINE
  8
鉄骨等
  6
CONTINUOUS
 62
    47
 10
-96.580185
 20
-65.541532
 11
-94.475405
 21
-63.816532
  0
LINE
  8
鉄骨等
  6
CONTINUOUS
 62
    47
 10
-58.290625
 20
-67.291532
 11
-58.290625
 21
-65.541532
  0
LINE
  8
鉄骨等
  6
CONTINUOUS
 62
    47
 10
-58.290625
 20
-65.541532
 11
-60.395405
 21
-63.816532
  0
LINE
  8
鉄骨等
  6
CONTINUOUS
 62
    47
 10
21.12667
 20
-67.291532
 11
21.12667
 21
-65.541532
  0
LINE
  8
鉄骨等
  6
CONTINUOUS
 62
    47
 10
21.12667
 20
-65.541532
 11
23.23145
 21
-63.816532
  0
LINE
  8
鉄骨等
  6
CONTINUOUS
 62
    47
 10
59.41623
 20
-67.291532
 11
59.41623
 21
-65.541532
  0
LINE
  8
鉄骨等
  6
CONTINUOUS
 62
    47
 10
59.41623
 20
-65.541532
 11
57.31145
 21
-63.816532
  0
ENDSEC
  0
EOF
