  0
SECTION
  2
HEADER
  9
$EXTMIN
 10
-210.0
 20
-148.5
  9
$EXTMAX
 10
210.0
 20
148.5
  9
$PDMODE
 70
    32
  9
$PDSIZE
 40
1.5
  9
$LTSCALE
 40
10.0
  0
ENDSEC
  0
SECTION
  2
TABLES
  0
TABLE
  2
LTYPE
 70
    15
  0
LTYPE
  2
CONTINUOUS
 70
    64
  3
実線
 72
    65
 73
     0
 40
0.0
  0
LTYPE
  2
DASHED
 70
    64
  3
破線A
 72
    65
 73
     2
 40
0.6
 49
0.4
 49
-0.2
  0
LTYPE
  2
DASHEDX2
 70
    64
  3
破線B
 72
    65
 73
     2
 40
1.3
 49
0.9
 49
-0.4
  0
LTYPE
  2
DASHDOT
 70
    64
  3
１点鎖線A
 72
    65
 73
     4
 40
0.5375
 49
0.375
 49
-0.05
 49
0.0625
 49
-0.05
  0
LTYPE
  2
DASHDOTX2
 70
    64
  3
１点鎖線B
 72
    65
 73
     4
 40
1.075
 49
0.75
 49
-0.1
 49
0.125
 49
-0.1
  0
LTYPE
  2
DIVIDE2
 70
    64
  3
２点鎖線A
 72
    65
 73
     6
 40
0.5125
 49
0.3
 49
-0.0375
 49
0.05
 49
-0.0375
 49
0.05
 49
-0.0375
  0
LTYPE
  2
DIVIDE
 70
    64
  3
２点鎖線B
 72
    65
 73
     6
 40
1.05
 49
0.55
 49
-0.1
 49
0.1
 49
-0.1
 49
0.1
 49
-0.1
  0
LTYPE
  2
DOT
 70
    64
  3
点線A
 72
    65
 73
     2
 40
0.1125
 49
0.0625
 49
-0.05
  0
LTYPE
  2
DOTX2
 70
    64
  3
点線B
 72
    65
 73
     2
 40
0.275
 49
0.15
 49
-0.125
  0
LTYPE
  2
CONTINUOUS
 70
    64
  3
実線
 72
    65
 73
     0
 40
0.0
  0
LTYPE
  2
CONTINUOUS
 70
    64
  3
実線
 72
    65
 73
     0
 40
0.0
  0
LTYPE
  2
CONTINUOUS
 70
    64
  3
実線
 72
    65
 73
     0
 40
0.0
  0
LTYPE
  2
CONTINUOUS
 70
    64
  3
実線
 72
    65
 73
     0
 40
0.0
  0
LTYPE
  2
CONTINUOUS
 70
    64
  3
実線
 72
    65
 73
     0
 40
0.0
  0
LTYPE
  2
CONTINUOUS
 70
    64
  3
実線
 72
    65
 73
     0
 40
0.0
  0
ENDTAB
  0
TABLE
  2
LAYER
 70
    34
  0
LAYER
  2
通り芯
 70
     0
 62
    15
  6
CONTINUOUS
  0
LAYER
  2
補助線
 70
     0
 62
    16
  6
DOT
  0
LAYER
  2
躯体
 70
     0
 62
    31
  6
CONTINUOUS
  0
LAYER
  2
型材
 70
     0
 62
    32
  6
CONTINUOUS
  0
LAYER
  2
型材断面
 70
     0
 62
    47
  6
CONTINUOUS
  0
LAYER
  2
ガラス
 70
     0
 62
    48
  6
CONTINUOUS
  0
LAYER
  2
ゴム等
 70
     0
 62
    63
  6
CONTINUOUS
  0
LAYER
  2
ボルト／ビス
 70
     0
 62
    64
  6
CONTINUOUS
  0
LAYER
  2
文字
 70
     0
 62
    79
  6
CONTINUOUS
  0
LAYER
  2
寸法
 70
     0
 62
    80
  6
CONTINUOUS
  0
LAYER
  2
ﾊｯﾁﾝｸﾞ
 70
     0
 62
    95
  6
CONTINUOUS
  0
LAYER
  2
別途部材
 70
     0
 62
    96
  6
CONTINUOUS
  0
LAYER
  2
曲げ物
 70
     0
 62
   111
  6
CONTINUOUS
  0
LAYER
  2
鉄骨等
 70
     0
 62
   112
  6
CONTINUOUS
  0
LAYER
  2
St
 70
     0
 62
   127
  6
CONTINUOUS
  0
LAYER
  2
その他部品等
 70
     0
 62
   128
  6
CONTINUOUS
  0
LAYER
  2
ｶﾞｽｹｯﾄ
 70
     0
 62
   143
  6
CONTINUOUS
  0
LAYER
  2
ｽｹｯﾁ
 70
     0
 62
    14
  6
CONTINUOUS
  0
LAYER
  2
0
 70
     0
 62
    17
  6
CONTINUOUS
  0
LAYER
  2
1
 70
     0
 62
    30
  6
CONTINUOUS
  0
LAYER
  2
4
 70
     0
 62
    33
  6
CONTINUOUS
  0
LAYER
  2
ﾚｲﾔ3
 70
     0
 62
    46
  6
CONTINUOUS
  0
LAYER
  2
外形線
 70
     0
 62
    49
  6
CONTINUOUS
  0
LAYER
  2
部品
 70
     0
 62
    14
  6
CONTINUOUS
  0
LAYER
  2
サッシ芯
 70
     0
 62
    17
  6
DASHDOTX2
  0
LAYER
  2
寸法線
 70
     0
 62
    62
  6
CONTINUOUS
  0
LAYER
  2
姿図外形線
 70
     0
 62
    65
  6
CONTINUOUS
  0
LAYER
  2
姿補助線
 70
     0
 62
    30
  6
CONTINUOUS
  0
LAYER
  2
透視線
 70
     0
 62
    78
  6
DOT
  0
LAYER
  2
用紙
 70
     0
 62
    81
  6
CONTINUOUS
  0
LAYER
  2
実線図枠
 70
     0
 62
    94
  6
CONTINUOUS
  0
LAYER
  2
補助図枠
 70
     0
 62
    97
  6
CONTINUOUS
  0
LAYER
  2
建具記号
 70
     0
 62
   110
  6
CONTINUOUS
  0
LAYER
  2
補助文字
 70
     0
 62
   113
  6
CONTINUOUS
  0
ENDTAB
  0
TABLE
  2
STYLE
 70
    10
  0
STYLE
  2
STANDARD
 70
     0
 40
1.0
 41
1.0
 42
1.0
 50
0.0
 71
     0
  3
TXT
  4
BIGFONT
  0
STYLE
  2
TATE
 70
     4
 40
1.0
 41
1.0
 42
1.0
 50
0.0
 71
     0
  3
TXT
  4
BIGFONT
  0
STYLE
  2
TextStyle03
 70
     0
 40
1.0
 41
1.0
 42
1.0
 50
0.0
 71
     0
  3
MONOTXT
  4
BIGFONT
  0
STYLE
  2
TextStyle04
 70
     0
 40
1.0
 41
1.0
 42
1.0
 50
0.0
 71
     0
  3
MONOTXT
  4
BIGFONT
  0
STYLE
  2
TextStyle05
 70
     0
 40
1.0
 41
1.0
 42
1.0
 50
0.0
 71
     0
  3
MONOTXT
  4
BIGFONT
  0
STYLE
  2
TextStyle06
 70
     0
 40
1.0
 41
1.0
 42
1.0
 50
0.0
 71
     0
  3
MONOTXT
  4
BIGFONT
  0
STYLE
  2
TextStyle07
 70
     0
 40
1.0
 41
1.0
 42
1.0
 50
0.0
 71
     0
  3
MONOTXT
  4
BIGFONT
  0
STYLE
  2
TextStyle08
 70
     0
 40
1.0
 41
1.0
 42
1.0
 50
0.0
 71
     0
  3
MONOTXT
  4
BIGFONT
  0
STYLE
  2
TextStyle09
 70
     0
 40
1.0
 41
1.0
 42
1.0
 50
0.0
 71
     0
  3
MONOTXT
  4
BIGFONT
  0
STYLE
  2
TextStyle10
 70
     0
 40
1.0
 41
1.0
 42
1.0
 50
0.0
 71
     0
  3
MONOTXT
  4
BIGFONT
  0
ENDTAB
  0
ENDSEC
  0
SECTION
  2
BLOCKS
  0
BLOCK
  2
*GRP_0001
 70
    65
 10
0.0
 20
0.0
  0
LINE
  8
型材断面
  6
CONTINUOUS
 10
195.0
 20
133.5
 11
195.0
 21
-133.5
  0
LINE
  8
型材断面
  6
CONTINUOUS
 10
195.0
 20
-133.5
 11
-185.0
 21
-133.5
  0
LINE
  8
型材断面
  6
CONTINUOUS
 10
-185.0
 20
-133.5
 11
-185.0
 21
133.5
  0
LINE
  8
型材断面
  6
CONTINUOUS
 10
195.0
 20
133.5
 11
-185.0
 21
133.5
  0
LINE
  8
型材断面
  6
CONTINUOUS
 10
145.0
 20
-133.5
 11
145.0
 21
-118.5
  0
LINE
  8
型材断面
  6
CONTINUOUS
 10
195.0
 20
-118.5
 11
145.0
 21
-118.5
  0
ENDBLK
  0
BLOCK
  2
*DIM_0002
 70
    65
 10
0.0
 20
0.0
  0
LINE
  8
寸法
  6
BYBLOCK
 62
     0
 10
-92.435405
 20
-16.126177
 11
-47.435405
 21
-16.126177
  0
POINT
  8
寸法
 62
     0
 10
-92.435405
 20
-16.126177
  0
POINT
  8
寸法
 62
     0
 10
-47.435405
 20
-16.126177
  0
TEXT
  7
TextStyle03
  8
寸法
  6
CONTINUOUS
 62
     0
 10
-80.85
 20
-15.775
  1
呼称寸法　900
 40
3.0
 72
     5
 11
-59.1
 21
-15.775
  0
ENDBLK
  0
BLOCK
  2
*GRP_0003
 70
    65
 10
0.0
 20
0.0
  0
POLYLINE
  8
寸法
  6
CONTINUOUS
 62
     0
 66
     1
  0
VERTEX
  8
寸法
 10
-49.53765
 20
24.156562
  0
VERTEX
  8
寸法
 10
-45.856455
 20
20.475367
  0
VERTEX
  8
寸法
 10
-23.013878
 20
20.475367
  0
SEQEND
  0
ENDBLK
  0
BLOCK
  2
*DIM_0004
 70
    65
 10
0.0
 20
0.0
  0
LINE
  8
寸法
  6
BYBLOCK
 62
     0
 10
-46.435405
 20
56.66027
 11
-29.575493
 21
56.66027
  0
LINE
  8
寸法
  6
BYBLOCK
 62
     0
 10
-38.41153
 20
51.110273
 11
-29.575493
 21
51.110273
  0
LINE
  8
寸法
  6
BYBLOCK
 62
     0
 10
-29.575493
 20
56.66027
 11
-29.575493
 21
51.110273
  0
POINT
  8
寸法
 62
     0
 10
-29.575493
 20
56.66027
  0
POINT
  8
寸法
 62
     0
 10
-29.575493
 20
51.110273
  0
TEXT
  7
TextStyle03
  8
寸法
  6
CONTINUOUS
 62
     0
 10
-29.975
 20
51.4125
  1
111
 40
3.0
 50
90.0
 72
     5
 11
-29.975
 21
56.2875
  0
ENDBLK
  0
BLOCK
  2
*DIM_0005
 70
    65
 10
0.0
 20
0.0
  0
LINE
  8
寸法
  6
BYBLOCK
 62
     0
 10
-46.435405
 20
11.66027
 11
-29.575493
 21
11.66027
  0
LINE
  8
寸法
  6
BYBLOCK
 62
     0
 10
-38.41153
 20
17.210268
 11
-29.575493
 21
17.210268
  0
LINE
  8
寸法
  6
BYBLOCK
 62
     0
 10
-29.575493
 20
11.66027
 11
-29.575493
 21
17.210268
  0
POINT
  8
寸法
 62
     0
 10
-29.575493
 20
11.66027
  0
POINT
  8
寸法
 62
     0
 10
-29.575493
 20
17.210268
  0
TEXT
  7
TextStyle03
  8
寸法
  6
CONTINUOUS
 62
     0
 10
-29.975
 20
11.9625
  1
111
 40
3.0
 50
90.0
 72
     5
 11
-29.975
 21
16.8375
  0
ENDBLK
  0
BLOCK
  2
*DIM_0006
 70
    65
 10
0.0
 20
0.0
  0
LINE
  8
寸法
  6
BYBLOCK
 62
     0
 10
-84.935405
 20
57.66027
 11
-84.935405
 21
75.599285
  0
LINE
  8
寸法
  6
BYBLOCK
 62
     0
 10
-54.935405
 20
57.66027
 11
-54.935405
 21
75.599285
  0
LINE
  8
寸法
  6
BYBLOCK
 62
     0
 10
-84.935405
 20
75.599285
 11
-54.935405
 21
75.599285
  0
POINT
  8
寸法
 62
     0
 10
-84.935405
 20
75.599285
  0
POINT
  8
寸法
 62
     0
 10
-54.935405
 20
75.599285
  0
TEXT
  7
TextStyle03
  8
寸法
  6
CONTINUOUS
 62
     0
 10
-72.4125
 20
75.95
  1
600
 40
3.0
 72
     5
 11
-67.5375
 21
75.95
  0
ENDBLK
  0
BLOCK
  2
*DIM_0007
 70
    65
 10
0.0
 20
0.0
  0
LINE
  8
寸法
  6
BYBLOCK
 62
     0
 10
-93.435405
 20
56.66027
 11
-116.343648
 21
56.66027
  0
LINE
  8
寸法
  6
BYBLOCK
 62
     0
 10
-93.435405
 20
34.16027
 11
-116.343648
 21
34.16027
  0
LINE
  8
寸法
  6
BYBLOCK
 62
     0
 10
-116.343648
 20
56.66027
 11
-116.343648
 21
34.16027
  0
POINT
  8
寸法
 62
     0
 10
-116.343648
 20
56.66027
  0
POINT
  8
寸法
 62
     0
 10
-116.343648
 20
34.16027
  0
TEXT
  7
TextStyle03
  8
寸法
  6
CONTINUOUS
 62
     0
 10
-116.75
 20
42.9375
  1
450
 40
3.0
 50
90.0
 72
     5
 11
-116.75
 21
47.8125
  0
ENDBLK
  0
BLOCK
  2
*DIM_0008
 70
    65
 10
0.0
 20
0.0
  0
LINE
  8
寸法
  6
BYBLOCK
 62
     0
 10
-93.435405
 20
11.66027
 11
-116.343648
 21
11.66027
  0
LINE
  8
寸法
  6
BYBLOCK
 62
     0
 10
-116.343648
 20
34.16027
 11
-116.343648
 21
11.66027
  0
POINT
  8
寸法
 62
     0
 10
-116.343648
 20
11.66027
  0
TEXT
  7
TextStyle03
  8
寸法
  6
CONTINUOUS
 62
     0
 10
-116.75
 20
20.4375
  1
450
 40
3.0
 50
90.0
 72
     5
 11
-116.75
 21
25.3125
  0
ENDBLK
  0
BLOCK
  2
*DIM_0009
 70
    65
 10
0.0
 20
0.0
  0
LINE
  8
寸法
  6
CONTINUOUS
 10
-47.435405
 20
-16.126177
 11
-43.29041
 21
-16.126177
  0
POINT
  8
寸法
 10
-47.435405
 20
-16.126177
  0
POINT
  8
寸法
 10
-43.29041
 20
-16.126177
  0
TEXT
  7
TextStyle03
  8
寸法
  6
CONTINUOUS
 10
-46.55625
 20
-15.175
  1
82.9
 40
3.0
 72
     5
 11
-39.99375
 21
-15.175
  0
ENDBLK
  0
BLOCK
  2
*DIM_0010
 70
    65
 10
0.0
 20
0.0
  0
LINE
  8
寸法
  6
CONTINUOUS
 10
-92.435405
 20
-16.126177
 11
-96.5804
 21
-16.126177
  0
POINT
  8
寸法
 10
-92.435405
 20
-16.126177
  0
POINT
  8
寸法
 10
-96.5804
 20
-16.126177
  0
TEXT
  7
TextStyle03
  8
寸法
  6
CONTINUOUS
 10
-99.70625
 20
-15.25
  1
82.9
 40
3.0
 72
     5
 11
-93.14375
 21
-15.25
  0
ENDBLK
  0
BLOCK
  2
*GRP_0011
 70
    65
 10
0.0
 20
0.0
  0
LINE
  8
補助線
  6
BYBLOCK
 62
    64
 10
87.63081
 20
-59.664113
 11
87.854195
 21
-59.776353
  0
LINE
  8
補助線
  6
BYBLOCK
 62
    64
 10
87.798623
 20
-59.60854
 11
87.686383
 21
-59.831925
  0
LINE
  8
補助線
  6
BYBLOCK
 62
    64
 10
72.97645
 20
-52.301393
 11
72.753058
 21
-52.189152
  0
LINE
  8
補助線
  6
BYBLOCK
 62
    64
 10
72.92087
 20
-52.133575
 11
72.808635
 21
-52.356965
  0
LINE
  8
補助線
  6
BYBLOCK
 62
    64
 10
58.09866
 20
-44.826502
 11
57.87527
 21
-44.71427
  0
LINE
  8
補助線
  6
BYBLOCK
 62
    64
 10
58.043082
 20
-44.65869
 11
57.930847
 21
-44.88208
  0
LINE
  8
型材断面
  6
CONTINUOUS
 10
88.750465
 20
-58.827758
 11
89.083922
 21
-59.834635
  0
LINE
  8
型材断面
  6
CONTINUOUS
 10
89.083922
 20
-59.834635
 11
88.634978
 21
-60.728195
  0
LINE
  8
型材断面
  6
CONTINUOUS
 10
88.634978
 20
-60.728195
 11
87.6281
 21
-61.061653
  0
LINE
  8
型材断面
  6
CONTINUOUS
 10
58.10136
 20
-43.428963
 11
57.094487
 21
-43.762428
  0
LINE
  8
型材断面
  6
CONTINUOUS
 10
57.094487
 20
-43.762428
 11
56.64554
 21
-44.65599
  0
LINE
  8
型材断面
  6
CONTINUOUS
 10
56.64554
 20
-44.65599
 11
56.979008
 21
-45.662865
  0
LINE
  8
型材断面
  6
CONTINUOUS
 10
88.750465
 20
-58.827758
 11
58.101475
 21
-43.428923
  0
LINE
  8
型材断面
  6
CONTINUOUS
 10
87.6281
 20
-61.061653
 11
56.978973
 21
-45.662758
  0
LINE
  8
ボルト／ビス
  6
CONTINUOUS
 62
    64
 10
87.94986
 20
-59.307515
 11
88.203605
 21
-59.693452
  0
LINE
  8
ボルト／ビス
  6
CONTINUOUS
 62
    64
 10
87.94986
 20
-59.307515
 11
87.48876
 21
-59.334297
  0
LINE
  8
ボルト／ビス
  6
CONTINUOUS
 62
    64
 10
87.535145
 20
-60.13295
 11
87.996245
 21
-60.106167
  0
LINE
  8
ボルト／ビス
  6
CONTINUOUS
 62
    64
 10
87.535145
 20
-60.13295
 11
87.2814
 21
-59.747012
  0
CIRCLE
  8
ボルト／ビス
  6
CONTINUOUS
 62
    64
 10
87.742503
 20
-59.720233
 40
0.4
  0
LINE
  8
ボルト／ビス
  6
CONTINUOUS
 62
    64
 10
87.48876
 20
-59.334297
 11
87.2814
 21
-59.747012
  0
LINE
  8
ボルト／ビス
  6
CONTINUOUS
 62
    64
 10
88.203605
 20
-59.693452
 11
87.996245
 21
-60.106167
  0
LINE
  8
ボルト／ビス
  6
CONTINUOUS
 62
    64
 10
73.072113
 20
-51.832555
 11
72.611008
 21
-51.859332
  0
LINE
  8
ボルト／ビス
  6
CONTINUOUS
 62
    64
 10
73.072113
 20
-51.832555
 11
73.325857
 21
-52.21849
  0
LINE
  8
ボルト／ビス
  6
CONTINUOUS
 62
    64
 10
72.657393
 20
-52.657988
 11
72.40365
 21
-52.272052
  0
LINE
  8
ボルト／ビス
  6
CONTINUOUS
 62
    64
 10
72.657393
 20
-52.657988
 11
73.118495
 21
-52.631207
  0
CIRCLE
  8
ボルト／ビス
  6
CONTINUOUS
 62
    64
 10
72.86475
 20
-52.245273
 40
0.4
  0
LINE
  8
ボルト／ビス
  6
CONTINUOUS
 62
    64
 10
73.325857
 20
-52.21849
 11
73.118495
 21
-52.631207
  0
LINE
  8
ボルト／ビス
  6
CONTINUOUS
 62
    64
 10
72.611008
 20
-51.859332
 11
72.40365
 21
-52.272052
  0
LINE
  8
ボルト／ビス
  6
CONTINUOUS
 62
    64
 10
58.194323
 20
-44.357665
 11
57.733217
 21
-44.384447
  0
LINE
  8
ボルト／ビス
  6
CONTINUOUS
 62
    64
 10
58.194323
 20
-44.357665
 11
58.448065
 21
-44.743602
  0
LINE
  8
ボルト／ビス
  6
CONTINUOUS
 62
    64
 10
57.779605
 20
-45.183103
 11
57.525863
 21
-44.797165
  0
LINE
  8
ボルト／ビス
  6
CONTINUOUS
 62
    64
 10
57.779605
 20
-45.183103
 11
58.240712
 21
-45.15632
  0
CIRCLE
  8
ボルト／ビス
  6
CONTINUOUS
 62
    64
 10
57.986967
 20
-44.770385
 40
0.4
  0
LINE
  8
ボルト／ビス
  6
CONTINUOUS
 62
    64
 10
58.448065
 20
-44.743602
 11
58.240712
 21
-45.15632
  0
LINE
  8
ボルト／ビス
  6
CONTINUOUS
 62
    64
 10
57.733217
 20
-44.384447
 11
57.525863
 21
-44.797165
  0
ENDBLK
  0
BLOCK
  2
*GRP_0012
 70
    65
 10
0.0
 20
0.0
  0
LINE
  8
補助線
  6
BYBLOCK
 62
    64
 10
58.098695
 20
-59.664113
 11
57.87531
 21
-59.776353
  0
LINE
  8
補助線
  6
BYBLOCK
 62
    64
 10
57.930883
 20
-59.60854
 11
58.043123
 21
-59.831925
  0
LINE
  8
補助線
  6
BYBLOCK
 62
    64
 10
72.753055
 20
-52.301393
 11
72.976447
 21
-52.189152
  0
LINE
  8
補助線
  6
BYBLOCK
 62
    64
 10
72.808635
 20
-52.133575
 11
72.92087
 21
-52.356965
  0
LINE
  8
補助線
  6
BYBLOCK
 62
    64
 10
87.630845
 20
-44.826502
 11
87.854235
 21
-44.71427
  0
LINE
  8
補助線
  6
BYBLOCK
 62
    64
 10
87.686422
 20
-44.65869
 11
87.798658
 21
-44.88208
  0
LINE
  8
型材断面
  6
CONTINUOUS
 10
56.97904
 20
-58.827758
 11
56.645582
 21
-59.834635
  0
LINE
  8
型材断面
  6
CONTINUOUS
 10
56.645582
 20
-59.834635
 11
57.094528
 21
-60.728195
  0
LINE
  8
型材断面
  6
CONTINUOUS
 10
57.094528
 20
-60.728195
 11
58.101405
 21
-61.061653
  0
LINE
  8
型材断面
  6
CONTINUOUS
 10
87.628145
 20
-43.428963
 11
88.635017
 21
-43.762428
  0
LINE
  8
型材断面
  6
CONTINUOUS
 10
88.635017
 20
-43.762428
 11
89.083965
 21
-44.65599
  0
LINE
  8
型材断面
  6
CONTINUOUS
 10
89.083965
 20
-44.65599
 11
88.750497
 21
-45.662865
  0
LINE
  8
型材断面
  6
CONTINUOUS
 10
56.97904
 20
-58.827758
 11
87.62803
 21
-43.428923
  0
LINE
  8
型材断面
  6
CONTINUOUS
 10
58.101405
 20
-61.061653
 11
88.750533
 21
-45.662758
  0
LINE
  8
ボルト／ビス
  6
CONTINUOUS
 62
    64
 10
57.779645
 20
-59.307515
 11
57.5259
 21
-59.693452
  0
LINE
  8
ボルト／ビス
  6
CONTINUOUS
 62
    64
 10
57.779645
 20
-59.307515
 11
58.240745
 21
-59.334297
  0
LINE
  8
ボルト／ビス
  6
CONTINUOUS
 62
    64
 10
58.19436
 20
-60.13295
 11
57.73326
 21
-60.106167
  0
LINE
  8
ボルト／ビス
  6
CONTINUOUS
 62
    64
 10
58.19436
 20
-60.13295
 11
58.448105
 21
-59.747012
  0
CIRCLE
  8
ボルト／ビス
  6
CONTINUOUS
 62
    64
 10
57.987003
 20
-59.720233
 40
0.4
  0
LINE
  8
ボルト／ビス
  6
CONTINUOUS
 62
    64
 10
58.240745
 20
-59.334297
 11
58.448105
 21
-59.747012
  0
LINE
  8
ボルト／ビス
  6
CONTINUOUS
 62
    64
 10
57.5259
 20
-59.693452
 11
57.73326
 21
-60.106167
  0
LINE
  8
ボルト／ビス
  6
CONTINUOUS
 62
    64
 10
72.657393
 20
-51.832555
 11
73.118498
 21
-51.859332
  0
LINE
  8
ボルト／ビス
  6
CONTINUOUS
 62
    64
 10
72.657393
 20
-51.832555
 11
72.403648
 21
-52.21849
  0
LINE
  8
ボルト／ビス
  6
CONTINUOUS
 62
    64
 10
73.072113
 20
-52.657988
 11
73.325855
 21
-52.272052
  0
LINE
  8
ボルト／ビス
  6
CONTINUOUS
 62
    64
 10
73.072113
 20
-52.657988
 11
72.61101
 21
-52.631207
  0
CIRCLE
  8
ボルト／ビス
  6
CONTINUOUS
 62
    64
 10
72.864755
 20
-52.245273
 40
0.4
  0
LINE
  8
ボルト／ビス
  6
CONTINUOUS
 62
    64
 10
72.403648
 20
-52.21849
 11
72.61101
 21
-52.631207
  0
LINE
  8
ボルト／ビス
  6
CONTINUOUS
 62
    64
 10
73.118498
 20
-51.859332
 11
73.325855
 21
-52.272052
  0
LINE
  8
ボルト／ビス
  6
CONTINUOUS
 62
    64
 10
87.535182
 20
-44.357665
 11
87.996287
 21
-44.384447
  0
LINE
  8
ボルト／ビス
  6
CONTINUOUS
 62
    64
 10
87.535182
 20
-44.357665
 11
87.28144
 21
-44.743602
  0
LINE
  8
ボルト／ビス
  6
CONTINUOUS
 62
    64
 10
87.9499
 20
-45.183103
 11
88.203643
 21
-44.797165
  0
LINE
  8
ボルト／ビス
  6
CONTINUOUS
 62
    64
 10
87.9499
 20
-45.183103
 11
87.488793
 21
-45.15632
  0
CIRCLE
  8
ボルト／ビス
  6
CONTINUOUS
 62
    64
 10
87.742538
 20
-44.770385
 40
0.4
  0
LINE
  8
ボルト／ビス
  6
CONTINUOUS
 62
    64
 10
87.28144
 20
-44.743602
 11
87.488793
 21
-45.15632
  0
LINE
  8
ボルト／ビス
  6
CONTINUOUS
 62
    64
 10
87.996287
 20
-44.384447
 11
88.203643
 21
-44.797165
  0
ENDBLK
  0
BLOCK
  2
*DIM_0013
 70
    65
 10
0.0
 20
0.0
  0
LINE
  8
寸法
  6
BYBLOCK
 62
     0
 10
98.326538
 20
-40.355163
 11
114.785173
 21
-40.355163
  0
LINE
  8
寸法
  6
BYBLOCK
 62
     0
 10
114.785173
 20
-51.355165
 11
114.785173
 21
-40.355163
  0
POINT
  8
寸法
 62
     0
 10
114.785173
 20
-51.355165
  0
POINT
  8
寸法
 62
     0
 10
114.785173
 20
-40.355163
  0
TEXT
  7
TextStyle03
  8
寸法
  6
CONTINUOUS
 62
     0
 10
113.1
 20
-38.54375
  1
上昇159以上
 40
3.0
 50
90.0
 72
     5
 11
113.1
 21
-20.35625
  0
ENDBLK
  0
BLOCK
  2
*DIM_0014
 70
    65
 10
0.0
 20
0.0
  0
LINE
  8
寸法
  6
CONTINUOUS
 10
172.304785
 20
74.557477
 11
182.239625
 21
74.557477
  0
LINE
  8
寸法
  6
CONTINUOUS
 10
172.304785
 20
29.557477
 11
182.239625
 21
29.557477
  0
LINE
  8
寸法
  6
CONTINUOUS
 10
182.239625
 20
74.557477
 11
182.239625
 21
29.557477
  0
POINT
  8
寸法
 10
182.239625
 20
74.557477
  0
POINT
  8
寸法
 10
182.239625
 20
29.557477
  0
TEXT
  7
TextStyle03
  8
寸法
  6
CONTINUOUS
 10
181.85
 20
49.6125
  1
900
 40
3.0
 50
90.0
 72
     5
 11
181.85
 21
54.4875
  0
ENDBLK
  0
BLOCK
  2
*DIM_0015
 70
    65
 10
0.0
 20
0.0
  0
LINE
  8
寸法
  6
CONTINUOUS
 10
122.304785
 20
79.557477
 11
122.304785
 21
88.184995
  0
LINE
  8
寸法
  6
CONTINUOUS
 10
167.304785
 20
79.557477
 11
167.304785
 21
88.184995
  0
LINE
  8
寸法
  6
CONTINUOUS
 10
122.304785
 20
88.184995
 11
167.304785
 21
88.184995
  0
POINT
  8
寸法
 10
122.304785
 20
88.184995
  0
POINT
  8
寸法
 10
167.304785
 20
88.184995
  0
TEXT
  7
TextStyle03
  8
寸法
  6
CONTINUOUS
 10
142.3625
 20
88.55
  1
900
 40
3.0
 72
     5
 11
147.2375
 21
88.55
  0
ENDBLK
  0
BLOCK
  2
*DIM_0016
 70
    65
 10
0.0
 20
0.0
  0
LINE
  8
寸法
  6
CONTINUOUS
 10
-39.942472
 20
-51.355163
 11
-29.174193
 21
-51.355163
  0
LINE
  8
寸法
  6
CONTINUOUS
 10
-38.29041
 20
-63.52999
 11
-29.174193
 21
-63.52999
  0
LINE
  8
寸法
  6
CONTINUOUS
 10
-29.174193
 20
-51.355163
 11
-29.174193
 21
-63.52999
  0
POINT
  8
寸法
 10
-29.174193
 20
-51.355163
  0
POINT
  8
寸法
 10
-29.174193
 20
-63.52999
  0
TEXT
  7
TextStyle03
  8
寸法
  6
CONTINUOUS
 10
-29.55
 20
-61.575
  1
243.5
 40
3.0
 50
90.0
 72
     5
 11
-29.55
 21
-53.325
  0
ENDBLK
  0
BLOCK
  2
*DIM_0017
 70
    65
 10
0.0
 20
0.0
  0
LINE
  8
寸法
  6
CONTINUOUS
 10
100.200657
 20
-51.355163
 11
114.785173
 21
-51.355163
  0
LINE
  8
寸法
  6
CONTINUOUS
 10
101.887498
 20
-63.52999
 11
114.785173
 21
-63.52999
  0
LINE
  8
寸法
  6
CONTINUOUS
 10
114.785173
 20
-51.355163
 11
114.785173
 21
-63.52999
  0
POINT
  8
寸法
 10
114.785173
 20
-51.355163
  0
POINT
  8
寸法
 10
114.785173
 20
-63.52999
  0
TEXT
  7
TextStyle03
  8
寸法
  6
CONTINUOUS
 10
114.4
 20
-61.575
  1
243.5
 40
3.0
 50
90.0
 72
     5
 11
114.4
 21
-53.325
  0
ENDBLK
  0
ENDSEC
  0
SECTION
  2
ENTITIES
  0
POLYLINE
  8
通り芯
  6
CONTINUOUS
 66
     1
 70
     1
  0
VERTEX
  8
通り芯
 10
-210.0
 20
-148.5
  0
VERTEX
  8
通り芯
 10
210.0
 20
-148.5
  0
VERTEX
  8
通り芯
 10
210.0
 20
148.5
  0
VERTEX
  8
通り芯
 10
-210.0
 20
148.5
  0
SEQEND
  0
INSERT
  2
*GRP_0001
  8
型材断面
  6
CONTINUOUS
 10
0.0
 20
0.0
  0
LINE
  8
型材断面
  6
DASHDOT
 10
-69.935405
 20
-67.794
 11
-69.935405
 21
56.66027
  0
LINE
  8
型材断面
  6
DASHDOT
 10
-92.435405
 20
-67.794
 11
-92.435405
 21
56.66027
  0
LINE
  8
型材断面
  6
DASHDOT
 10
-47.435405
 20
-67.794
 11
-47.435405
 21
56.66027
  0
LINE
  8
型材断面
  6
CONTINUOUS
 10
-100.45928
 20
17.210268
 11
-104.34504
 21
18.104352
  0
LINE
  8
型材断面
  6
CONTINUOUS
 10
-100.45928
 20
17.210268
 11
-104.34504
 21
16.316182
  0
LINE
  8
型材断面
  6
CONTINUOUS
 10
-104.34504
 20
16.316182
 11
-104.34504
 21
18.104352
  0
LINE
  8
型材断面
  6
CONTINUOUS
 10
-100.45928
 20
51.110273
 11
-104.34504
 21
50.216187
  0
LINE
  8
型材断面
  6
CONTINUOUS
 10
-100.45928
 20
51.110273
 11
-104.34504
 21
52.004357
  0
LINE
  8
型材断面
  6
CONTINUOUS
 10
-104.34504
 20
52.004357
 11
-104.34504
 21
50.216187
  0
LINE
  8
型材断面
  6
CONTINUOUS
 10
-39.41153
 20
17.210268
 11
-35.52577
 21
18.104352
  0
LINE
  8
型材断面
  6
CONTINUOUS
 10
-39.41153
 20
17.210268
 11
-35.52577
 21
16.316182
  0
LINE
  8
型材断面
  6
CONTINUOUS
 10
-35.52577
 20
16.316182
 11
-35.52577
 21
18.104352
  0
LINE
  8
型材断面
  6
CONTINUOUS
 10
-39.41153
 20
51.110273
 11
-35.52577
 21
50.216187
  0
LINE
  8
型材断面
  6
CONTINUOUS
 10
-39.41153
 20
51.110273
 11
-35.52577
 21
52.004357
  0
LINE
  8
型材断面
  6
CONTINUOUS
 10
-35.52577
 20
52.004357
 11
-35.52577
 21
50.216187
  0
LINE
  8
型材断面
  6
CONTINUOUS
 10
-69.935405
 20
64.684145
 11
-72.17885
 21
68.569905
  0
LINE
  8
型材断面
  6
CONTINUOUS
 10
-69.935405
 20
64.684145
 11
-67.69196
 21
68.569905
  0
LINE
  8
型材断面
  6
CONTINUOUS
 10
-67.69196
 20
68.569905
 11
-72.17885
 21
68.569905
  0
LINE
  8
型材断面
  6
CONTINUOUS
 10
-69.935405
 20
3.636395
 11
-72.17885
 21
-0.249365
  0
LINE
  8
型材断面
  6
CONTINUOUS
 10
-69.935405
 20
3.636395
 11
-67.69196
 21
-0.249365
  0
LINE
  8
型材断面
  6
CONTINUOUS
 10
-67.69196
 20
-0.249365
 11
-72.17885
 21
-0.249365
  0
LINE
  8
型材断面
  6
CONTINUOUS
 10
-39.41153
 20
34.16027
 11
-35.52577
 21
36.403715
  0
LINE
  8
型材断面
  6
CONTINUOUS
 10
-39.41153
 20
34.16027
 11
-35.52577
 21
31.916825
  0
LINE
  8
型材断面
  6
CONTINUOUS
 10
-35.52577
 20
31.916825
 11
-35.52577
 21
36.403715
  0
LINE
  8
型材断面
  6
CONTINUOUS
 10
-100.45928
 20
34.16027
 11
-104.34504
 21
36.403715
  0
LINE
  8
型材断面
  6
CONTINUOUS
 10
-100.45928
 20
34.16027
 11
-104.34504
 21
31.916825
  0
LINE
  8
型材断面
  6
CONTINUOUS
 10
-104.34504
 20
31.916825
 11
-104.34504
 21
36.403715
  0
LINE
  8
型材断面
  6
CONTINUOUS
 10
-7.342083
 20
5.196457
 11
-9.585527
 21
1.310698
  0
LINE
  8
型材断面
  6
CONTINUOUS
 10
-7.342083
 20
5.196457
 11
-5.098638
 21
1.310698
  0
LINE
  8
型材断面
  6
CONTINUOUS
 10
-5.098638
 20
1.310698
 11
-9.585527
 21
1.310698
  0
LINE
  8
型材断面
  6
CONTINUOUS
 10
-7.342083
 20
-2.49309
 11
-6.447998
 21
-6.37885
  0
LINE
  8
型材断面
  6
CONTINUOUS
 10
-7.342083
 20
-2.49309
 11
-8.236168
 21
-6.37885
  0
LINE
  8
型材断面
  6
CONTINUOUS
 10
-8.236168
 20
-6.37885
 11
-6.447998
 21
-6.37885
  0
LINE
  8
型材断面
  6
CONTINUOUS
 10
-16.375962
 20
-0.097195
 11
36.280717
 21
-0.097195
  0
LINE
  8
型材断面
  6
CONTINUOUS
 10
-16.375962
 20
-11.297188
 11
36.280717
 21
-11.297188
  0
LINE
  8
型材断面
  6
CONTINUOUS
 10
-16.375962
 20
-18.137133
 11
36.280717
 21
-18.137133
  0
POLYLINE
  8
型材断面
  6
CONTINUOUS
 66
     1
 70
     1
  0
VERTEX
  8
型材断面
 10
-60.841143
 20
-1.541482
  0
VERTEX
  8
型材断面
 10
-79.396355
 20
-1.541482
  0
VERTEX
  8
型材断面
 10
-79.396355
 20
-6.333518
  0
VERTEX
  8
型材断面
 10
-60.841143
 20
-6.333518
  0
SEQEND
  0
POLYLINE
  8
型材断面
  6
CONTINUOUS
 66
     1
 70
     1
  0
VERTEX
  8
型材断面
 10
-60.841143
 20
74.239768
  0
VERTEX
  8
型材断面
 10
-79.396355
 20
74.239768
  0
VERTEX
  8
型材断面
 10
-79.396355
 20
69.447732
  0
VERTEX
  8
型材断面
 10
-60.841143
 20
69.447732
  0
SEQEND
  0
LINE
  8
型材断面
  6
CONTINUOUS
 10
-16.375962
 20
-24.977077
 11
36.280717
 21
-24.977077
  0
INSERT
  2
*GRP_0011
  8
型材断面
  6
CONTINUOUS
 10
0.0
 20
0.0
  0
INSERT
  2
*GRP_0012
  8
型材断面
  6
CONTINUOUS
 10
0.0
 20
0.0
  0
LINE
  8
型材断面
  6
DASHDOT
 10
-92.435443
 20
11.660285
 11
-47.435405
 21
11.660247
  0
LINE
  8
型材断面
  6
DASHDOT
 10
-92.435405
 20
56.66027
 11
-47.435405
 21
56.660232
  0
LINE
  8
型材断面
  6
DOT
 10
-51.53765
 20
56.66027
 11
-51.53765
 21
11.66025
  0
LINE
  8
型材断面
  6
DOT
 10
-49.53765
 20
56.66027
 11
-49.53765
 21
11.66025
  0
LINE
  8
型材断面
  6
CONTINUOUS
 10
-96.5804
 20
60.805007
 11
-96.5804
 21
7.515018
  0
LINE
  8
型材断面
  6
CONTINUOUS
 10
-96.5804
 20
7.515018
 11
-43.29041
 21
7.515018
  0
LINE
  8
型材断面
  6
CONTINUOUS
 10
-43.29041
 20
7.515018
 11
-43.29041
 21
60.805007
  0
LINE
  8
型材断面
  6
CONTINUOUS
 10
-96.5804
 20
60.805007
 11
-43.29041
 21
60.805007
  0
LINE
  8
型材断面
  6
DASHDOT
 10
-92.435423
 20
34.160277
 11
-47.435405
 21
34.16024
  0
LINE
  8
型材断面
  6
CONTINUOUS
 10
-45.03893
 20
8.909768
 11
-44.68538
 21
9.263318
  0
LINE
  8
型材断面
  6
CONTINUOUS
 10
-48.788933
 20
12.659768
 11
-48.435383
 21
13.013318
  0
LINE
  8
型材断面
  6
CONTINUOUS
 10
-48.435383
 20
13.013318
 11
-44.68538
 21
9.263318
  0
LINE
  8
型材断面
  6
CONTINUOUS
 10
-48.788933
 20
12.659768
 11
-45.03893
 21
8.909768
  0
LINE
  8
型材断面
  6
CONTINUOUS
 10
-43.29063
 20
7.515018
 11
-44.862158
 21
9.086537
  0
LINE
  8
型材断面
  6
CONTINUOUS
 10
-45.038887
 20
59.410707
 11
-44.685337
 21
59.057157
  0
LINE
  8
型材断面
  6
CONTINUOUS
 10
-48.788897
 20
55.660715
 11
-48.435347
 21
55.307165
  0
LINE
  8
型材断面
  6
CONTINUOUS
 10
-48.435347
 20
55.307165
 11
-44.685337
 21
59.057157
  0
LINE
  8
型材断面
  6
CONTINUOUS
 10
-48.788897
 20
55.660715
 11
-45.038887
 21
59.410707
  0
LINE
  8
型材断面
  6
CONTINUOUS
 10
-43.290585
 20
60.805455
 11
-44.862115
 21
59.233937
  0
LINE
  8
型材断面
  6
CONTINUOUS
 10
-94.831923
 20
59.410707
 11
-95.185473
 21
59.057157
  0
LINE
  8
型材断面
  6
CONTINUOUS
 10
-91.081913
 20
55.660715
 11
-91.435463
 21
55.307165
  0
LINE
  8
型材断面
  6
CONTINUOUS
 10
-91.435463
 20
55.307165
 11
-95.185473
 21
59.057157
  0
LINE
  8
型材断面
  6
CONTINUOUS
 10
-91.081913
 20
55.660715
 11
-94.831923
 21
59.410707
  0
LINE
  8
型材断面
  6
CONTINUOUS
 10
-96.580225
 20
60.805455
 11
-95.008695
 21
59.233937
  0
LINE
  8
型材断面
  6
CONTINUOUS
 10
-94.831965
 20
8.909852
 11
-95.185515
 21
9.263402
  0
LINE
  8
型材断面
  6
CONTINUOUS
 10
-91.081948
 20
12.659837
 11
-91.435498
 21
13.013387
  0
LINE
  8
型材断面
  6
CONTINUOUS
 10
-91.435498
 20
13.013387
 11
-95.185515
 21
9.263402
  0
LINE
  8
型材断面
  6
CONTINUOUS
 10
-91.081948
 20
12.659837
 11
-94.831965
 21
8.909852
  0
LINE
  8
型材断面
  6
CONTINUOUS
 10
-96.58027
 20
7.515107
 11
-95.008738
 21
9.086622
  0
LINE
  8
型材断面
  6
CONTINUOUS
 10
-69.310405
 20
12.660253
 11
-69.310405
 21
8.910253
  0
LINE
  8
型材断面
  6
CONTINUOUS
 10
-70.560405
 20
12.660253
 11
-70.560405
 21
8.910253
  0
LINE
  8
型材断面
  6
CONTINUOUS
 10
-48.43599
 20
33.534768
 11
-44.68599
 21
33.534785
  0
LINE
  8
型材断面
  6
CONTINUOUS
 10
-48.435995
 20
34.784768
 11
-44.685995
 21
34.784785
  0
LINE
  8
型材断面
  6
CONTINUOUS
 10
-70.561312
 20
55.660268
 11
-70.561265
 21
59.410268
  0
LINE
  8
型材断面
  6
CONTINUOUS
 10
-69.311312
 20
55.660253
 11
-69.311265
 21
59.410253
  0
LINE
  8
型材断面
  6
CONTINUOUS
 10
-91.43483
 20
34.786583
 11
-95.18483
 21
34.786505
  0
LINE
  8
型材断面
  6
CONTINUOUS
 10
-91.434805
 20
33.536583
 11
-95.184805
 21
33.536505
  0
LINE
  8
型材断面
  6
CONTINUOUS
 10
-48.435405
 20
34.78747
 11
-48.435433
 21
55.30725
  0
LINE
  8
型材断面
  6
CONTINUOUS
 10
-69.310405
 20
55.660288
 11
-48.788428
 21
55.660245
  0
LINE
  8
型材断面
  6
CONTINUOUS
 10
-70.560405
 20
55.660288
 11
-91.082298
 21
55.66033
  0
LINE
  8
型材断面
  6
CONTINUOUS
 10
-91.435405
 20
34.786583
 11
-91.435405
 21
55.307222
  0
LINE
  8
型材断面
  6
CONTINUOUS
 10
-45.039358
 20
59.410238
 11
-94.831553
 21
59.410338
  0
LINE
  8
型材断面
  6
CONTINUOUS
 10
-48.435402
 20
33.53747
 11
-48.435375
 21
13.013325
  0
LINE
  8
型材断面
  6
CONTINUOUS
 10
-69.310405
 20
12.660253
 11
-48.788462
 21
12.660238
  0
LINE
  8
型材断面
  6
CONTINUOUS
 10
-44.685437
 20
59.057057
 11
-44.68537
 21
9.263307
  0
LINE
  8
型材断面
  6
CONTINUOUS
 10
-70.560405
 20
12.660253
 11
-91.082377
 21
12.660268
  0
LINE
  8
型材断面
  6
CONTINUOUS
 10
-91.435405
 20
33.536583
 11
-91.435405
 21
13.013295
  0
LINE
  8
型材断面
  6
CONTINUOUS
 10
-45.038462
 20
8.910235
 11
-94.831548
 21
8.91027
  0
LINE
  8
型材断面
  6
CONTINUOUS
 10
-95.185405
 20
59.05709
 11
-95.185405
 21
9.263513
  0
LINE
  8
型材断面
  6
CONTINUOUS
 10
-95.8304
 20
-63.52999
 11
-95.8304
 21
-64.034987
  0
LINE
  8
型材断面
  6
CONTINUOUS
 10
-96.2854
 20
-57.385167
 11
-96.5804
 21
-57.680167
  0
LINE
  8
型材断面
  6
CONTINUOUS
 10
-96.5804
 20
-57.680167
 11
-96.5804
 21
-63.52999
  0
LINE
  8
型材断面
  6
CONTINUOUS
 10
-96.5804
 20
-63.52999
 11
-69.935405
 21
-63.52999
  0
LINE
  8
型材断面
  6
CONTINUOUS
 10
-95.8304
 20
-64.034987
 11
-69.935405
 21
-64.034987
  0
LINE
  8
型材断面
  6
CONTINUOUS
 62
    47
 10
-96.285465
 20
-57.385232
 11
-69.935405
 21
-57.385232
  0
LINE
  8
型材断面
  6
CONTINUOUS
 10
-96.5804
 20
-57.680167
 11
-69.935405
 21
-57.680167
  0
LINE
  8
型材断面
  6
CONTINUOUS
 10
-44.04041
 20
-63.52999
 11
-44.04041
 21
-64.034987
  0
LINE
  8
型材断面
  6
CONTINUOUS
 10
-43.58541
 20
-57.385167
 11
-43.29041
 21
-57.680167
  0
LINE
  8
型材断面
  6
CONTINUOUS
 10
-43.29041
 20
-57.680167
 11
-43.29041
 21
-63.52999
  0
LINE
  8
型材断面
  6
CONTINUOUS
 10
-43.29041
 20
-63.52999
 11
-69.935405
 21
-63.52999
  0
LINE
  8
型材断面
  6
CONTINUOUS
 10
-44.04041
 20
-64.034987
 11
-69.935405
 21
-64.034987
  0
LINE
  8
型材断面
  6
CONTINUOUS
 62
    47
 10
-43.585345
 20
-57.385232
 11
-69.935405
 21
-57.385232
  0
LINE
  8
型材断面
  6
CONTINUOUS
 10
-43.29041
 20
-57.680167
 11
-69.935405
 21
-57.680167
  0
LINE
  8
型材断面
  6
CONTINUOUS
 10
44.347508
 20
-63.52999
 11
44.347508
 21
-64.034987
  0
LINE
  8
型材断面
  6
CONTINUOUS
 10
43.892507
 20
-57.385167
 11
43.597508
 21
-57.680167
  0
LINE
  8
型材断面
  6
CONTINUOUS
 10
43.597508
 20
-57.680167
 11
43.597508
 21
-63.52999
  0
LINE
  8
型材断面
  6
CONTINUOUS
 10
43.597508
 20
-63.52999
 11
70.242503
 21
-63.52999
  0
LINE
  8
型材断面
  6
CONTINUOUS
 10
44.347508
 20
-64.034987
 11
70.242503
 21
-64.034987
  0
LINE
  8
型材断面
  6
CONTINUOUS
 62
    47
 10
43.892442
 20
-57.385232
 11
70.242503
 21
-57.385232
  0
LINE
  8
型材断面
  6
CONTINUOUS
 10
43.597508
 20
-57.680167
 11
70.242503
 21
-57.680167
  0
LINE
  8
型材断面
  6
CONTINUOUS
 10
96.137498
 20
-63.52999
 11
96.137498
 21
-64.034987
  0
LINE
  8
型材断面
  6
CONTINUOUS
 10
96.592497
 20
-57.385167
 11
96.887498
 21
-57.680167
  0
LINE
  8
型材断面
  6
CONTINUOUS
 10
96.887498
 20
-57.680167
 11
96.887498
 21
-63.52999
  0
LINE
  8
型材断面
  6
CONTINUOUS
 10
96.887498
 20
-63.52999
 11
70.242503
 21
-63.52999
  0
LINE
  8
型材断面
  6
CONTINUOUS
 10
96.137498
 20
-64.034987
 11
70.242503
 21
-64.034987
  0
LINE
  8
型材断面
  6
CONTINUOUS
 62
    47
 10
96.592562
 20
-57.385232
 11
70.242503
 21
-57.385232
  0
LINE
  8
型材断面
  6
CONTINUOUS
 10
96.887498
 20
-57.680167
 11
70.242503
 21
-57.680167
  0
LINE
  8
ガラス
  6
CONTINUOUS
 10
167.304785
 20
74.557477
 11
122.304785
 21
74.557477
  0
LINE
  8
ガラス
  6
CONTINUOUS
 10
122.304785
 20
74.557477
 11
122.304785
 21
29.557477
  0
LINE
  8
ガラス
  6
CONTINUOUS
 10
122.304785
 20
29.557477
 11
167.304785
 21
29.557477
  0
LINE
  8
ガラス
  6
CONTINUOUS
 10
167.304785
 20
74.557477
 11
167.304785
 21
29.557477
  0
TEXT
  7
TextStyle03
  8
文字
  6
CONTINUOUS
 10
-22.275
 20
19.025
  1
ﾊﾞﾗﾝｽｽﾃｰ
 40
3.0
 72
     5
 11
-8.9625
 21
19.025
  0
TEXT
  7
TextStyle03
  8
文字
  6
CONTINUOUS
 10
-98.85
 20
79.85
  1
アンカーピッチ
 40
3.0
 72
     5
 11
-75.6
 21
79.85
  0
TEXT
  7
TextStyle03
  8
文字
  6
CONTINUOUS
 10
-122.5
 20
1.75
  1
アンカーピッチ
 40
3.0
 50
90.0
 72
     5
 11
-122.5
 21
25.0
  0
TEXT
  7
TextStyle03
  8
文字
  6
CONTINUOUS
 10
-3.075
 20
1.625
  1
は排水穴位置を示す
 40
3.0
 72
     5
 11
26.925
 21
1.625
  0
TEXT
  7
TextStyle03
  8
文字
  6
CONTINUOUS
 10
-3.075
 20
-6.225
  1
はケーシング位置を示す
 40
3.0
 72
     5
 11
33.675
 21
-6.225
  0
TEXT
  7
TextStyle03
  8
文字
  6
CONTINUOUS
 10
-3.075
 20
-9.6
  1
４ヶ所中1ヶ所に設定
 40
3.0
 72
     5
 11
28.6125
 21
-9.6
  0
TEXT
  7
TextStyle03
  8
文字
  6
CONTINUOUS
 10
-8.675
 20
-16.75
  1
アンカー数量　６ヶ所
 40
3.0
 72
     5
 11
24.7
 21
-16.75
  0
TEXT
  7
TextStyle03
  8
文字
  6
CONTINUOUS
 10
-78.425
 20
-5.35
  1
可動装置側
 40
3.0
 72
     5
 11
-61.925
 21
-5.35
  0
TEXT
  7
TextStyle03
  8
文字
  6
CONTINUOUS
 10
-78.425
 20
70.425
  1
可動装置側
 40
3.0
 72
     5
 11
-61.925
 21
70.425
  0
TEXT
  7
TextStyle03
  8
文字
  6
CONTINUOUS
 10
62.55
 20
96.85
  1
ＮＳコード：ＮＳＦ
 40
5.0
 72
     5
 11
112.55
 21
96.85
  0
TEXT
  7
TextStyle03
  8
文字
  6
CONTINUOUS
 10
-8.725
 20
-23.575
  1
アームユニット数　２ヶ所
 40
3.0
 72
     5
 11
31.4
 21
-23.575
  0
LINE
  8
文字
  6
CONTINUOUS
 10
-43.29041
 20
-16.126177
 11
-43.29041
 21
-53.844433
  0
LINE
  8
文字
  6
CONTINUOUS
 10
-96.5804
 20
-16.126177
 11
-96.5804
 21
-53.844433
  0
TEXT
  7
TextStyle03
  8
文字
  6
CONTINUOUS
 10
146.1
 20
37.8
  1
網入り6.8t
 40
3.0
 72
     5
 11
162.7875
 21
37.8
  0
TEXT
  7
TextStyle03
  8
文字
  6
CONTINUOUS
 10
152.725
 20
32.55
  1
×１枚
 40
3.0
 72
     5
 11
162.475
 21
32.55
  0
TEXT
  7
TextStyle03
  8
文字
  6
CONTINUOUS
 10
62.325
 20
119.5
  1
シリーズ：ＴＦＦ
 40
5.0
 72
     5
 11
106.7
 21
119.5
  0
TEXT
  7
TextStyle03
  8
文字
  6
CONTINUOUS
 10
62.325
 20
113.875
  1
　　　　　（上下可動）900×900タイプ
 40
5.0
 72
     5
 11
162.95
 21
113.875
  0
TEXT
  7
TextStyle03
  8
文字
  6
CONTINUOUS
 10
62.325
 20
108.25
  1
図面名　：外観姿図
 40
5.0
 72
     5
 11
112.325
 21
108.25
  0
TEXT
  7
TextStyle03
  8
文字
  6
CONTINUOUS
 10
62.325
 20
102.625
  1
　　　　　　
 40
5.0
 72
     5
 11
95.45
 21
102.625
  0
INSERT
  2
*DIM_0002
  8
寸法
  6
CONTINUOUS
 10
0.0
 20
0.0
  0
INSERT
  2
*GRP_0003
  8
寸法
  6
CONTINUOUS
 10
0.0
 20
0.0
  0
INSERT
  2
*DIM_0004
  8
寸法
  6
CONTINUOUS
 10
0.0
 20
0.0
  0
INSERT
  2
*DIM_0005
  8
寸法
  6
CONTINUOUS
 10
0.0
 20
0.0
  0
INSERT
  2
*DIM_0006
  8
寸法
  6
CONTINUOUS
 10
0.0
 20
0.0
  0
INSERT
  2
*DIM_0007
  8
寸法
  6
CONTINUOUS
 10
0.0
 20
0.0
  0
INSERT
  2
*DIM_0008
  8
寸法
  6
CONTINUOUS
 10
0.0
 20
0.0
  0
CIRCLE
  8
寸法
  6
CONTINUOUS
 10
-111.453763
 20
34.16027
 40
1.73792
  0
INSERT
  2
*DIM_0009
  8
寸法
  6
CONTINUOUS
 10
0.0
 20
0.0
  0
INSERT
  2
*DIM_0010
  8
寸法
  6
CONTINUOUS
 10
0.0
 20
0.0
  0
INSERT
  2
*DIM_0013
  8
寸法
  6
CONTINUOUS
 10
0.0
 20
0.0
  0
INSERT
  2
*DIM_0014
  8
寸法
  6
CONTINUOUS
 10
0.0
 20
0.0
  0
INSERT
  2
*DIM_0015
  8
寸法
  6
CONTINUOUS
 10
0.0
 20
0.0
  0
INSERT
  2
*DIM_0016
  8
寸法
  6
CONTINUOUS
 10
0.0
 20
0.0
  0
INSERT
  2
*DIM_0017
  8
寸法
  6
CONTINUOUS
 10
0.0
 20
0.0
  0
LINE
  8
別途部材
  6
CONTINUOUS
 62
    47
 10
-95.185405
 20
-51.505163
 11
-95.185405
 21
-51.605165
  0
ARC
  8
別途部材
  6
CONTINUOUS
 62
    47
 10
-95.035404
 20
-51.505164
 40
0.15
 50
90.0
 51
180.0
  0
LINE
  8
別途部材
  6
CONTINUOUS
 62
    47
 10
-94.95062
 20
-51.605165
 11
-94.95062
 21
-53.855165
  0
LINE
  8
別途部材
  6
CONTINUOUS
 62
    47
 10
-95.185405
 20
-51.605165
 11
-69.935405
 21
-51.605165
  0
LINE
  8
別途部材
  6
CONTINUOUS
 62
    47
 10
-95.035405
 20
-51.355163
 11
-69.935405
 21
-51.355163
  0
LINE
  8
別途部材
  6
CONTINUOUS
 62
    47
 10
-94.95062
 20
-53.855165
 11
-69.935405
 21
-53.855165
  0
LINE
  8
別途部材
  6
CONTINUOUS
 62
    47
 10
-96.5804
 20
-55.580167
 11
-69.935405
 21
-55.580167
  0
LINE
  8
別途部材
  6
CONTINUOUS
 62
    47
 10
-96.5804
 20
-57.330165
 11
-69.935405
 21
-57.330165
  0
LINE
  8
別途部材
  6
CONTINUOUS
 62
    47
 10
-44.685405
 20
-51.505163
 11
-44.685405
 21
-51.605165
  0
ARC
  8
別途部材
  6
CONTINUOUS
 62
    47
 10
-44.835406
 20
-51.505164
 40
0.15
 50
0.0
 51
90.0
  0
LINE
  8
別途部材
  6
CONTINUOUS
 62
    47
 10
-44.92019
 20
-51.605165
 11
-44.92019
 21
-53.855165
  0
LINE
  8
別途部材
  6
CONTINUOUS
 62
    47
 10
-44.685405
 20
-51.605165
 11
-69.935405
 21
-51.605165
  0
LINE
  8
別途部材
  6
CONTINUOUS
 62
    47
 10
-44.835405
 20
-51.355163
 11
-69.935405
 21
-51.355163
  0
LINE
  8
別途部材
  6
CONTINUOUS
 62
    47
 10
-44.92019
 20
-53.855165
 11
-69.935405
 21
-53.855165
  0
LINE
  8
別途部材
  6
CONTINUOUS
 62
    47
 10
-43.29041
 20
-55.580167
 11
-69.935405
 21
-55.580167
  0
LINE
  8
別途部材
  6
CONTINUOUS
 62
    47
 10
-43.29041
 20
-57.330165
 11
-69.935405
 21
-57.330165
  0
LINE
  8
別途部材
  6
CONTINUOUS
 62
    47
 10
44.992503
 20
-51.505163
 11
44.992503
 21
-51.605165
  0
ARC
  8
別途部材
  6
CONTINUOUS
 62
    47
 10
45.142503
 20
-51.505164
 40
0.15
 50
90.0
 51
180.0
  0
LINE
  8
別途部材
  6
CONTINUOUS
 62
    47
 10
45.227288
 20
-51.605165
 11
45.227288
 21
-53.855165
  0
LINE
  8
別途部材
  6
CONTINUOUS
 62
    47
 10
44.992503
 20
-51.605165
 11
70.242503
 21
-51.605165
  0
LINE
  8
別途部材
  6
CONTINUOUS
 62
    47
 10
45.142503
 20
-51.355163
 11
70.242503
 21
-51.355163
  0
LINE
  8
別途部材
  6
CONTINUOUS
 62
    47
 10
45.227288
 20
-53.855165
 11
70.242503
 21
-53.855165
  0
LINE
  8
別途部材
  6
CONTINUOUS
 62
    47
 10
43.597508
 20
-55.580167
 11
70.242503
 21
-55.580167
  0
LINE
  8
別途部材
  6
CONTINUOUS
 62
    47
 10
43.597508
 20
-57.330165
 11
70.242503
 21
-57.330165
  0
LINE
  8
別途部材
  6
CONTINUOUS
 62
    47
 10
95.492503
 20
-51.505163
 11
95.492503
 21
-51.605165
  0
ARC
  8
別途部材
  6
CONTINUOUS
 62
    47
 10
95.342502
 20
-51.505164
 40
0.15
 50
0.0
 51
90.0
  0
LINE
  8
別途部材
  6
CONTINUOUS
 62
    47
 10
95.257718
 20
-51.605165
 11
95.257718
 21
-53.855165
  0
LINE
  8
別途部材
  6
CONTINUOUS
 62
    47
 10
95.492503
 20
-51.605165
 11
70.242503
 21
-51.605165
  0
LINE
  8
別途部材
  6
CONTINUOUS
 62
    47
 10
95.342503
 20
-51.355163
 11
70.242503
 21
-51.355163
  0
LINE
  8
別途部材
  6
CONTINUOUS
 62
    47
 10
95.257718
 20
-53.855165
 11
70.242503
 21
-53.855165
  0
LINE
  8
別途部材
  6
CONTINUOUS
 62
    47
 10
96.887498
 20
-55.580167
 11
70.242503
 21
-55.580167
  0
LINE
  8
別途部材
  6
CONTINUOUS
 62
    47
 10
96.887498
 20
-57.330165
 11
70.242503
 21
-57.330165
  0
LINE
  8
別途部材
  6
DOT
 62
    47
 10
95.492503
 20
-40.505163
 11
95.492503
 21
-40.605163
  0
ARC
  8
別途部材
  6
DOT
 62
    47
 10
95.3425
 20
-40.505162
 40
0.15
 50
0.0
 51
90.0
  0
LINE
  8
別途部材
  6
DOT
 62
    47
 10
95.257718
 20
-40.605163
 11
95.257718
 21
-42.855163
  0
LINE
  8
別途部材
  6
DOT
 62
    47
 10
44.992935
 20
-40.505163
 11
44.992935
 21
-40.605163
  0
ARC
  8
別途部材
  6
DOT
 62
    47
 10
45.142936
 20
-40.505162
 40
0.15
 50
90.0
 51
180.0
  0
LINE
  8
別途部材
  6
DOT
 62
    47
 10
45.22772
 20
-40.605163
 11
45.22772
 21
-42.855163
  0
LINE
  8
別途部材
  6
DOT
 62
    47
 10
43.59794
 20
-46.330165
 11
70.24272
 21
-46.330165
  0
LINE
  8
別途部材
  6
DOT
 62
    47
 10
43.59794
 20
-44.580167
 11
70.24272
 21
-44.580167
  0
LINE
  8
別途部材
  6
DOT
 62
    47
 10
45.22772
 20
-42.855163
 11
70.24272
 21
-42.855163
  0
LINE
  8
別途部材
  6
DOT
 62
    47
 10
45.142935
 20
-40.355163
 11
70.24272
 21
-40.355163
  0
LINE
  8
別途部材
  6
DOT
 62
    47
 10
44.992935
 20
-40.605163
 11
70.24272
 21
-40.605163
  0
LINE
  8
別途部材
  6
DOT
 62
    47
 10
96.887498
 20
-46.330165
 11
70.24272
 21
-46.330165
  0
LINE
  8
別途部材
  6
DOT
 62
    47
 10
96.887498
 20
-44.580167
 11
70.24272
 21
-44.580167
  0
LINE
  8
別途部材
  6
DOT
 62
    47
 10
95.257718
 20
-42.855163
 11
70.24272
 21
-42.855163
  0
LINE
  8
別途部材
  6
DOT
 62
    47
 10
95.342503
 20
-40.355163
 11
70.24272
 21
-40.355163
  0
LINE
  8
別途部材
  6
DOT
 62
    47
 10
95.492503
 20
-40.605163
 11
70.24272
 21
-40.605163
  0
LINE
  8
鉄骨等
  6
CONTINUOUS
 62
    47
 10
-96.5804
 20
-57.330165
 11
-96.5804
 21
-55.580167
  0
LINE
  8
鉄骨等
  6
CONTINUOUS
 62
    47
 10
-96.5804
 20
-55.580167
 11
-94.475623
 21
-53.855167
  0
LINE
  8
鉄骨等
  6
CONTINUOUS
 62
    47
 10
-43.29041
 20
-57.330165
 11
-43.29041
 21
-55.580167
  0
LINE
  8
鉄骨等
  6
CONTINUOUS
 62
    47
 10
-43.29041
 20
-55.580167
 11
-45.395187
 21
-53.855167
  0
LINE
  8
鉄骨等
  6
CONTINUOUS
 62
    47
 10
43.597508
 20
-57.330165
 11
43.597508
 21
-55.580167
  0
LINE
  8
鉄骨等
  6
CONTINUOUS
 62
    47
 10
43.597508
 20
-55.580167
 11
45.702285
 21
-53.855167
  0
LINE
  8
鉄骨等
  6
CONTINUOUS
 62
    47
 10
96.887498
 20
-57.330165
 11
96.887498
 21
-55.580167
  0
LINE
  8
鉄骨等
  6
CONTINUOUS
 62
    47
 10
96.887498
 20
-55.580167
 11
94.78272
 21
-53.855167
  0
LINE
  8
鉄骨等
  6
DOT
 62
    47
 10
96.887498
 20
-46.330165
 11
96.887498
 21
-44.580167
  0
LINE
  8
鉄骨等
  6
DOT
 62
    47
 10
96.887498
 20
-44.580167
 11
94.782718
 21
-42.855167
  0
LINE
  8
鉄骨等
  6
DOT
 62
    47
 10
43.59794
 20
-46.330165
 11
43.59794
 21
-44.580167
  0
LINE
  8
鉄骨等
  6
DOT
 62
    47
 10
43.59794
 20
-44.580167
 11
45.702717
 21
-42.855167
  0
ENDSEC
  0
EOF
