  0
SECTION
  2
HEADER
  9
$EXTMIN
 10
-210.0
 20
-148.5
  9
$EXTMAX
 10
210.0
 20
148.5
  9
$PDMODE
 70
    32
  9
$PDSIZE
 40
1.5
  9
$LTSCALE
 40
10.0
  0
ENDSEC
  0
SECTION
  2
TABLES
  0
TABLE
  2
LTYPE
 70
    15
  0
LTYPE
  2
CONTINUOUS
 70
    64
  3
実線
 72
    65
 73
     0
 40
0.0
  0
LTYPE
  2
DASHED
 70
    64
  3
破線A
 72
    65
 73
     2
 40
0.6
 49
0.4
 49
-0.2
  0
LTYPE
  2
DASHEDX2
 70
    64
  3
破線B
 72
    65
 73
     2
 40
1.3
 49
0.9
 49
-0.4
  0
LTYPE
  2
DASHDOT
 70
    64
  3
１点鎖線A
 72
    65
 73
     4
 40
0.5375
 49
0.375
 49
-0.05
 49
0.0625
 49
-0.05
  0
LTYPE
  2
DASHDOTX2
 70
    64
  3
１点鎖線B
 72
    65
 73
     4
 40
1.075
 49
0.75
 49
-0.1
 49
0.125
 49
-0.1
  0
LTYPE
  2
DIVIDE2
 70
    64
  3
２点鎖線A
 72
    65
 73
     6
 40
0.5125
 49
0.3
 49
-0.0375
 49
0.05
 49
-0.0375
 49
0.05
 49
-0.0375
  0
LTYPE
  2
DIVIDE
 70
    64
  3
２点鎖線B
 72
    65
 73
     6
 40
1.05
 49
0.55
 49
-0.1
 49
0.1
 49
-0.1
 49
0.1
 49
-0.1
  0
LTYPE
  2
DOT
 70
    64
  3
点線A
 72
    65
 73
     2
 40
0.1125
 49
0.0625
 49
-0.05
  0
LTYPE
  2
DOTX2
 70
    64
  3
点線B
 72
    65
 73
     2
 40
0.275
 49
0.15
 49
-0.125
  0
LTYPE
  2
CONTINUOUS
 70
    64
  3
実線
 72
    65
 73
     0
 40
0.0
  0
LTYPE
  2
CONTINUOUS
 70
    64
  3
実線
 72
    65
 73
     0
 40
0.0
  0
LTYPE
  2
CONTINUOUS
 70
    64
  3
実線
 72
    65
 73
     0
 40
0.0
  0
LTYPE
  2
CONTINUOUS
 70
    64
  3
実線
 72
    65
 73
     0
 40
0.0
  0
LTYPE
  2
CONTINUOUS
 70
    64
  3
実線
 72
    65
 73
     0
 40
0.0
  0
LTYPE
  2
CONTINUOUS
 70
    64
  3
実線
 72
    65
 73
     0
 40
0.0
  0
ENDTAB
  0
TABLE
  2
LAYER
 70
    34
  0
LAYER
  2
通り芯
 70
     0
 62
    15
  6
CONTINUOUS
  0
LAYER
  2
補助線
 70
     0
 62
    16
  6
DOT
  0
LAYER
  2
躯体
 70
     0
 62
    31
  6
CONTINUOUS
  0
LAYER
  2
型材
 70
     0
 62
    32
  6
CONTINUOUS
  0
LAYER
  2
型材断面
 70
     0
 62
    47
  6
CONTINUOUS
  0
LAYER
  2
ガラス
 70
     0
 62
    48
  6
CONTINUOUS
  0
LAYER
  2
ゴム等
 70
     0
 62
    63
  6
CONTINUOUS
  0
LAYER
  2
ボルト／ビス
 70
     0
 62
    64
  6
CONTINUOUS
  0
LAYER
  2
文字
 70
     0
 62
    79
  6
CONTINUOUS
  0
LAYER
  2
寸法
 70
     0
 62
    80
  6
CONTINUOUS
  0
LAYER
  2
ﾊｯﾁﾝｸﾞ
 70
     0
 62
    95
  6
CONTINUOUS
  0
LAYER
  2
別途部材
 70
     0
 62
    96
  6
CONTINUOUS
  0
LAYER
  2
曲げ物
 70
     0
 62
   111
  6
CONTINUOUS
  0
LAYER
  2
鉄骨等
 70
     0
 62
   112
  6
CONTINUOUS
  0
LAYER
  2
St
 70
     0
 62
   127
  6
CONTINUOUS
  0
LAYER
  2
その他部品等
 70
     0
 62
   128
  6
CONTINUOUS
  0
LAYER
  2
ｶﾞｽｹｯﾄ
 70
     0
 62
   143
  6
CONTINUOUS
  0
LAYER
  2
ｽｹｯﾁ
 70
     0
 62
    14
  6
CONTINUOUS
  0
LAYER
  2
0
 70
     0
 62
    17
  6
CONTINUOUS
  0
LAYER
  2
1
 70
     0
 62
    30
  6
CONTINUOUS
  0
LAYER
  2
4
 70
     0
 62
    33
  6
CONTINUOUS
  0
LAYER
  2
ﾚｲﾔ3
 70
     0
 62
    46
  6
CONTINUOUS
  0
LAYER
  2
外形線
 70
     0
 62
    49
  6
CONTINUOUS
  0
LAYER
  2
部品
 70
     0
 62
    14
  6
CONTINUOUS
  0
LAYER
  2
サッシ芯
 70
     0
 62
    17
  6
DASHDOTX2
  0
LAYER
  2
寸法線
 70
     0
 62
    62
  6
CONTINUOUS
  0
LAYER
  2
姿図外形線
 70
     0
 62
    65
  6
CONTINUOUS
  0
LAYER
  2
姿補助線
 70
     0
 62
    30
  6
CONTINUOUS
  0
LAYER
  2
透視線
 70
     0
 62
    78
  6
DOT
  0
LAYER
  2
用紙
 70
     0
 62
    81
  6
CONTINUOUS
  0
LAYER
  2
実線図枠
 70
     0
 62
    94
  6
CONTINUOUS
  0
LAYER
  2
補助図枠
 70
     0
 62
    97
  6
CONTINUOUS
  0
LAYER
  2
建具記号
 70
     0
 62
   110
  6
CONTINUOUS
  0
LAYER
  2
補助文字
 70
     0
 62
   113
  6
CONTINUOUS
  0
ENDTAB
  0
TABLE
  2
STYLE
 70
    10
  0
STYLE
  2
STANDARD
 70
     0
 40
1.0
 41
1.0
 42
1.0
 50
0.0
 71
     0
  3
TXT
  4
BIGFONT
  0
STYLE
  2
TATE
 70
     4
 40
1.0
 41
1.0
 42
1.0
 50
0.0
 71
     0
  3
TXT
  4
BIGFONT
  0
STYLE
  2
TextStyle03
 70
     0
 40
1.0
 41
1.0
 42
1.0
 50
0.0
 71
     0
  3
MONOTXT
  4
BIGFONT
  0
STYLE
  2
TextStyle04
 70
     0
 40
1.0
 41
1.0
 42
1.0
 50
0.0
 71
     0
  3
MONOTXT
  4
BIGFONT
  0
STYLE
  2
TextStyle05
 70
     0
 40
1.0
 41
1.0
 42
1.0
 50
0.0
 71
     0
  3
MONOTXT
  4
BIGFONT
  0
STYLE
  2
TextStyle06
 70
     0
 40
1.0
 41
1.0
 42
1.0
 50
0.0
 71
     0
  3
MONOTXT
  4
BIGFONT
  0
STYLE
  2
TextStyle07
 70
     0
 40
1.0
 41
1.0
 42
1.0
 50
0.0
 71
     0
  3
MONOTXT
  4
BIGFONT
  0
STYLE
  2
TextStyle08
 70
     0
 40
1.0
 41
1.0
 42
1.0
 50
0.0
 71
     0
  3
MONOTXT
  4
BIGFONT
  0
STYLE
  2
TextStyle09
 70
     0
 40
1.0
 41
1.0
 42
1.0
 50
0.0
 71
     0
  3
MONOTXT
  4
BIGFONT
  0
STYLE
  2
TextStyle10
 70
     0
 40
1.0
 41
1.0
 42
1.0
 50
0.0
 71
     0
  3
MONOTXT
  4
BIGFONT
  0
ENDTAB
  0
ENDSEC
  0
SECTION
  2
BLOCKS
  0
BLOCK
  2
*HAT_0001
 70
    65
 10
0.0
 20
0.0
  0
LINE
  8
ゴム等
  6
DOT
 10
15.975
 20
-63.85
 11
17.55
 21
-62.275
  0
LINE
  8
ゴム等
  6
DOT
 10
18.525
 20
-61.375
 11
19.875
 21
-60.025
  0
LINE
  8
ゴム等
  6
DOT
 10
14.625
 20
-63.85
 11
19.875
 21
-58.6
  0
LINE
  8
ゴム等
  6
DOT
 10
13.2
 20
-63.85
 11
19.875
 21
-57.175
  0
LINE
  8
ゴム等
  6
DOT
 10
12.375
 20
-63.25
 11
19.275
 21
-56.35
  0
LINE
  8
ゴム等
  6
DOT
 10
12.075
 20
-62.125
 11
17.85
 21
-56.35
  0
LINE
  8
ゴム等
  6
DOT
 10
11.475
 20
-61.375
 11
16.425
 21
-56.35
  0
LINE
  8
ゴム等
  6
DOT
 10
10.05
 20
-61.375
 11
14.7
 21
-56.65
  0
LINE
  8
ゴム等
  6
DOT
 10
9.825
 20
-60.1
 11
13.65
 21
-56.35
  0
LINE
  8
ゴム等
  6
DOT
 10
9.825
 20
-58.675
 11
12.225
 21
-56.35
  0
LINE
  8
ゴム等
  6
DOT
 10
9.825
 20
-57.25
 11
10.8
 21
-56.35
  0
ENDBLK
  0
BLOCK
  2
*HAT_0002
 70
    65
 10
0.0
 20
0.0
  0
LINE
  8
ゴム等
  6
DOT
 10
112.35
 20
-42.475
 11
110.775
 21
-44.05
  0
LINE
  8
ゴム等
  6
DOT
 10
109.8
 20
-45.025
 11
108.45
 21
-46.375
  0
LINE
  8
ゴム等
  6
DOT
 10
112.35
 20
-41.125
 11
107.025
 21
-46.375
  0
LINE
  8
ゴム等
  6
DOT
 10
112.35
 20
-39.7
 11
105.675
 21
-46.375
  0
LINE
  8
ゴム等
  6
DOT
 10
111.75
 20
-38.875
 11
104.85
 21
-45.775
  0
LINE
  8
ゴム等
  6
DOT
 10
110.55
 20
-38.575
 11
104.85
 21
-44.35
  0
LINE
  8
ゴム等
  6
DOT
 10
109.8
 20
-37.975
 11
104.85
 21
-42.925
  0
LINE
  8
ゴム等
  6
DOT
 10
109.8
 20
-36.55
 11
105.15
 21
-41.2
  0
LINE
  8
ゴム等
  6
DOT
 10
108.6
 20
-36.325
 11
104.85
 21
-40.15
  0
LINE
  8
ゴム等
  6
DOT
 10
107.175
 20
-36.325
 11
104.85
 21
-38.725
  0
LINE
  8
ゴム等
  6
DOT
 10
105.75
 20
-36.325
 11
104.85
 21
-37.3
  0
ENDBLK
  0
BLOCK
  2
*HAT_0003
 70
    65
 10
0.0
 20
0.0
  0
LINE
  8
ゴム等
 10
6.825
 20
-46.075
 11
5.85
 21
-45.175
  0
LINE
  8
ゴム等
 10
6.825
 20
-47.95
 11
3.45
 21
-44.575
  0
LINE
  8
ゴム等
 10
0.825
 20
-41.95
 11
0.225
 21
-41.35
  0
LINE
  8
ゴム等
 10
6.825
 20
-49.825
 11
2.325
 21
-45.325
  0
LINE
  8
ゴム等
 10
0.825
 20
-43.825
 11
-1.65
 21
-41.35
  0
LINE
  8
ゴム等
 10
6.825
 20
-51.7
 11
5.25
 21
-50.125
  0
LINE
  8
ゴム等
 10
3.0
 20
-47.875
 11
-2.85
 21
-42.025
  0
LINE
  8
ゴム等
 10
6.6
 20
-53.425
 11
4.05
 21
-50.875
  0
LINE
  8
ゴム等
 10
1.275
 20
-48.025
 11
-3.375
 21
-43.375
  0
LINE
  8
ゴム等
 10
5.1
 20
-53.725
 11
2.175
 21
-50.875
  0
LINE
  8
ゴム等
 10
0.825
 20
-49.525
 11
-3.375
 21
-45.325
  0
LINE
  8
ゴム等
 10
3.6
 20
-54.1
 11
3.0
 21
-53.575
  0
LINE
  8
ゴム等
 10
2.85
 20
-53.35
 11
-3.375
 21
-47.125
  0
LINE
  8
ゴム等
 10
0.9
 20
-53.35
 11
-3.375
 21
-49.075
  0
LINE
  8
ゴム等
 10
0.825
 20
-55.15
 11
-3.375
 21
-50.95
  0
LINE
  8
ゴム等
 10
-0.9
 20
-55.375
 11
-3.375
 21
-52.825
  0
LINE
  8
ゴム等
 10
-1.875
 20
-56.2
 11
-3.375
 21
-54.7
  0
LINE
  8
ゴム等
 10
-2.1
 20
-57.85
 11
-3.375
 21
-56.575
  0
ENDBLK
  0
BLOCK
  2
*HAT_0004
 70
    65
 10
0.0
 20
0.0
  0
LINE
  8
ゴム等
 10
3.675
 20
-58.75
 11
2.625
 21
-57.775
  0
LINE
  8
ゴム等
 10
0.675
 20
-55.75
 11
0.6
 21
-55.75
  0
LINE
  8
ゴム等
 10
7.125
 20
-64.15
 11
5.775
 21
-62.8
  0
LINE
  8
ゴム等
 10
3.675
 20
-60.7
 11
0.75
 21
-57.775
  0
LINE
  8
ゴム等
 10
0.675
 20
-57.7
 11
-1.275
 21
-55.75
  0
LINE
  8
ゴム等
 10
7.125
 20
-66.1
 11
4.875
 21
-63.775
  0
LINE
  8
ゴム等
 10
3.675
 20
-62.575
 11
-1.875
 21
-57.1
  0
LINE
  8
ゴム等
 10
7.125
 20
-67.9
 11
-1.875
 21
-58.9
  0
LINE
  8
ゴム等
 10
6.525
 20
-69.25
 11
-1.875
 21
-60.85
  0
LINE
  8
ゴム等
 10
4.2
 20
-68.8
 11
-2.475
 21
-62.05
  0
LINE
  8
ゴム等
 10
3.675
 20
-70.075
 11
-2.925
 21
-63.55
  0
LINE
  8
ゴム等
 10
3.675
 20
-71.95
 11
-3.225
 21
-65.05
  0
LINE
  8
ゴム等
 10
2.55
 20
-72.775
 11
-3.375
 21
-66.85
  0
LINE
  8
ゴム等
 10
0.675
 20
-72.775
 11
-3.15
 21
-68.95
  0
LINE
  8
ゴム等
 10
-1.275
 20
-72.775
 11
-2.4
 21
-71.575
  0
ENDBLK
  0
BLOCK
  2
*HAT_0005
 70
    65
 10
0.0
 20
0.0
  0
LINE
  8
別途部材
  6
DOT
 10
125.325
 20
-77.8
 11
125.1
 21
-78.025
  0
LINE
  8
別途部材
  6
DOT
 10
125.325
 20
-75.325
 11
122.55
 21
-78.025
  0
LINE
  8
別途部材
  6
DOT
 10
125.325
 20
-72.775
 11
120.0
 21
-78.025
  0
LINE
  8
別途部材
  6
DOT
 10
125.325
 20
-70.225
 11
117.45
 21
-78.025
  0
LINE
  8
別途部材
  6
DOT
 10
124.95
 20
-68.05
 11
115.275
 21
-77.65
  0
LINE
  8
別途部材
  6
DOT
 10
122.4
 20
-68.05
 11
115.275
 21
-75.1
  0
LINE
  8
別途部材
  6
DOT
 10
119.85
 20
-68.05
 11
115.275
 21
-72.625
  0
LINE
  8
別途部材
  6
DOT
 10
117.3
 20
-68.05
 11
115.275
 21
-70.075
  0
ENDBLK
  0
BLOCK
  2
*HAT_0006
 70
    65
 10
0.0
 20
0.0
  0
LINE
  8
ﾊｯﾁﾝｸﾞ
 10
-102.75
 20
21.85
 11
-104.4
 21
23.5
  0
LINE
  8
ﾊｯﾁﾝｸﾞ
 10
-102.75
 20
19.0
 11
-107.25
 21
23.5
  0
LINE
  8
ﾊｯﾁﾝｸﾞ
 10
-102.75
 20
16.15
 11
-110.1
 21
23.5
  0
LINE
  8
ﾊｯﾁﾝｸﾞ
 10
-104.925
 20
15.55
 11
-112.875
 21
23.5
  0
LINE
  8
ﾊｯﾁﾝｸﾞ
 10
-107.7
 20
15.55
 11
-113.55
 21
21.325
  0
LINE
  8
ﾊｯﾁﾝｸﾞ
 10
-110.55
 20
15.55
 11
-113.55
 21
18.475
  0
LINE
  8
ﾊｯﾁﾝｸﾞ
 10
-113.325
 20
15.55
 11
-113.55
 21
15.7
  0
LINE
  8
ﾊｯﾁﾝｸﾞ
 10
-102.75
 20
15.475
 11
-102.75
 21
15.55
  0
LINE
  8
ﾊｯﾁﾝｸﾞ
 10
-105.6
 20
15.475
 11
-102.75
 21
18.325
  0
LINE
  8
ﾊｯﾁﾝｸﾞ
 10
-108.45
 20
15.475
 11
-102.75
 21
21.175
  0
LINE
  8
ﾊｯﾁﾝｸﾞ
 10
-111.225
 20
15.475
 11
-103.275
 21
23.5
  0
LINE
  8
ﾊｯﾁﾝｸﾞ
 10
-113.55
 20
16.0
 11
-106.05
 21
23.5
  0
LINE
  8
ﾊｯﾁﾝｸﾞ
 10
-113.55
 20
18.85
 11
-108.9
 21
23.5
  0
LINE
  8
ﾊｯﾁﾝｸﾞ
 10
-113.55
 20
21.7
 11
-111.675
 21
23.5
  0
ENDBLK
  0
BLOCK
  2
*GRP_0001
 70
    65
 10
0.0
 20
0.0
  0
LINE
  8
型材断面
  6
CONTINUOUS
 10
195.0
 20
133.5
 11
195.0
 21
-133.5
  0
LINE
  8
型材断面
  6
CONTINUOUS
 10
195.0
 20
-133.5
 11
-185.0
 21
-133.5
  0
LINE
  8
型材断面
  6
CONTINUOUS
 10
-185.0
 20
-133.5
 11
-185.0
 21
133.5
  0
LINE
  8
型材断面
  6
CONTINUOUS
 10
195.0
 20
133.5
 11
-185.0
 21
133.5
  0
LINE
  8
型材断面
  6
CONTINUOUS
 10
145.0
 20
-133.5
 11
145.0
 21
-118.5
  0
LINE
  8
型材断面
  6
CONTINUOUS
 10
195.0
 20
-118.5
 11
145.0
 21
-118.5
  0
ENDBLK
  0
BLOCK
  2
*GRP_0002
 70
    65
 10
0.0
 20
0.0
  0
LINE
  8
通り芯
  6
CONTINUOUS
 10
-72.529455
 20
-16.371692
 11
-62.429415
 21
-16.371692
  0
LINE
  8
通り芯
  6
CONTINUOUS
 10
-72.529455
 20
1.523907
 11
-74.829457
 21
1.523907
  0
LINE
  8
通り芯
  6
CONTINUOUS
 10
-90.02946
 20
-3.476095
 11
-88.52946
 21
-3.476095
  0
LINE
  8
通り芯
  6
CONTINUOUS
 10
-88.52946
 20
-5.676092
 11
-88.52946
 21
-3.476095
  0
LINE
  8
通り芯
  6
CONTINUOUS
 10
-72.529455
 20
1.523907
 11
-72.529455
 21
-5.676092
  0
LINE
  8
通り芯
  6
CONTINUOUS
 10
-90.02946
 20
-3.476095
 11
-90.02946
 21
-5.676092
  0
LINE
  8
通り芯
  6
CONTINUOUS
 10
-72.529455
 20
-5.676092
 11
-88.52946
 21
-5.676092
  0
LINE
  8
通り芯
  6
CONTINUOUS
 10
-90.02946
 20
-5.676092
 11
-92.329478
 21
-5.676092
  0
LINE
  8
通り芯
  6
CONTINUOUS
 10
-92.329478
 20
-7.176092
 11
-92.329478
 21
-5.676092
  0
LINE
  8
通り芯
  6
CONTINUOUS
 10
-72.529455
 20
-16.371692
 11
-72.529455
 21
-7.176092
  0
LINE
  8
通り芯
  6
CONTINUOUS
 10
-70.529415
 20
-14.871692
 11
-70.529483
 21
23.323903
  0
LINE
  8
通り芯
  6
CONTINUOUS
 10
-72.52944
 20
3.023907
 11
-72.529493
 21
22.123895
  0
LINE
  8
通り芯
  6
CONTINUOUS
 10
-70.529483
 20
23.323903
 11
-74.529495
 21
23.323887
  0
LINE
  8
通り芯
  6
CONTINUOUS
 10
-74.529495
 20
23.323887
 11
-74.529495
 21
22.123895
  0
LINE
  8
通り芯
  6
CONTINUOUS
 10
-72.529493
 20
22.123895
 11
-74.529495
 21
22.123895
  0
LINE
  8
通り芯
  6
CONTINUOUS
 10
-72.529455
 20
3.023907
 11
-76.329457
 21
3.023907
  0
LINE
  8
通り芯
  6
CONTINUOUS
 10
-76.329457
 20
3.023907
 11
-76.329457
 21
-0.97609
  0
LINE
  8
通り芯
  6
CONTINUOUS
 10
-76.329457
 20
-0.97609
 11
-74.829457
 21
-0.97609
  0
LINE
  8
通り芯
  6
CONTINUOUS
 10
-74.829457
 20
1.523907
 11
-74.829457
 21
-0.97609
  0
LINE
  8
通り芯
  6
CONTINUOUS
 10
-65.429415
 20
-15.171692
 11
-65.729415
 21
-14.871692
  0
LINE
  8
通り芯
  6
CONTINUOUS
 10
-65.429415
 20
-15.171692
 11
-65.129415
 21
-14.871692
  0
LINE
  8
通り芯
  6
CONTINUOUS
 10
-67.729417
 20
-14.871692
 11
-67.729417
 21
-13.671692
  0
LINE
  8
通り芯
  6
CONTINUOUS
 10
-63.129413
 20
-13.671692
 11
-62.429415
 21
-13.671692
  0
LINE
  8
通り芯
  6
CONTINUOUS
 10
-65.129415
 20
-14.871692
 11
-63.129413
 21
-14.871692
  0
LINE
  8
通り芯
  6
CONTINUOUS
 10
-63.129413
 20
-13.671692
 11
-63.129413
 21
-14.871692
  0
LINE
  8
通り芯
  6
CONTINUOUS
 10
-67.729417
 20
-14.871692
 11
-65.729415
 21
-14.871692
  0
LINE
  8
通り芯
  6
CONTINUOUS
 10
-67.729417
 20
-13.671692
 11
-68.429415
 21
-13.671692
  0
LINE
  8
通り芯
  6
CONTINUOUS
 10
-68.429415
 20
-13.671692
 11
-68.429415
 21
-14.871692
  0
LINE
  8
通り芯
  6
CONTINUOUS
 10
-70.529415
 20
-14.871692
 11
-68.429415
 21
-14.871692
  0
LINE
  8
通り芯
  6
CONTINUOUS
 10
-62.429415
 20
-16.371692
 11
-62.429415
 21
-13.671692
  0
LINE
  8
通り芯
  6
CONTINUOUS
 10
-85.32948
 20
-10.476092
 11
-85.32948
 21
-7.176092
  0
LINE
  8
通り芯
  6
CONTINUOUS
 10
-72.529455
 20
-7.176092
 11
-85.32948
 21
-7.176092
  0
LINE
  8
通り芯
  6
CONTINUOUS
 10
-86.82948
 20
-8.976092
 11
-86.82948
 21
-7.176092
  0
LINE
  8
通り芯
  6
CONTINUOUS
 10
-92.329478
 20
-7.176092
 11
-86.82948
 21
-7.176092
  0
LINE
  8
通り芯
  6
CONTINUOUS
 10
-85.32948
 20
-10.476092
 11
-89.82948
 21
-10.476092
  0
LINE
  8
通り芯
  6
CONTINUOUS
 10
-89.82948
 20
-10.476092
 11
-89.82948
 21
-8.976092
  0
LINE
  8
通り芯
  6
CONTINUOUS
 10
-86.82948
 20
-8.976092
 11
-89.82948
 21
-8.976092
  0
ENDBLK
  0
BLOCK
  2
*GRP_0003
 70
    65
 10
0.0
 20
0.0
  0
LINE
  8
通り芯
  6
CONTINUOUS
 10
-39.5682
 20
-68.072877
 11
-38.021332
 21
-66.805123
  0
LINE
  8
通り芯
  6
CONTINUOUS
 10
-41.78677
 20
-65.365865
 11
-40.2399
 21
-64.09811
  0
LINE
  8
通り芯
  6
CONTINUOUS
 10
-41.40005
 20
-65.048925
 11
-39.181483
 21
-67.755937
  0
LINE
  8
通り芯
  6
CONTINUOUS
 10
-41.013332
 20
-64.731985
 11
-38.794762
 21
-67.438997
  0
LINE
  8
通り芯
  6
CONTINUOUS
 10
-40.62662
 20
-64.41505
 11
-38.40805
 21
-67.122062
  0
INSERT
  2
*GRP_0083
  8
通り芯
  6
CONTINUOUS
 10
0.0
 20
0.0
  0
LINE
  8
型材断面
  6
CONTINUOUS
 10
-42.560205
 20
-65.999748
 11
-40.341633
 21
-68.706765
  0
LINE
  8
型材断面
  6
CONTINUOUS
 10
-42.173488
 20
-65.682805
 11
-39.954915
 21
-68.389825
  0
LINE
  8
型材断面
  6
CONTINUOUS
 10
-41.78677
 20
-65.365865
 11
-42.946928
 21
-66.316687
  0
LINE
  8
型材断面
  6
CONTINUOUS
 10
-39.568195
 20
-68.072885
 11
-40.728352
 21
-69.023708
  0
LINE
  8
型材断面
  6
CONTINUOUS
 10
-36.47863
 20
-63.278145
 11
-44.53727
 21
-69.88271
  0
ENDBLK
  0
BLOCK
  2
*GRP_0004
 70
    65
 10
0.0
 20
0.0
  0
LINE
  8
通り芯
  6
CONTINUOUS
 10
-58.22127
 20
-45.31311
 11
-56.674402
 21
-44.045355
  0
LINE
  8
通り芯
  6
CONTINUOUS
 10
-60.43984
 20
-42.606098
 11
-58.89297
 21
-41.338342
  0
LINE
  8
通り芯
  6
CONTINUOUS
 10
-60.05312
 20
-42.289157
 11
-57.834552
 21
-44.99617
  0
LINE
  8
通り芯
  6
CONTINUOUS
 10
-59.666403
 20
-41.972217
 11
-57.447833
 21
-44.67923
  0
LINE
  8
通り芯
  6
CONTINUOUS
 10
-59.27969
 20
-41.655282
 11
-57.06112
 21
-44.362295
  0
INSERT
  2
*GRP_0084
  8
通り芯
  6
CONTINUOUS
 10
0.0
 20
0.0
  0
LINE
  8
型材断面
  6
CONTINUOUS
 10
-61.213275
 20
-43.23998
 11
-58.994703
 21
-45.946997
  0
LINE
  8
型材断面
  6
CONTINUOUS
 10
-60.826558
 20
-42.923038
 11
-58.607985
 21
-45.630058
  0
LINE
  8
型材断面
  6
CONTINUOUS
 10
-60.43984
 20
-42.606098
 11
-61.599997
 21
-43.55692
  0
LINE
  8
型材断面
  6
CONTINUOUS
 10
-58.221265
 20
-45.313118
 11
-59.381423
 21
-46.26394
  0
LINE
  8
型材断面
  6
CONTINUOUS
 10
-55.1317
 20
-40.518378
 11
-63.19034
 21
-47.122943
  0
ENDBLK
  0
BLOCK
  2
*GRP_0005
 70
    65
 10
0.0
 20
0.0
  0
LINE
  8
通り芯
  6
CONTINUOUS
 10
-17.4827
 20
-77.771685
 11
-17.4827
 21
-75.771683
  0
LINE
  8
通り芯
  6
CONTINUOUS
 10
-20.982695
 20
-77.771685
 11
-20.982695
 21
-75.771683
  0
LINE
  8
通り芯
  6
CONTINUOUS
 10
-20.982695
 20
-77.271683
 11
-17.4827
 21
-77.271683
  0
LINE
  8
通り芯
  6
CONTINUOUS
 10
-20.982695
 20
-76.77168
 11
-17.4827
 21
-76.77168
  0
LINE
  8
通り芯
  6
CONTINUOUS
 10
-20.982695
 20
-76.271685
 11
-17.4827
 21
-76.271685
  0
INSERT
  2
*GRP_0085
  8
通り芯
  6
CONTINUOUS
 10
0.0
 20
0.0
  0
LINE
  8
型材断面
  6
CONTINUOUS
 10
-20.982695
 20
-78.77169
 11
-17.482693
 21
-78.77169
  0
LINE
  8
型材断面
  6
CONTINUOUS
 10
-20.982695
 20
-78.271688
 11
-17.482693
 21
-78.271688
  0
LINE
  8
型材断面
  6
CONTINUOUS
 10
-20.982695
 20
-77.771685
 11
-20.982695
 21
-79.271695
  0
LINE
  8
型材断面
  6
CONTINUOUS
 10
-17.482693
 20
-77.771685
 11
-17.482693
 21
-79.271695
  0
LINE
  8
型材断面
  6
CONTINUOUS
 10
-19.232697
 20
-72.342832
 11
-19.232697
 21
-82.76214
  0
ENDBLK
  0
BLOCK
  2
*GRP_0006
 70
    65
 10
0.0
 20
0.0
  0
LINE
  8
通り芯
  6
CONTINUOUS
 10
10.971697
 20
-77.771695
 11
10.971697
 21
-75.771692
  0
LINE
  8
通り芯
  6
CONTINUOUS
 10
10.971697
 20
-75.771692
 11
123.271688
 21
-75.771692
  0
LINE
  8
通り芯
  6
CONTINUOUS
 10
10.971697
 20
-77.771695
 11
123.271688
 21
-77.771695
  0
ARC
  8
通り芯
  6
CONTINUOUS
 10
123.271694
 20
-75.771694
 40
2.0
 50
-90.0
 51
0.0
  0
INSERT
  2
*GRP_0086
  8
通り芯
  6
DOT
 10
0.0
 20
0.0
  0
INSERT
  2
*GRP_0087
  8
通り芯
  6
DOT
 10
0.0
 20
0.0
  0
LINE
  8
通り芯
  6
CONTINUOUS
 10
125.27169
 20
-75.771692
 11
125.27169
 21
-48.271702
  0
LINE
  8
通り芯
  6
CONTINUOUS
 10
123.271688
 20
-75.771692
 11
123.271688
 21
-48.271702
  0
LINE
  8
通り芯
  6
CONTINUOUS
 10
125.27169
 20
-48.271702
 11
123.271688
 21
-48.271702
  0
ENDBLK
  0
BLOCK
  2
*GRP_0007
 70
    65
 10
0.0
 20
0.0
  0
ARC
  8
型材断面
  6
CONTINUOUS
 62
    47
 10
-74.529503
 20
16.823883
 40
1.0
 50
89.999795
 51
269.999795
  0
ARC
  8
型材断面
  6
CONTINUOUS
 62
    47
 10
-73.52951
 20
14.823879
 40
1.0
 50
359.999795
 51
449.999795
  0
ARC
  8
型材断面
  6
CONTINUOUS
 62
    47
 10
-73.529495
 20
18.823879
 40
1.0
 50
269.999795
 51
359.999795
  0
LINE
  8
型材断面
  6
CONTINUOUS
 62
    47
 10
-77.029515
 20
11.823898
 11
-77.029478
 21
21.823895
  0
LINE
  8
型材断面
  6
CONTINUOUS
 62
    47
 10
-73.52949
 20
17.823883
 11
-74.529495
 21
17.823883
  0
LINE
  8
型材断面
  6
CONTINUOUS
 62
    47
 10
-73.529497
 20
15.82388
 11
-74.529495
 21
15.823887
  0
LINE
  8
型材断面
  6
CONTINUOUS
 62
    47
 10
-75.529515
 20
10.323883
 11
-75.5295
 21
14.323887
  0
LINE
  8
型材断面
  6
CONTINUOUS
 62
    47
 10
-75.529485
 20
19.323883
 11
-75.52947
 21
23.323887
  0
LINE
  8
型材断面
  6
CONTINUOUS
 62
    47
 10
-75.5295
 20
14.323887
 11
-74.0295
 21
14.32388
  0
LINE
  8
型材断面
  6
CONTINUOUS
 62
    47
 10
-74.029507
 20
12.82388
 11
-74.0295
 21
14.32388
  0
LINE
  8
型材断面
  6
CONTINUOUS
 62
    47
 10
-74.029478
 20
20.823883
 11
-74.029485
 21
19.323883
  0
LINE
  8
型材断面
  6
CONTINUOUS
 62
    47
 10
-75.529485
 20
19.323883
 11
-74.029485
 21
19.323883
  0
LINE
  8
型材断面
  6
CONTINUOUS
 62
    47
 10
-75.52947
 20
23.323887
 11
-82.029472
 21
23.32391
  0
LINE
  8
型材断面
  6
CONTINUOUS
 62
    47
 10
-80.529487
 20
19.323905
 11
-80.52948
 21
21.823903
  0
LINE
  8
型材断面
  6
CONTINUOUS
 62
    47
 10
-80.529503
 20
14.323903
 11
-80.52951
 21
11.823905
  0
LINE
  8
型材断面
  6
CONTINUOUS
 62
    47
 10
-82.029518
 20
10.323913
 11
-82.02951
 21
13.72391
  0
LINE
  8
型材断面
  6
CONTINUOUS
 62
    47
 10
-81.429503
 20
14.32391
 11
-80.529503
 21
14.323903
  0
LINE
  8
型材断面
  6
CONTINUOUS
 62
    47
 10
-82.02951
 20
13.72391
 11
-81.429503
 21
14.32391
  0
LINE
  8
型材断面
  6
CONTINUOUS
 62
    47
 10
-81.429487
 20
19.323913
 11
-80.529487
 21
19.323905
  0
LINE
  8
型材断面
  6
CONTINUOUS
 62
    47
 10
-82.02948
 20
19.923913
 11
-82.029472
 21
23.32391
  0
LINE
  8
型材断面
  6
CONTINUOUS
 62
    47
 10
-81.429487
 20
19.323913
 11
-82.02948
 21
19.923913
  0
LINE
  8
型材断面
  6
CONTINUOUS
 62
    47
 10
-77.029478
 20
21.823895
 11
-80.52948
 21
21.823903
  0
LINE
  8
型材断面
  6
CONTINUOUS
 62
    47
 10
-77.029515
 20
11.823898
 11
-80.52951
 21
11.823905
  0
LINE
  8
型材断面
  6
CONTINUOUS
 62
    47
 10
-75.529515
 20
10.323883
 11
-82.029518
 21
10.323913
  0
LINE
  8
型材断面
  6
CONTINUOUS
 62
    47
 10
-73.02948
 20
20.823883
 11
-74.029478
 21
20.823883
  0
LINE
  8
型材断面
  6
CONTINUOUS
 62
    47
 10
-72.529485
 20
18.823872
 11
-72.529485
 21
20.323872
  0
LINE
  8
型材断面
  6
CONTINUOUS
 62
    47
 10
-73.02948
 20
20.823883
 11
-72.529485
 21
20.323872
  0
LINE
  8
型材断面
  6
CONTINUOUS
 62
    47
 10
-73.02951
 20
12.82388
 11
-74.029507
 21
12.82388
  0
LINE
  8
型材断面
  6
CONTINUOUS
 62
    47
 10
-72.529507
 20
13.323875
 11
-72.5295
 21
14.823875
  0
LINE
  8
型材断面
  6
CONTINUOUS
 62
    47
 10
-73.02951
 20
12.82388
 11
-72.529507
 21
13.323875
  0
ENDBLK
  0
BLOCK
  2
*GRP_0008
 70
    65
 10
0.0
 20
0.0
  0
ARC
  8
型材断面
  6
CONTINUOUS
 62
    47
 10
-5.979473
 20
-12.326021
 40
0.3
 50
180.0
 51
270.0
  0
LINE
  8
型材断面
  6
CONTINUOUS
 62
    47
 10
-5.979472
 20
-12.62602
 11
-4.57947
 21
-12.62602
  0
LINE
  8
型材断面
  6
CONTINUOUS
 62
    47
 10
-4.27947
 20
-12.32602
 11
-4.27947
 21
4.873978
  0
ARC
  8
型材断面
  6
CONTINUOUS
 62
    47
 10
-4.579473
 20
-12.326021
 40
0.3
 50
270.0
 51
360.0
  0
ARC
  8
型材断面
  6
CONTINUOUS
 62
    47
 10
-51.779473
 20
4.873979
 40
1.0
 50
90.0
 51
180.0
  0
ARC
  8
型材断面
  6
CONTINUOUS
 62
    47
 10
-51.079473
 20
-12.326021
 40
0.3
 50
270.0
 51
360.0
  0
LINE
  8
型材断面
  6
CONTINUOUS
 62
    47
 10
-51.07947
 20
-12.62602
 11
-52.479472
 21
-12.62602
  0
LINE
  8
型材断面
  6
CONTINUOUS
 62
    47
 10
-52.779472
 20
-12.32602
 11
-52.779472
 21
4.873978
  0
ARC
  8
型材断面
  6
CONTINUOUS
 62
    47
 10
-52.479473
 20
-12.326021
 40
0.3
 50
180.0
 51
270.0
  0
LINE
  8
型材断面
  6
CONTINUOUS
 62
    47
 10
-6.279472
 20
3.87398
 11
-50.77947
 21
3.87398
  0
LINE
  8
型材断面
  6
CONTINUOUS
 62
    47
 10
-5.279475
 20
5.873975
 11
-51.779475
 21
5.873975
  0
ARC
  8
型材断面
  6
CONTINUOUS
 62
    47
 10
-5.279473
 20
4.873979
 40
1.0
 50
0.0
 51
90.0
  0
LINE
  8
型材断面
  6
CONTINUOUS
 62
    47
 10
-6.279472
 20
-3.126025
 11
-6.279472
 21
3.87398
  0
LINE
  8
型材断面
  6
CONTINUOUS
 62
    47
 10
-6.97947
 20
-3.126025
 11
-6.279472
 21
-3.126025
  0
ARC
  8
型材断面
  6
CONTINUOUS
 62
    47
 10
-6.979473
 20
-3.326021
 40
0.2
 50
90.0
 51
216.085808
  0
LINE
  8
型材断面
  6
CONTINUOUS
 62
    47
 10
-7.141095
 20
-3.443822
 11
-6.279472
 21
-4.626025
  0
LINE
  8
型材断面
  6
CONTINUOUS
 62
    47
 10
-6.279472
 20
-12.32602
 11
-6.279472
 21
-4.626025
  0
ARC
  8
型材断面
  6
CONTINUOUS
 62
    47
 10
-50.079473
 20
-3.326021
 40
0.2
 50
323.914192
 51
450.0
  0
LINE
  8
型材断面
  6
CONTINUOUS
 62
    47
 10
-50.77947
 20
-3.126025
 11
-50.77947
 21
3.87398
  0
LINE
  8
型材断面
  6
CONTINUOUS
 62
    47
 10
-50.079472
 20
-3.126025
 11
-50.77947
 21
-3.126025
  0
LINE
  8
型材断面
  6
CONTINUOUS
 62
    47
 10
-49.917847
 20
-3.443822
 11
-50.77947
 21
-4.626025
  0
LINE
  8
型材断面
  6
CONTINUOUS
 62
    47
 10
-50.77947
 20
-12.32602
 11
-50.77947
 21
-4.626025
  0
ENDBLK
  0
BLOCK
  2
*GRP_0009
 70
    65
 10
0.0
 20
0.0
  0
ARC
  8
型材断面
  6
CONTINUOUS
 62
    47
 10
73.020518
 20
-12.071669
 40
0.3
 50
180.0
 51
270.0
  0
LINE
  8
型材断面
  6
CONTINUOUS
 62
    47
 10
73.020517
 20
-12.371675
 11
74.420517
 21
-12.371675
  0
LINE
  8
型材断面
  6
CONTINUOUS
 62
    47
 10
74.720517
 20
-12.071675
 11
74.720517
 21
5.128325
  0
ARC
  8
型材断面
  6
CONTINUOUS
 62
    47
 10
74.420518
 20
-12.071669
 40
0.3
 50
270.0
 51
360.0
  0
ARC
  8
型材断面
  6
CONTINUOUS
 62
    47
 10
27.220518
 20
5.128331
 40
1.0
 50
90.0
 51
180.0
  0
ARC
  8
型材断面
  6
CONTINUOUS
 62
    47
 10
27.920518
 20
-12.071669
 40
0.3
 50
270.0
 51
360.0
  0
LINE
  8
型材断面
  6
CONTINUOUS
 62
    47
 10
27.920517
 20
-12.371675
 11
26.520517
 21
-12.371675
  0
LINE
  8
型材断面
  6
CONTINUOUS
 62
    47
 10
26.220517
 20
-12.071675
 11
26.220517
 21
5.128325
  0
ARC
  8
型材断面
  6
CONTINUOUS
 62
    47
 10
26.520518
 20
-12.071669
 40
0.3
 50
180.0
 51
270.0
  0
LINE
  8
型材断面
  6
CONTINUOUS
 62
    47
 10
72.720517
 20
4.128325
 11
28.220517
 21
4.128325
  0
LINE
  8
型材断面
  6
CONTINUOUS
 62
    47
 10
73.720517
 20
6.128325
 11
27.220517
 21
6.128325
  0
ARC
  8
型材断面
  6
CONTINUOUS
 62
    47
 10
73.720518
 20
5.128331
 40
1.0
 50
0.0
 51
90.0
  0
LINE
  8
型材断面
  6
CONTINUOUS
 62
    47
 10
72.720517
 20
-2.871675
 11
72.720517
 21
4.128325
  0
LINE
  8
型材断面
  6
CONTINUOUS
 62
    47
 10
72.020517
 20
-2.871675
 11
72.720517
 21
-2.871675
  0
ARC
  8
型材断面
  6
CONTINUOUS
 62
    47
 10
72.020518
 20
-3.071669
 40
0.2
 50
90.0
 51
216.085808
  0
LINE
  8
型材断面
  6
CONTINUOUS
 62
    47
 10
71.858892
 20
-3.189475
 11
72.720517
 21
-4.371675
  0
LINE
  8
型材断面
  6
CONTINUOUS
 62
    47
 10
72.720517
 20
-12.071675
 11
72.720517
 21
-4.371675
  0
ARC
  8
型材断面
  6
CONTINUOUS
 62
    47
 10
28.920518
 20
-3.071669
 40
0.2
 50
323.914192
 51
450.0
  0
LINE
  8
型材断面
  6
CONTINUOUS
 62
    47
 10
28.220517
 20
-2.871675
 11
28.220517
 21
4.128325
  0
LINE
  8
型材断面
  6
CONTINUOUS
 62
    47
 10
28.920517
 20
-2.871675
 11
28.220517
 21
-2.871675
  0
LINE
  8
型材断面
  6
CONTINUOUS
 62
    47
 10
29.082145
 20
-3.189475
 11
28.220517
 21
-4.371675
  0
LINE
  8
型材断面
  6
CONTINUOUS
 62
    47
 10
28.220517
 20
-12.071675
 11
28.220517
 21
-4.371675
  0
ENDBLK
  0
BLOCK
  2
*GRP_0010
 70
    65
 10
0.0
 20
0.0
  0
INSERT
  2
*GRP_0088
  8
型材断面
  6
CONTINUOUS
 10
0.0
 20
0.0
  0
LINE
  8
型材断面
  6
DOT
 10
55.471635
 20
-31.871665
 11
45.47163
 21
-31.871665
  0
LINE
  8
型材断面
  6
DOT
 10
50.471632
 20
-36.871667
 11
50.471632
 21
-26.871663
  0
ENDBLK
  0
BLOCK
  2
*GRP_0011
 70
    65
 10
0.0
 20
0.0
  0
LINE
  8
型材断面
  6
CONTINUOUS
 62
    47
 10
109.97169
 20
-38.271715
 11
109.97169
 21
-36.271713
  0
LINE
  8
型材断面
  6
CONTINUOUS
 62
    47
 10
109.97169
 20
-36.271713
 11
111.47169
 21
-36.271713
  0
LINE
  8
型材断面
  6
CONTINUOUS
 62
    47
 10
113.97024
 20
-41.271715
 11
114.27024
 21
-40.971715
  0
LINE
  8
型材断面
  6
CONTINUOUS
 62
    47
 10
113.97024
 20
-41.271715
 11
114.27024
 21
-41.571715
  0
LINE
  8
型材断面
  6
CONTINUOUS
 62
    47
 10
109.97169
 20
-38.271715
 11
112.77024
 21
-38.831418
  0
LINE
  8
型材断面
  6
CONTINUOUS
 62
    47
 10
111.47169
 20
-36.271713
 11
111.47169
 21
-37.271717
  0
LINE
  8
型材断面
  6
CONTINUOUS
 62
    47
 10
111.47169
 20
-37.271717
 11
114.27024
 21
-37.271717
  0
LINE
  8
型材断面
  6
CONTINUOUS
 62
    47
 10
114.27024
 20
-40.971715
 11
114.27024
 21
-37.271717
  0
LINE
  8
型材断面
  6
CONTINUOUS
 62
    47
 10
4.37169
 20
-63.676563
 11
3.77169
 21
-63.076563
  0
LINE
  8
型材断面
  6
CONTINUOUS
 62
    47
 10
3.77169
 20
-61.371662
 11
3.77169
 21
-63.076563
  0
LINE
  8
型材断面
  6
CONTINUOUS
 62
    47
 10
4.37169
 20
-63.676563
 11
4.97169
 21
-63.676563
  0
LINE
  8
型材断面
  6
CONTINUOUS
 62
    47
 10
4.37169
 20
-68.776562
 11
4.97169
 21
-68.776562
  0
LINE
  8
型材断面
  6
CONTINUOUS
 62
    47
 10
4.37169
 20
-68.776562
 11
3.77169
 21
-69.376563
  0
LINE
  8
型材断面
  6
CONTINUOUS
 62
    47
 10
4.97169
 20
-63.676563
 11
4.97169
 21
-62.571663
  0
LINE
  8
型材断面
  6
CONTINUOUS
 62
    47
 10
4.97169
 20
-62.571663
 11
7.471695
 21
-62.571663
  0
LINE
  8
型材断面
  6
CONTINUOUS
 62
    47
 10
4.97169
 20
-68.776562
 11
4.97169
 21
-69.876565
  0
LINE
  8
型材断面
  6
CONTINUOUS
 62
    47
 10
4.97169
 20
-69.876565
 11
7.471695
 21
-69.876565
  0
LINE
  8
型材断面
  6
CONTINUOUS
 62
    47
 10
7.471695
 20
-62.571663
 11
7.471695
 21
-69.876565
  0
LINE
  8
型材断面
  6
CONTINUOUS
 62
    47
 10
8.971695
 20
-63.371665
 11
8.971695
 21
-71.376565
  0
LINE
  8
型材断面
  6
CONTINUOUS
 62
    47
 10
8.971695
 20
-71.376565
 11
5.27169
 21
-71.376565
  0
LINE
  8
型材断面
  6
CONTINUOUS
 62
    47
 10
3.77169
 20
-69.376563
 11
3.77169
 21
-73.371662
  0
LINE
  8
型材断面
  6
CONTINUOUS
 62
    47
 10
5.27169
 20
-71.376565
 11
5.27169
 21
-72.750363
  0
LINE
  8
型材断面
  6
CONTINUOUS
 62
    47
 10
3.77169
 20
-73.371662
 11
9.671693
 21
-79.271717
  0
LINE
  8
型材断面
  6
CONTINUOUS
 62
    47
 10
17.970195
 20
-61.371662
 11
19.97019
 21
-61.371662
  0
LINE
  8
型材断面
  6
CONTINUOUS
 62
    47
 10
19.97019
 20
-62.871662
 11
19.19994
 21
-62.871662
  0
LINE
  8
型材断面
  6
CONTINUOUS
 62
    47
 10
19.97019
 20
-61.371662
 11
19.97019
 21
-62.871662
  0
LINE
  8
型材断面
  6
CONTINUOUS
 62
    47
 10
12.570195
 20
-66.171662
 11
17.370195
 21
-66.171662
  0
LINE
  8
型材断面
  6
CONTINUOUS
 62
    47
 10
12.070192
 20
-65.671667
 11
12.570195
 21
-66.171662
  0
LINE
  8
型材断面
  6
CONTINUOUS
 62
    47
 10
17.87019
 20
-65.671667
 11
17.370195
 21
-66.171662
  0
LINE
  8
型材断面
  6
CONTINUOUS
 62
    47
 10
12.070192
 20
-65.671667
 11
11.30049
 21
-65.671667
  0
LINE
  8
型材断面
  6
CONTINUOUS
 62
    47
 10
17.970195
 20
-61.371662
 11
17.410193
 21
-64.171667
  0
LINE
  8
型材断面
  6
CONTINUOUS
 62
    47
 10
17.87019
 20
-65.671667
 11
18.639892
 21
-65.671667
  0
LINE
  8
型材断面
  6
CONTINUOUS
 62
    47
 10
19.19994
 20
-62.871662
 11
18.639892
 21
-65.671667
  0
LINE
  8
型材断面
  6
CONTINUOUS
 62
    47
 10
14.970195
 20
-64.471667
 11
14.670195
 21
-64.171667
  0
LINE
  8
型材断面
  6
CONTINUOUS
 62
    47
 10
14.970195
 20
-64.471667
 11
15.270195
 21
-64.171667
  0
LINE
  8
型材断面
  6
CONTINUOUS
 62
    47
 10
12.53019
 20
-64.171667
 11
14.670195
 21
-64.171667
  0
LINE
  8
型材断面
  6
CONTINUOUS
 62
    47
 10
15.270195
 20
-64.171667
 11
17.410193
 21
-64.171667
  0
LINE
  8
型材断面
  6
CONTINUOUS
 62
    47
 10
8.971695
 20
-63.371665
 11
10.840493
 21
-63.371665
  0
LINE
  8
型材断面
  6
CONTINUOUS
 62
    47
 10
11.30049
 20
-65.671667
 11
10.840493
 21
-63.371665
  0
LINE
  8
型材断面
  6
CONTINUOUS
 62
    47
 10
3.77169
 20
-61.371662
 11
11.970195
 21
-61.371662
  0
LINE
  8
型材断面
  6
CONTINUOUS
 62
    47
 10
12.53019
 20
-64.171667
 11
11.970195
 21
-61.371662
  0
LINE
  8
型材断面
  6
CONTINUOUS
 62
    47
 10
5.27169
 20
-72.750363
 11
6.29304
 21
-73.771713
  0
LINE
  8
型材断面
  6
CONTINUOUS
 62
    47
 10
7.792995
 20
-75.271713
 11
10.292993
 21
-77.771717
  0
LINE
  8
型材断面
  6
CONTINUOUS
 62
    47
 10
6.29304
 20
-73.771713
 11
12.47019
 21
-73.771713
  0
LINE
  8
型材断面
  6
CONTINUOUS
 62
    47
 10
12.47019
 20
-73.771713
 11
12.47019
 21
-75.271713
  0
LINE
  8
型材断面
  6
CONTINUOUS
 62
    47
 10
7.792995
 20
-75.271713
 11
12.47019
 21
-75.271713
  0
LINE
  8
型材断面
  6
CONTINUOUS
 62
    47
 10
111.47169
 20
-45.321415
 11
112.77024
 21
-45.321415
  0
LINE
  8
型材断面
  6
CONTINUOUS
 62
    47
 10
112.77024
 20
-43.712013
 11
109.97169
 21
-44.271715
  0
LINE
  8
型材断面
  6
CONTINUOUS
 62
    47
 10
112.77024
 20
-38.831418
 11
112.77024
 21
-43.712013
  0
LINE
  8
型材断面
  6
CONTINUOUS
 62
    47
 10
121.271693
 20
-78.971717
 11
121.571693
 21
-79.271717
  0
LINE
  8
型材断面
  6
CONTINUOUS
 62
    47
 10
126.77169
 20
-79.271717
 11
121.571693
 21
-79.271717
  0
LINE
  8
型材断面
  6
CONTINUOUS
 62
    47
 10
121.271693
 20
-78.971717
 11
120.971693
 21
-79.271717
  0
LINE
  8
型材断面
  6
CONTINUOUS
 62
    47
 10
9.671693
 20
-79.271717
 11
120.971693
 21
-79.271717
  0
LINE
  8
型材断面
  6
CONTINUOUS
 62
    47
 10
10.292993
 20
-77.771717
 11
125.27169
 21
-77.771717
  0
LINE
  8
型材断面
  6
CONTINUOUS
 62
    47
 10
125.27169
 20
-77.771717
 11
125.27169
 21
-47.771717
  0
LINE
  8
型材断面
  6
CONTINUOUS
 62
    47
 10
114.27024
 20
-46.271717
 11
126.77169
 21
-46.271717
  0
LINE
  8
型材断面
  6
CONTINUOUS
 62
    47
 10
136.871693
 20
-52.271717
 11
136.871693
 21
-54.271713
  0
LINE
  8
型材断面
  6
CONTINUOUS
 62
    47
 10
136.871693
 20
-52.271717
 11
126.77169
 21
-52.271717
  0
LINE
  8
型材断面
  6
CONTINUOUS
 62
    47
 10
126.77169
 20
-46.271717
 11
126.77169
 21
-52.271717
  0
LINE
  8
型材断面
  6
CONTINUOUS
 62
    47
 10
136.871693
 20
-54.271713
 11
126.77169
 21
-54.271713
  0
LINE
  8
型材断面
  6
CONTINUOUS
 62
    47
 10
126.77169
 20
-79.271717
 11
126.77169
 21
-54.271713
  0
LINE
  8
型材断面
  6
CONTINUOUS
 62
    47
 10
109.97169
 20
-44.271715
 11
109.97169
 21
-46.271717
  0
LINE
  8
型材断面
  6
CONTINUOUS
 62
    47
 10
109.97169
 20
-46.271717
 11
111.47169
 21
-46.271717
  0
LINE
  8
型材断面
  6
CONTINUOUS
 62
    47
 10
111.47169
 20
-45.321415
 11
111.47169
 21
-46.271717
  0
LINE
  8
型材断面
  6
CONTINUOUS
 62
    47
 10
116.270242
 20
-51.771715
 11
116.270242
 21
-50.271715
  0
LINE
  8
型材断面
  6
CONTINUOUS
 62
    47
 10
116.270242
 20
-51.771715
 11
112.77024
 21
-51.771715
  0
LINE
  8
型材断面
  6
CONTINUOUS
 62
    47
 10
112.77024
 20
-45.321415
 11
112.77024
 21
-51.771715
  0
LINE
  8
型材断面
  6
CONTINUOUS
 62
    47
 10
125.27169
 20
-47.771717
 11
114.27024
 21
-47.771717
  0
LINE
  8
型材断面
  6
CONTINUOUS
 62
    47
 10
114.27024
 20
-41.571715
 11
114.27024
 21
-46.271717
  0
LINE
  8
型材断面
  6
CONTINUOUS
 62
    47
 10
114.27024
 20
-47.771717
 11
114.27024
 21
-50.271715
  0
LINE
  8
型材断面
  6
CONTINUOUS
 62
    47
 10
116.270242
 20
-50.271715
 11
114.27024
 21
-50.271715
  0
ENDBLK
  0
BLOCK
  2
*GRP_0012
 70
    65
 10
0.0
 20
0.0
  0
LINE
  8
型材断面
  6
DOT
 10
125.27169
 20
-77.771717
 11
125.27169
 21
-79.271717
  0
LINE
  8
型材断面
  6
DOT
 10
117.271688
 20
-77.771717
 11
117.271688
 21
-79.271717
  0
LINE
  8
型材断面
  6
DOT
 10
117.271688
 20
-78.896717
 11
125.27169
 21
-78.896717
  0
LINE
  8
型材断面
  6
DOT
 10
117.271688
 20
-78.521717
 11
125.27169
 21
-78.521717
  0
LINE
  8
型材断面
  6
DOT
 10
117.271688
 20
-78.146717
 11
125.27169
 21
-78.146717
  0
ENDBLK
  0
BLOCK
  2
*GRP_0013
 70
    65
 10
0.0
 20
0.0
  0
ARC
  8
型材断面
  6
CONTINUOUS
 62
    47
 10
73.021645
 20
-12.321657
 40
0.3
 50
180.0
 51
270.0
  0
LINE
  8
型材断面
  6
CONTINUOUS
 62
    47
 10
73.021643
 20
-12.621663
 11
74.421645
 21
-12.621663
  0
LINE
  8
型材断面
  6
CONTINUOUS
 62
    47
 10
74.721645
 20
-12.321663
 11
74.721645
 21
4.878342
  0
ARC
  8
型材断面
  6
CONTINUOUS
 62
    47
 10
74.421645
 20
-12.321657
 40
0.3
 50
270.0
 51
360.0
  0
ARC
  8
型材断面
  6
CONTINUOUS
 62
    47
 10
27.221645
 20
4.878343
 40
1.0
 50
90.0
 51
180.0
  0
ARC
  8
型材断面
  6
CONTINUOUS
 62
    47
 10
27.921645
 20
-12.321657
 40
0.3
 50
270.0
 51
360.0
  0
LINE
  8
型材断面
  6
CONTINUOUS
 62
    47
 10
27.921645
 20
-12.621663
 11
26.521643
 21
-12.621663
  0
LINE
  8
型材断面
  6
CONTINUOUS
 62
    47
 10
26.221643
 20
-12.321663
 11
26.221643
 21
4.878342
  0
ARC
  8
型材断面
  6
CONTINUOUS
 62
    47
 10
26.521645
 20
-12.321657
 40
0.3
 50
180.0
 51
270.0
  0
LINE
  8
型材断面
  6
CONTINUOUS
 62
    47
 10
72.721643
 20
3.878338
 11
28.221645
 21
3.878338
  0
LINE
  8
型材断面
  6
CONTINUOUS
 62
    47
 10
73.721647
 20
5.87834
 11
27.221647
 21
5.87834
  0
ARC
  8
型材断面
  6
CONTINUOUS
 62
    47
 10
73.721645
 20
4.878343
 40
1.0
 50
0.0
 51
90.0
  0
LINE
  8
型材断面
  6
CONTINUOUS
 62
    47
 10
72.721643
 20
-3.12166
 11
72.721643
 21
3.878338
  0
LINE
  8
型材断面
  6
CONTINUOUS
 62
    47
 10
72.021645
 20
-3.12166
 11
72.721643
 21
-3.12166
  0
ARC
  8
型材断面
  6
CONTINUOUS
 62
    47
 10
72.021645
 20
-3.321657
 40
0.2
 50
90.0
 51
216.085808
  0
LINE
  8
型材断面
  6
CONTINUOUS
 62
    47
 10
71.86002
 20
-3.439458
 11
72.721643
 21
-4.62166
  0
LINE
  8
型材断面
  6
CONTINUOUS
 62
    47
 10
72.721643
 20
-12.321663
 11
72.721643
 21
-4.62166
  0
ARC
  8
型材断面
  6
CONTINUOUS
 62
    47
 10
28.921645
 20
-3.321657
 40
0.2
 50
323.914192
 51
450.0
  0
LINE
  8
型材断面
  6
CONTINUOUS
 62
    47
 10
28.221645
 20
-3.12166
 11
28.221645
 21
3.878338
  0
LINE
  8
型材断面
  6
CONTINUOUS
 62
    47
 10
28.921643
 20
-3.12166
 11
28.221645
 21
-3.12166
  0
LINE
  8
型材断面
  6
CONTINUOUS
 62
    47
 10
29.083275
 20
-3.439458
 11
28.221645
 21
-4.62166
  0
LINE
  8
型材断面
  6
CONTINUOUS
 62
    47
 10
28.221645
 20
-12.321663
 11
28.221645
 21
-4.62166
  0
ENDBLK
  0
BLOCK
  2
*GRP_0014
 70
    65
 10
0.0
 20
0.0
  0
POLYLINE
  8
ガラス
  6
CONTINUOUS
 66
     1
 70
     4
  0
VERTEX
  8
ガラス
 10
126.975
 20
-82.35
 70
     8
  0
VERTEX
  8
ガラス
 10
126.875
 20
-82.3
 70
     8
  0
VERTEX
  8
ガラス
 10
126.8
 20
-82.275
 70
     8
  0
VERTEX
  8
ガラス
 10
126.7
 20
-82.225
 70
     8
  0
VERTEX
  8
ガラス
 10
126.625
 20
-82.2
 70
     8
  0
VERTEX
  8
ガラス
 10
126.55
 20
-82.15
 70
     8
  0
VERTEX
  8
ガラス
 10
126.45
 20
-82.125
 70
     8
  0
VERTEX
  8
ガラス
 10
126.375
 20
-82.075
 70
     8
  0
VERTEX
  8
ガラス
 10
126.3
 20
-82.05
 70
     8
  0
VERTEX
  8
ガラス
 10
126.2
 20
-82.0
 70
     8
  0
VERTEX
  8
ガラス
 10
126.125
 20
-81.95
 70
     8
  0
VERTEX
  8
ガラス
 10
126.05
 20
-81.925
 70
     8
  0
VERTEX
  8
ガラス
 10
125.975
 20
-81.875
 70
     8
  0
VERTEX
  8
ガラス
 10
125.9
 20
-81.825
 70
     8
  0
VERTEX
  8
ガラス
 10
125.825
 20
-81.775
 70
     8
  0
VERTEX
  8
ガラス
 10
125.775
 20
-81.725
 70
     8
  0
VERTEX
  8
ガラス
 10
125.7
 20
-81.675
 70
     8
  0
VERTEX
  8
ガラス
 10
125.625
 20
-81.625
 70
     8
  0
VERTEX
  8
ガラス
 10
125.575
 20
-81.575
 70
     8
  0
VERTEX
  8
ガラス
 10
125.5
 20
-81.5
 70
     8
  0
VERTEX
  8
ガラス
 10
125.45
 20
-81.45
 70
     8
  0
VERTEX
  8
ガラス
 10
125.4
 20
-81.375
 70
     8
  0
VERTEX
  8
ガラス
 10
125.35
 20
-81.325
 70
     8
  0
VERTEX
  8
ガラス
 10
125.3
 20
-81.25
 70
     8
  0
VERTEX
  8
ガラス
 10
125.275
 20
-81.175
 70
     8
  0
VERTEX
  8
ガラス
 10
125.225
 20
-81.1
 70
     8
  0
VERTEX
  8
ガラス
 10
125.2
 20
-81.025
 70
     8
  0
VERTEX
  8
ガラス
 10
125.15
 20
-80.95
 70
     8
  0
VERTEX
  8
ガラス
 10
125.125
 20
-80.875
 70
     8
  0
VERTEX
  8
ガラス
 10
125.1
 20
-80.775
 70
     8
  0
VERTEX
  8
ガラス
 10
125.05
 20
-80.7
 70
     8
  0
VERTEX
  8
ガラス
 10
125.025
 20
-80.625
 70
     8
  0
VERTEX
  8
ガラス
 10
125.0
 20
-80.525
 70
     8
  0
VERTEX
  8
ガラス
 10
124.975
 20
-80.45
 70
     8
  0
VERTEX
  8
ガラス
 10
124.95
 20
-80.35
 70
     8
  0
VERTEX
  8
ガラス
 10
124.95
 20
-80.275
 70
     8
  0
VERTEX
  8
ガラス
 10
124.925
 20
-80.175
 70
     8
  0
VERTEX
  8
ガラス
 10
124.9
 20
-80.1
 70
     8
  0
VERTEX
  8
ガラス
 10
124.875
 20
-80.0
 70
     8
  0
VERTEX
  8
ガラス
 10
124.85
 20
-79.9
 70
     8
  0
VERTEX
  8
ガラス
 10
124.85
 20
-79.825
 70
     8
  0
SEQEND
  0
POLYLINE
  8
ガラス
  6
CONTINUOUS
 66
     1
 70
     4
  0
VERTEX
  8
ガラス
 10
124.85
 20
-79.825
 70
     8
  0
VERTEX
  8
ガラス
 10
124.9
 20
-79.85
 70
     8
  0
VERTEX
  8
ガラス
 10
124.95
 20
-79.875
 70
     8
  0
VERTEX
  8
ガラス
 10
125.0
 20
-79.9
 70
     8
  0
VERTEX
  8
ガラス
 10
125.075
 20
-79.925
 70
     8
  0
VERTEX
  8
ガラス
 10
125.125
 20
-79.925
 70
     8
  0
VERTEX
  8
ガラス
 10
125.175
 20
-79.95
 70
     8
  0
VERTEX
  8
ガラス
 10
125.225
 20
-79.975
 70
     8
  0
VERTEX
  8
ガラス
 10
125.3
 20
-80.0
 70
     8
  0
VERTEX
  8
ガラス
 10
125.35
 20
-80.025
 70
     8
  0
VERTEX
  8
ガラス
 10
125.4
 20
-80.05
 70
     8
  0
VERTEX
  8
ガラス
 10
125.475
 20
-80.075
 70
     8
  0
VERTEX
  8
ガラス
 10
125.525
 20
-80.1
 70
     8
  0
VERTEX
  8
ガラス
 10
125.575
 20
-80.125
 70
     8
  0
VERTEX
  8
ガラス
 10
125.65
 20
-80.125
 70
     8
  0
VERTEX
  8
ガラス
 10
125.7
 20
-80.15
 70
     8
  0
VERTEX
  8
ガラス
 10
125.75
 20
-80.175
 70
     8
  0
VERTEX
  8
ガラス
 10
125.825
 20
-80.2
 70
     8
  0
VERTEX
  8
ガラス
 10
125.875
 20
-80.2
 70
     8
  0
VERTEX
  8
ガラス
 10
125.925
 20
-80.225
 70
     8
  0
VERTEX
  8
ガラス
 10
126.0
 20
-80.25
 70
     8
  0
VERTEX
  8
ガラス
 10
126.05
 20
-80.25
 70
     8
  0
VERTEX
  8
ガラス
 10
126.1
 20
-80.275
 70
     8
  0
VERTEX
  8
ガラス
 10
126.175
 20
-80.3
 70
     8
  0
VERTEX
  8
ガラス
 10
126.225
 20
-80.3
 70
     8
  0
VERTEX
  8
ガラス
 10
126.275
 20
-80.325
 70
     8
  0
VERTEX
  8
ガラス
 10
126.35
 20
-80.325
 70
     8
  0
VERTEX
  8
ガラス
 10
126.4
 20
-80.35
 70
     8
  0
VERTEX
  8
ガラス
 10
126.475
 20
-80.35
 70
     8
  0
VERTEX
  8
ガラス
 10
126.525
 20
-80.35
 70
     8
  0
VERTEX
  8
ガラス
 10
126.575
 20
-80.375
 70
     8
  0
VERTEX
  8
ガラス
 10
126.65
 20
-80.375
 70
     8
  0
VERTEX
  8
ガラス
 10
126.7
 20
-80.375
 70
     8
  0
VERTEX
  8
ガラス
 10
126.775
 20
-80.4
 70
     8
  0
VERTEX
  8
ガラス
 10
126.825
 20
-80.4
 70
     8
  0
VERTEX
  8
ガラス
 10
126.9
 20
-80.4
 70
     8
  0
VERTEX
  8
ガラス
 10
126.95
 20
-80.425
 70
     8
  0
VERTEX
  8
ガラス
 10
127.025
 20
-80.425
 70
     8
  0
VERTEX
  8
ガラス
 10
127.075
 20
-80.425
 70
     8
  0
VERTEX
  8
ガラス
 10
127.125
 20
-80.45
 70
     8
  0
VERTEX
  8
ガラス
 10
127.2
 20
-80.45
 70
     8
  0
SEQEND
  0
ARC
  8
ガラス
  6
CONTINUOUS
 10
127.095171
 20
-81.381936
 40
0.955135
 50
263.117442
 51
443.117442
  0
ENDBLK
  0
BLOCK
  2
*GRP_0015
 70
    65
 10
0.0
 20
0.0
  0
POLYLINE
  8
ガラス
  6
CONTINUOUS
 66
     1
 70
     4
  0
VERTEX
  8
ガラス
 10
122.575
 20
-69.4
 70
     8
  0
VERTEX
  8
ガラス
 10
122.55
 20
-69.325
 70
     8
  0
VERTEX
  8
ガラス
 10
122.55
 20
-69.225
 70
     8
  0
VERTEX
  8
ガラス
 10
122.525
 20
-69.125
 70
     8
  0
VERTEX
  8
ガラス
 10
122.525
 20
-69.05
 70
     8
  0
VERTEX
  8
ガラス
 10
122.525
 20
-68.95
 70
     8
  0
VERTEX
  8
ガラス
 10
122.5
 20
-68.85
 70
     8
  0
VERTEX
  8
ガラス
 10
122.5
 20
-68.775
 70
     8
  0
VERTEX
  8
ガラス
 10
122.5
 20
-68.675
 70
     8
  0
VERTEX
  8
ガラス
 10
122.5
 20
-68.575
 70
     8
  0
VERTEX
  8
ガラス
 10
122.5
 20
-68.5
 70
     8
  0
VERTEX
  8
ガラス
 10
122.5
 20
-68.4
 70
     8
  0
VERTEX
  8
ガラス
 10
122.5
 20
-68.325
 70
     8
  0
VERTEX
  8
ガラス
 10
122.5
 20
-68.225
 70
     8
  0
VERTEX
  8
ガラス
 10
122.5
 20
-68.15
 70
     8
  0
VERTEX
  8
ガラス
 10
122.525
 20
-68.05
 70
     8
  0
VERTEX
  8
ガラス
 10
122.525
 20
-67.975
 70
     8
  0
VERTEX
  8
ガラス
 10
122.55
 20
-67.9
 70
     8
  0
VERTEX
  8
ガラス
 10
122.55
 20
-67.825
 70
     8
  0
VERTEX
  8
ガラス
 10
122.575
 20
-67.725
 70
     8
  0
VERTEX
  8
ガラス
 10
122.6
 20
-67.65
 70
     8
  0
VERTEX
  8
ガラス
 10
122.65
 20
-67.575
 70
     8
  0
VERTEX
  8
ガラス
 10
122.675
 20
-67.5
 70
     8
  0
VERTEX
  8
ガラス
 10
122.7
 20
-67.425
 70
     8
  0
VERTEX
  8
ガラス
 10
122.75
 20
-67.35
 70
     8
  0
VERTEX
  8
ガラス
 10
122.8
 20
-67.275
 70
     8
  0
VERTEX
  8
ガラス
 10
122.85
 20
-67.225
 70
     8
  0
VERTEX
  8
ガラス
 10
122.9
 20
-67.15
 70
     8
  0
VERTEX
  8
ガラス
 10
122.95
 20
-67.075
 70
     8
  0
VERTEX
  8
ガラス
 10
123.0
 20
-67.0
 70
     8
  0
VERTEX
  8
ガラス
 10
123.075
 20
-66.95
 70
     8
  0
VERTEX
  8
ガラス
 10
123.125
 20
-66.875
 70
     8
  0
VERTEX
  8
ガラス
 10
123.2
 20
-66.825
 70
     8
  0
VERTEX
  8
ガラス
 10
123.25
 20
-66.75
 70
     8
  0
VERTEX
  8
ガラス
 10
123.325
 20
-66.7
 70
     8
  0
VERTEX
  8
ガラス
 10
123.375
 20
-66.625
 70
     8
  0
VERTEX
  8
ガラス
 10
123.45
 20
-66.575
 70
     8
  0
VERTEX
  8
ガラス
 10
123.525
 20
-66.5
 70
     8
  0
VERTEX
  8
ガラス
 10
123.6
 20
-66.45
 70
     8
  0
VERTEX
  8
ガラス
 10
123.65
 20
-66.375
 70
     8
  0
VERTEX
  8
ガラス
 10
123.725
 20
-66.325
 70
     8
  0
SEQEND
  0
POLYLINE
  8
ガラス
  6
CONTINUOUS
 66
     1
 70
     4
  0
VERTEX
  8
ガラス
 10
123.725
 20
-66.325
 70
     8
  0
VERTEX
  8
ガラス
 10
123.75
 20
-66.375
 70
     8
  0
VERTEX
  8
ガラス
 10
123.75
 20
-66.45
 70
     8
  0
VERTEX
  8
ガラス
 10
123.75
 20
-66.5
 70
     8
  0
VERTEX
  8
ガラス
 10
123.75
 20
-66.575
 70
     8
  0
VERTEX
  8
ガラス
 10
123.775
 20
-66.625
 70
     8
  0
VERTEX
  8
ガラス
 10
123.775
 20
-66.7
 70
     8
  0
VERTEX
  8
ガラス
 10
123.775
 20
-66.75
 70
     8
  0
VERTEX
  8
ガラス
 10
123.8
 20
-66.8
 70
     8
  0
VERTEX
  8
ガラス
 10
123.8
 20
-66.875
 70
     8
  0
VERTEX
  8
ガラス
 10
123.8
 20
-66.925
 70
     8
  0
VERTEX
  8
ガラス
 10
123.825
 20
-67.0
 70
     8
  0
VERTEX
  8
ガラス
 10
123.825
 20
-67.05
 70
     8
  0
VERTEX
  8
ガラス
 10
123.825
 20
-67.125
 70
     8
  0
VERTEX
  8
ガラス
 10
123.85
 20
-67.175
 70
     8
  0
VERTEX
  8
ガラス
 10
123.85
 20
-67.225
 70
     8
  0
VERTEX
  8
ガラス
 10
123.875
 20
-67.3
 70
     8
  0
VERTEX
  8
ガラス
 10
123.875
 20
-67.35
 70
     8
  0
VERTEX
  8
ガラス
 10
123.9
 20
-67.425
 70
     8
  0
VERTEX
  8
ガラス
 10
123.9
 20
-67.475
 70
     8
  0
VERTEX
  8
ガラス
 10
123.925
 20
-67.525
 70
     8
  0
VERTEX
  8
ガラス
 10
123.925
 20
-67.6
 70
     8
  0
VERTEX
  8
ガラス
 10
123.95
 20
-67.65
 70
     8
  0
VERTEX
  8
ガラス
 10
123.975
 20
-67.7
 70
     8
  0
VERTEX
  8
ガラス
 10
123.975
 20
-67.775
 70
     8
  0
VERTEX
  8
ガラス
 10
124.0
 20
-67.825
 70
     8
  0
VERTEX
  8
ガラス
 10
124.025
 20
-67.875
 70
     8
  0
VERTEX
  8
ガラス
 10
124.05
 20
-67.95
 70
     8
  0
VERTEX
  8
ガラス
 10
124.05
 20
-68.0
 70
     8
  0
VERTEX
  8
ガラス
 10
124.075
 20
-68.05
 70
     8
  0
VERTEX
  8
ガラス
 10
124.1
 20
-68.125
 70
     8
  0
VERTEX
  8
ガラス
 10
124.125
 20
-68.175
 70
     8
  0
VERTEX
  8
ガラス
 10
124.15
 20
-68.225
 70
     8
  0
VERTEX
  8
ガラス
 10
124.175
 20
-68.3
 70
     8
  0
VERTEX
  8
ガラス
 10
124.2
 20
-68.35
 70
     8
  0
VERTEX
  8
ガラス
 10
124.225
 20
-68.4
 70
     8
  0
VERTEX
  8
ガラス
 10
124.225
 20
-68.45
 70
     8
  0
VERTEX
  8
ガラス
 10
124.25
 20
-68.525
 70
     8
  0
VERTEX
  8
ガラス
 10
124.275
 20
-68.575
 70
     8
  0
VERTEX
  8
ガラス
 10
124.3
 20
-68.625
 70
     8
  0
VERTEX
  8
ガラス
 10
124.325
 20
-68.7
 70
     8
  0
SEQEND
  0
ARC
  8
ガラス
  6
CONTINUOUS
 10
123.45989
 20
-69.03729
 40
0.955135
 50
202.264587
 51
382.264587
  0
ENDBLK
  0
BLOCK
  2
*GRP_0016
 70
    65
 10
0.0
 20
0.0
  0
POLYLINE
  8
ガラス
  6
CONTINUOUS
 66
     1
 70
     4
  0
VERTEX
  8
ガラス
 10
114.025
 20
-64.6
 70
     8
  0
VERTEX
  8
ガラス
 10
113.95
 20
-64.55
 70
     8
  0
VERTEX
  8
ガラス
 10
113.85
 20
-64.525
 70
     8
  0
VERTEX
  8
ガラス
 10
113.775
 20
-64.475
 70
     8
  0
VERTEX
  8
ガラス
 10
113.675
 20
-64.45
 70
     8
  0
VERTEX
  8
ガラス
 10
113.6
 20
-64.4
 70
     8
  0
VERTEX
  8
ガラス
 10
113.525
 20
-64.375
 70
     8
  0
VERTEX
  8
ガラス
 10
113.425
 20
-64.325
 70
     8
  0
VERTEX
  8
ガラス
 10
113.35
 20
-64.3
 70
     8
  0
VERTEX
  8
ガラス
 10
113.275
 20
-64.25
 70
     8
  0
VERTEX
  8
ガラス
 10
113.2
 20
-64.2
 70
     8
  0
VERTEX
  8
ガラス
 10
113.1
 20
-64.175
 70
     8
  0
VERTEX
  8
ガラス
 10
113.025
 20
-64.125
 70
     8
  0
VERTEX
  8
ガラス
 10
112.975
 20
-64.075
 70
     8
  0
VERTEX
  8
ガラス
 10
112.9
 20
-64.025
 70
     8
  0
VERTEX
  8
ガラス
 10
112.825
 20
-63.975
 70
     8
  0
VERTEX
  8
ガラス
 10
112.75
 20
-63.925
 70
     8
  0
VERTEX
  8
ガラス
 10
112.7
 20
-63.875
 70
     8
  0
VERTEX
  8
ガラス
 10
112.625
 20
-63.825
 70
     8
  0
VERTEX
  8
ガラス
 10
112.575
 20
-63.75
 70
     8
  0
VERTEX
  8
ガラス
 10
112.525
 20
-63.7
 70
     8
  0
VERTEX
  8
ガラス
 10
112.45
 20
-63.625
 70
     8
  0
VERTEX
  8
ガラス
 10
112.425
 20
-63.575
 70
     8
  0
VERTEX
  8
ガラス
 10
112.375
 20
-63.5
 70
     8
  0
VERTEX
  8
ガラス
 10
112.325
 20
-63.425
 70
     8
  0
VERTEX
  8
ガラス
 10
112.275
 20
-63.35
 70
     8
  0
VERTEX
  8
ガラス
 10
112.25
 20
-63.275
 70
     8
  0
VERTEX
  8
ガラス
 10
112.2
 20
-63.2
 70
     8
  0
VERTEX
  8
ガラス
 10
112.175
 20
-63.125
 70
     8
  0
VERTEX
  8
ガラス
 10
112.15
 20
-63.05
 70
     8
  0
VERTEX
  8
ガラス
 10
112.125
 20
-62.95
 70
     8
  0
VERTEX
  8
ガラス
 10
112.1
 20
-62.875
 70
     8
  0
VERTEX
  8
ガラス
 10
112.075
 20
-62.775
 70
     8
  0
VERTEX
  8
ガラス
 10
112.05
 20
-62.7
 70
     8
  0
VERTEX
  8
ガラス
 10
112.025
 20
-62.6
 70
     8
  0
VERTEX
  8
ガラス
 10
112.0
 20
-62.525
 70
     8
  0
VERTEX
  8
ガラス
 10
111.975
 20
-62.425
 70
     8
  0
VERTEX
  8
ガラス
 10
111.95
 20
-62.35
 70
     8
  0
VERTEX
  8
ガラス
 10
111.925
 20
-62.25
 70
     8
  0
VERTEX
  8
ガラス
 10
111.925
 20
-62.15
 70
     8
  0
VERTEX
  8
ガラス
 10
111.9
 20
-62.075
 70
     8
  0
SEQEND
  0
POLYLINE
  8
ガラス
  6
CONTINUOUS
 66
     1
 70
     4
  0
VERTEX
  8
ガラス
 10
111.9
 20
-62.075
 70
     8
  0
VERTEX
  8
ガラス
 10
111.95
 20
-62.1
 70
     8
  0
VERTEX
  8
ガラス
 10
112.0
 20
-62.125
 70
     8
  0
VERTEX
  8
ガラス
 10
112.075
 20
-62.15
 70
     8
  0
VERTEX
  8
ガラス
 10
112.125
 20
-62.175
 70
     8
  0
VERTEX
  8
ガラス
 10
112.175
 20
-62.2
 70
     8
  0
VERTEX
  8
ガラス
 10
112.25
 20
-62.2
 70
     8
  0
VERTEX
  8
ガラス
 10
112.3
 20
-62.225
 70
     8
  0
VERTEX
  8
ガラス
 10
112.35
 20
-62.25
 70
     8
  0
VERTEX
  8
ガラス
 10
112.4
 20
-62.275
 70
     8
  0
VERTEX
  8
ガラス
 10
112.475
 20
-62.3
 70
     8
  0
VERTEX
  8
ガラス
 10
112.525
 20
-62.325
 70
     8
  0
VERTEX
  8
ガラス
 10
112.575
 20
-62.35
 70
     8
  0
VERTEX
  8
ガラス
 10
112.65
 20
-62.375
 70
     8
  0
VERTEX
  8
ガラス
 10
112.7
 20
-62.375
 70
     8
  0
VERTEX
  8
ガラス
 10
112.75
 20
-62.4
 70
     8
  0
VERTEX
  8
ガラス
 10
112.825
 20
-62.425
 70
     8
  0
VERTEX
  8
ガラス
 10
112.875
 20
-62.45
 70
     8
  0
VERTEX
  8
ガラス
 10
112.925
 20
-62.45
 70
     8
  0
VERTEX
  8
ガラス
 10
113.0
 20
-62.475
 70
     8
  0
VERTEX
  8
ガラス
 10
113.05
 20
-62.5
 70
     8
  0
VERTEX
  8
ガラス
 10
113.1
 20
-62.5
 70
     8
  0
VERTEX
  8
ガラス
 10
113.175
 20
-62.525
 70
     8
  0
VERTEX
  8
ガラス
 10
113.225
 20
-62.55
 70
     8
  0
VERTEX
  8
ガラス
 10
113.275
 20
-62.55
 70
     8
  0
VERTEX
  8
ガラス
 10
113.35
 20
-62.575
 70
     8
  0
VERTEX
  8
ガラス
 10
113.4
 20
-62.575
 70
     8
  0
VERTEX
  8
ガラス
 10
113.475
 20
-62.6
 70
     8
  0
VERTEX
  8
ガラス
 10
113.525
 20
-62.6
 70
     8
  0
VERTEX
  8
ガラス
 10
113.575
 20
-62.6
 70
     8
  0
VERTEX
  8
ガラス
 10
113.65
 20
-62.625
 70
     8
  0
VERTEX
  8
ガラス
 10
113.7
 20
-62.625
 70
     8
  0
VERTEX
  8
ガラス
 10
113.775
 20
-62.625
 70
     8
  0
VERTEX
  8
ガラス
 10
113.825
 20
-62.65
 70
     8
  0
VERTEX
  8
ガラス
 10
113.9
 20
-62.65
 70
     8
  0
VERTEX
  8
ガラス
 10
113.95
 20
-62.65
 70
     8
  0
VERTEX
  8
ガラス
 10
114.0
 20
-62.675
 70
     8
  0
VERTEX
  8
ガラス
 10
114.075
 20
-62.675
 70
     8
  0
VERTEX
  8
ガラス
 10
114.125
 20
-62.675
 70
     8
  0
VERTEX
  8
ガラス
 10
114.2
 20
-62.7
 70
     8
  0
VERTEX
  8
ガラス
 10
114.25
 20
-62.7
 70
     8
  0
SEQEND
  0
ARC
  8
ガラス
  6
CONTINUOUS
 10
114.153598
 20
-63.632953
 40
0.955135
 50
263.117442
 51
443.117442
  0
ENDBLK
  0
BLOCK
  2
*GRP_0017
 70
    65
 10
0.0
 20
0.0
  0
POLYLINE
  8
ガラス
  6
CONTINUOUS
 66
     1
 70
     4
  0
VERTEX
  8
ガラス
 10
91.6
 20
-22.5
 70
     8
  0
VERTEX
  8
ガラス
 10
91.6
 20
-22.4
 70
     8
  0
VERTEX
  8
ガラス
 10
91.575
 20
-22.325
 70
     8
  0
VERTEX
  8
ガラス
 10
91.575
 20
-22.225
 70
     8
  0
VERTEX
  8
ガラス
 10
91.575
 20
-22.125
 70
     8
  0
VERTEX
  8
ガラス
 10
91.55
 20
-22.05
 70
     8
  0
VERTEX
  8
ガラス
 10
91.55
 20
-21.95
 70
     8
  0
VERTEX
  8
ガラス
 10
91.55
 20
-21.85
 70
     8
  0
VERTEX
  8
ガラス
 10
91.55
 20
-21.775
 70
     8
  0
VERTEX
  8
ガラス
 10
91.525
 20
-21.675
 70
     8
  0
VERTEX
  8
ガラス
 10
91.525
 20
-21.575
 70
     8
  0
VERTEX
  8
ガラス
 10
91.525
 20
-21.5
 70
     8
  0
VERTEX
  8
ガラス
 10
91.525
 20
-21.4
 70
     8
  0
VERTEX
  8
ガラス
 10
91.55
 20
-21.325
 70
     8
  0
VERTEX
  8
ガラス
 10
91.55
 20
-21.225
 70
     8
  0
VERTEX
  8
ガラス
 10
91.55
 20
-21.15
 70
     8
  0
VERTEX
  8
ガラス
 10
91.575
 20
-21.075
 70
     8
  0
VERTEX
  8
ガラス
 10
91.575
 20
-20.975
 70
     8
  0
VERTEX
  8
ガラス
 10
91.6
 20
-20.9
 70
     8
  0
VERTEX
  8
ガラス
 10
91.625
 20
-20.825
 70
     8
  0
VERTEX
  8
ガラス
 10
91.65
 20
-20.75
 70
     8
  0
VERTEX
  8
ガラス
 10
91.675
 20
-20.675
 70
     8
  0
VERTEX
  8
ガラス
 10
91.725
 20
-20.6
 70
     8
  0
VERTEX
  8
ガラス
 10
91.75
 20
-20.525
 70
     8
  0
VERTEX
  8
ガラス
 10
91.8
 20
-20.45
 70
     8
  0
VERTEX
  8
ガラス
 10
91.85
 20
-20.375
 70
     8
  0
VERTEX
  8
ガラス
 10
91.9
 20
-20.3
 70
     8
  0
VERTEX
  8
ガラス
 10
91.95
 20
-20.225
 70
     8
  0
VERTEX
  8
ガラス
 10
92.0
 20
-20.175
 70
     8
  0
VERTEX
  8
ガラス
 10
92.05
 20
-20.1
 70
     8
  0
VERTEX
  8
ガラス
 10
92.1
 20
-20.025
 70
     8
  0
VERTEX
  8
ガラス
 10
92.175
 20
-19.975
 70
     8
  0
VERTEX
  8
ガラス
 10
92.225
 20
-19.9
 70
     8
  0
VERTEX
  8
ガラス
 10
92.3
 20
-19.85
 70
     8
  0
VERTEX
  8
ガラス
 10
92.35
 20
-19.775
 70
     8
  0
VERTEX
  8
ガラス
 10
92.425
 20
-19.725
 70
     8
  0
VERTEX
  8
ガラス
 10
92.5
 20
-19.65
 70
     8
  0
VERTEX
  8
ガラス
 10
92.575
 20
-19.6
 70
     8
  0
VERTEX
  8
ガラス
 10
92.625
 20
-19.525
 70
     8
  0
VERTEX
  8
ガラス
 10
92.7
 20
-19.475
 70
     8
  0
VERTEX
  8
ガラス
 10
92.775
 20
-19.4
 70
     8
  0
SEQEND
  0
POLYLINE
  8
ガラス
  6
CONTINUOUS
 66
     1
 70
     4
  0
VERTEX
  8
ガラス
 10
92.775
 20
-19.4
 70
     8
  0
VERTEX
  8
ガラス
 10
92.775
 20
-19.475
 70
     8
  0
VERTEX
  8
ガラス
 10
92.8
 20
-19.525
 70
     8
  0
VERTEX
  8
ガラス
 10
92.8
 20
-19.6
 70
     8
  0
VERTEX
  8
ガラス
 10
92.8
 20
-19.65
 70
     8
  0
VERTEX
  8
ガラス
 10
92.8
 20
-19.725
 70
     8
  0
VERTEX
  8
ガラス
 10
92.825
 20
-19.775
 70
     8
  0
VERTEX
  8
ガラス
 10
92.825
 20
-19.85
 70
     8
  0
VERTEX
  8
ガラス
 10
92.825
 20
-19.9
 70
     8
  0
VERTEX
  8
ガラス
 10
92.85
 20
-19.95
 70
     8
  0
VERTEX
  8
ガラス
 10
92.85
 20
-20.025
 70
     8
  0
VERTEX
  8
ガラス
 10
92.85
 20
-20.075
 70
     8
  0
VERTEX
  8
ガラス
 10
92.875
 20
-20.15
 70
     8
  0
VERTEX
  8
ガラス
 10
92.875
 20
-20.2
 70
     8
  0
VERTEX
  8
ガラス
 10
92.875
 20
-20.275
 70
     8
  0
VERTEX
  8
ガラス
 10
92.9
 20
-20.325
 70
     8
  0
VERTEX
  8
ガラス
 10
92.9
 20
-20.375
 70
     8
  0
VERTEX
  8
ガラス
 10
92.925
 20
-20.45
 70
     8
  0
VERTEX
  8
ガラス
 10
92.925
 20
-20.5
 70
     8
  0
VERTEX
  8
ガラス
 10
92.95
 20
-20.575
 70
     8
  0
VERTEX
  8
ガラス
 10
92.95
 20
-20.625
 70
     8
  0
VERTEX
  8
ガラス
 10
92.975
 20
-20.675
 70
     8
  0
VERTEX
  8
ガラス
 10
93.0
 20
-20.75
 70
     8
  0
VERTEX
  8
ガラス
 10
93.0
 20
-20.8
 70
     8
  0
VERTEX
  8
ガラス
 10
93.025
 20
-20.85
 70
     8
  0
VERTEX
  8
ガラス
 10
93.05
 20
-20.925
 70
     8
  0
VERTEX
  8
ガラス
 10
93.075
 20
-20.975
 70
     8
  0
VERTEX
  8
ガラス
 10
93.075
 20
-21.025
 70
     8
  0
VERTEX
  8
ガラス
 10
93.1
 20
-21.1
 70
     8
  0
VERTEX
  8
ガラス
 10
93.125
 20
-21.15
 70
     8
  0
VERTEX
  8
ガラス
 10
93.15
 20
-21.2
 70
     8
  0
VERTEX
  8
ガラス
 10
93.175
 20
-21.275
 70
     8
  0
VERTEX
  8
ガラス
 10
93.2
 20
-21.325
 70
     8
  0
VERTEX
  8
ガラス
 10
93.2
 20
-21.375
 70
     8
  0
VERTEX
  8
ガラス
 10
93.225
 20
-21.425
 70
     8
  0
VERTEX
  8
ガラス
 10
93.25
 20
-21.5
 70
     8
  0
VERTEX
  8
ガラス
 10
93.275
 20
-21.55
 70
     8
  0
VERTEX
  8
ガラス
 10
93.3
 20
-21.6
 70
     8
  0
VERTEX
  8
ガラス
 10
93.325
 20
-21.675
 70
     8
  0
VERTEX
  8
ガラス
 10
93.35
 20
-21.725
 70
     8
  0
VERTEX
  8
ガラス
 10
93.375
 20
-21.775
 70
     8
  0
SEQEND
  0
ARC
  8
ガラス
  6
CONTINUOUS
 10
92.502782
 20
-22.126708
 40
0.955135
 50
202.264587
 51
382.264587
  0
ENDBLK
  0
BLOCK
  2
*GRP_0018
 70
    65
 10
0.0
 20
0.0
  0
POLYLINE
  8
ガラス
  6
CONTINUOUS
 66
     1
 70
     4
  0
VERTEX
  8
ガラス
 10
91.6
 20
-37.35
 70
     8
  0
VERTEX
  8
ガラス
 10
91.6
 20
-37.25
 70
     8
  0
VERTEX
  8
ガラス
 10
91.575
 20
-37.15
 70
     8
  0
VERTEX
  8
ガラス
 10
91.575
 20
-37.075
 70
     8
  0
VERTEX
  8
ガラス
 10
91.575
 20
-36.975
 70
     8
  0
VERTEX
  8
ガラス
 10
91.55
 20
-36.875
 70
     8
  0
VERTEX
  8
ガラス
 10
91.55
 20
-36.775
 70
     8
  0
VERTEX
  8
ガラス
 10
91.55
 20
-36.7
 70
     8
  0
VERTEX
  8
ガラス
 10
91.55
 20
-36.6
 70
     8
  0
VERTEX
  8
ガラス
 10
91.525
 20
-36.525
 70
     8
  0
VERTEX
  8
ガラス
 10
91.525
 20
-36.425
 70
     8
  0
VERTEX
  8
ガラス
 10
91.525
 20
-36.325
 70
     8
  0
VERTEX
  8
ガラス
 10
91.525
 20
-36.25
 70
     8
  0
VERTEX
  8
ガラス
 10
91.55
 20
-36.15
 70
     8
  0
VERTEX
  8
ガラス
 10
91.55
 20
-36.075
 70
     8
  0
VERTEX
  8
ガラス
 10
91.55
 20
-36.0
 70
     8
  0
VERTEX
  8
ガラス
 10
91.575
 20
-35.9
 70
     8
  0
VERTEX
  8
ガラス
 10
91.575
 20
-35.825
 70
     8
  0
VERTEX
  8
ガラス
 10
91.6
 20
-35.75
 70
     8
  0
VERTEX
  8
ガラス
 10
91.625
 20
-35.675
 70
     8
  0
VERTEX
  8
ガラス
 10
91.65
 20
-35.575
 70
     8
  0
VERTEX
  8
ガラス
 10
91.675
 20
-35.5
 70
     8
  0
VERTEX
  8
ガラス
 10
91.725
 20
-35.425
 70
     8
  0
VERTEX
  8
ガラス
 10
91.75
 20
-35.35
 70
     8
  0
VERTEX
  8
ガラス
 10
91.8
 20
-35.275
 70
     8
  0
VERTEX
  8
ガラス
 10
91.85
 20
-35.225
 70
     8
  0
VERTEX
  8
ガラス
 10
91.9
 20
-35.15
 70
     8
  0
VERTEX
  8
ガラス
 10
91.95
 20
-35.075
 70
     8
  0
VERTEX
  8
ガラス
 10
92.0
 20
-35.0
 70
     8
  0
VERTEX
  8
ガラス
 10
92.05
 20
-34.95
 70
     8
  0
VERTEX
  8
ガラス
 10
92.1
 20
-34.875
 70
     8
  0
VERTEX
  8
ガラス
 10
92.175
 20
-34.825
 70
     8
  0
VERTEX
  8
ガラス
 10
92.225
 20
-34.75
 70
     8
  0
VERTEX
  8
ガラス
 10
92.3
 20
-34.675
 70
     8
  0
VERTEX
  8
ガラス
 10
92.35
 20
-34.625
 70
     8
  0
VERTEX
  8
ガラス
 10
92.425
 20
-34.55
 70
     8
  0
VERTEX
  8
ガラス
 10
92.5
 20
-34.5
 70
     8
  0
VERTEX
  8
ガラス
 10
92.575
 20
-34.425
 70
     8
  0
VERTEX
  8
ガラス
 10
92.625
 20
-34.375
 70
     8
  0
VERTEX
  8
ガラス
 10
92.7
 20
-34.325
 70
     8
  0
VERTEX
  8
ガラス
 10
92.775
 20
-34.25
 70
     8
  0
SEQEND
  0
POLYLINE
  8
ガラス
  6
CONTINUOUS
 66
     1
 70
     4
  0
VERTEX
  8
ガラス
 10
92.775
 20
-34.25
 70
     8
  0
VERTEX
  8
ガラス
 10
92.775
 20
-34.325
 70
     8
  0
VERTEX
  8
ガラス
 10
92.8
 20
-34.375
 70
     8
  0
VERTEX
  8
ガラス
 10
92.8
 20
-34.425
 70
     8
  0
VERTEX
  8
ガラス
 10
92.8
 20
-34.5
 70
     8
  0
VERTEX
  8
ガラス
 10
92.8
 20
-34.55
 70
     8
  0
VERTEX
  8
ガラス
 10
92.825
 20
-34.625
 70
     8
  0
VERTEX
  8
ガラス
 10
92.825
 20
-34.675
 70
     8
  0
VERTEX
  8
ガラス
 10
92.825
 20
-34.75
 70
     8
  0
VERTEX
  8
ガラス
 10
92.85
 20
-34.8
 70
     8
  0
VERTEX
  8
ガラス
 10
92.85
 20
-34.875
 70
     8
  0
VERTEX
  8
ガラス
 10
92.85
 20
-34.925
 70
     8
  0
VERTEX
  8
ガラス
 10
92.875
 20
-34.975
 70
     8
  0
VERTEX
  8
ガラス
 10
92.875
 20
-35.05
 70
     8
  0
VERTEX
  8
ガラス
 10
92.875
 20
-35.1
 70
     8
  0
VERTEX
  8
ガラス
 10
92.9
 20
-35.175
 70
     8
  0
VERTEX
  8
ガラス
 10
92.9
 20
-35.225
 70
     8
  0
VERTEX
  8
ガラス
 10
92.925
 20
-35.275
 70
     8
  0
VERTEX
  8
ガラス
 10
92.925
 20
-35.35
 70
     8
  0
VERTEX
  8
ガラス
 10
92.95
 20
-35.4
 70
     8
  0
VERTEX
  8
ガラス
 10
92.95
 20
-35.475
 70
     8
  0
VERTEX
  8
ガラス
 10
92.975
 20
-35.525
 70
     8
  0
VERTEX
  8
ガラス
 10
93.0
 20
-35.575
 70
     8
  0
VERTEX
  8
ガラス
 10
93.0
 20
-35.65
 70
     8
  0
VERTEX
  8
ガラス
 10
93.025
 20
-35.7
 70
     8
  0
VERTEX
  8
ガラス
 10
93.05
 20
-35.75
 70
     8
  0
VERTEX
  8
ガラス
 10
93.075
 20
-35.825
 70
     8
  0
VERTEX
  8
ガラス
 10
93.075
 20
-35.875
 70
     8
  0
VERTEX
  8
ガラス
 10
93.1
 20
-35.925
 70
     8
  0
VERTEX
  8
ガラス
 10
93.125
 20
-36.0
 70
     8
  0
VERTEX
  8
ガラス
 10
93.15
 20
-36.05
 70
     8
  0
VERTEX
  8
ガラス
 10
93.175
 20
-36.1
 70
     8
  0
VERTEX
  8
ガラス
 10
93.2
 20
-36.175
 70
     8
  0
VERTEX
  8
ガラス
 10
93.2
 20
-36.225
 70
     8
  0
VERTEX
  8
ガラス
 10
93.225
 20
-36.275
 70
     8
  0
VERTEX
  8
ガラス
 10
93.25
 20
-36.325
 70
     8
  0
VERTEX
  8
ガラス
 10
93.275
 20
-36.4
 70
     8
  0
VERTEX
  8
ガラス
 10
93.3
 20
-36.45
 70
     8
  0
VERTEX
  8
ガラス
 10
93.325
 20
-36.5
 70
     8
  0
VERTEX
  8
ガラス
 10
93.35
 20
-36.55
 70
     8
  0
VERTEX
  8
ガラス
 10
93.375
 20
-36.625
 70
     8
  0
SEQEND
  0
ARC
  8
ガラス
  6
CONTINUOUS
 10
92.502782
 20
-36.967977
 40
0.955135
 50
202.264587
 51
382.264587
  0
ENDBLK
  0
BLOCK
  2
*GRP_0019
 70
    65
 10
0.0
 20
0.0
  0
POLYLINE
  8
ガラス
  6
CONTINUOUS
 66
     1
 70
     4
  0
VERTEX
  8
ガラス
 10
91.6
 20
-50.725
 70
     8
  0
VERTEX
  8
ガラス
 10
91.6
 20
-50.625
 70
     8
  0
VERTEX
  8
ガラス
 10
91.575
 20
-50.55
 70
     8
  0
VERTEX
  8
ガラス
 10
91.575
 20
-50.45
 70
     8
  0
VERTEX
  8
ガラス
 10
91.575
 20
-50.35
 70
     8
  0
VERTEX
  8
ガラス
 10
91.55
 20
-50.275
 70
     8
  0
VERTEX
  8
ガラス
 10
91.55
 20
-50.175
 70
     8
  0
VERTEX
  8
ガラス
 10
91.55
 20
-50.075
 70
     8
  0
VERTEX
  8
ガラス
 10
91.55
 20
-50.0
 70
     8
  0
VERTEX
  8
ガラス
 10
91.525
 20
-49.9
 70
     8
  0
VERTEX
  8
ガラス
 10
91.525
 20
-49.8
 70
     8
  0
VERTEX
  8
ガラス
 10
91.525
 20
-49.725
 70
     8
  0
VERTEX
  8
ガラス
 10
91.525
 20
-49.625
 70
     8
  0
VERTEX
  8
ガラス
 10
91.55
 20
-49.55
 70
     8
  0
VERTEX
  8
ガラス
 10
91.55
 20
-49.45
 70
     8
  0
VERTEX
  8
ガラス
 10
91.55
 20
-49.375
 70
     8
  0
VERTEX
  8
ガラス
 10
91.575
 20
-49.3
 70
     8
  0
VERTEX
  8
ガラス
 10
91.575
 20
-49.2
 70
     8
  0
VERTEX
  8
ガラス
 10
91.6
 20
-49.125
 70
     8
  0
VERTEX
  8
ガラス
 10
91.625
 20
-49.05
 70
     8
  0
VERTEX
  8
ガラス
 10
91.65
 20
-48.975
 70
     8
  0
VERTEX
  8
ガラス
 10
91.675
 20
-48.9
 70
     8
  0
VERTEX
  8
ガラス
 10
91.725
 20
-48.825
 70
     8
  0
VERTEX
  8
ガラス
 10
91.75
 20
-48.75
 70
     8
  0
VERTEX
  8
ガラス
 10
91.8
 20
-48.675
 70
     8
  0
VERTEX
  8
ガラス
 10
91.85
 20
-48.6
 70
     8
  0
VERTEX
  8
ガラス
 10
91.9
 20
-48.525
 70
     8
  0
VERTEX
  8
ガラス
 10
91.95
 20
-48.475
 70
     8
  0
VERTEX
  8
ガラス
 10
92.0
 20
-48.4
 70
     8
  0
VERTEX
  8
ガラス
 10
92.05
 20
-48.325
 70
     8
  0
VERTEX
  8
ガラス
 10
92.1
 20
-48.275
 70
     8
  0
VERTEX
  8
ガラス
 10
92.175
 20
-48.2
 70
     8
  0
VERTEX
  8
ガラス
 10
92.225
 20
-48.125
 70
     8
  0
VERTEX
  8
ガラス
 10
92.3
 20
-48.075
 70
     8
  0
VERTEX
  8
ガラス
 10
92.35
 20
-48.0
 70
     8
  0
VERTEX
  8
ガラス
 10
92.425
 20
-47.95
 70
     8
  0
VERTEX
  8
ガラス
 10
92.5
 20
-47.875
 70
     8
  0
VERTEX
  8
ガラス
 10
92.575
 20
-47.825
 70
     8
  0
VERTEX
  8
ガラス
 10
92.625
 20
-47.75
 70
     8
  0
VERTEX
  8
ガラス
 10
92.7
 20
-47.7
 70
     8
  0
VERTEX
  8
ガラス
 10
92.775
 20
-47.65
 70
     8
  0
SEQEND
  0
POLYLINE
  8
ガラス
  6
CONTINUOUS
 66
     1
 70
     4
  0
VERTEX
  8
ガラス
 10
92.775
 20
-47.65
 70
     8
  0
VERTEX
  8
ガラス
 10
92.775
 20
-47.7
 70
     8
  0
VERTEX
  8
ガラス
 10
92.8
 20
-47.75
 70
     8
  0
VERTEX
  8
ガラス
 10
92.8
 20
-47.825
 70
     8
  0
VERTEX
  8
ガラス
 10
92.8
 20
-47.875
 70
     8
  0
VERTEX
  8
ガラス
 10
92.8
 20
-47.95
 70
     8
  0
VERTEX
  8
ガラス
 10
92.825
 20
-48.0
 70
     8
  0
VERTEX
  8
ガラス
 10
92.825
 20
-48.075
 70
     8
  0
VERTEX
  8
ガラス
 10
92.825
 20
-48.125
 70
     8
  0
VERTEX
  8
ガラス
 10
92.85
 20
-48.2
 70
     8
  0
VERTEX
  8
ガラス
 10
92.85
 20
-48.25
 70
     8
  0
VERTEX
  8
ガラス
 10
92.85
 20
-48.3
 70
     8
  0
VERTEX
  8
ガラス
 10
92.875
 20
-48.375
 70
     8
  0
VERTEX
  8
ガラス
 10
92.875
 20
-48.425
 70
     8
  0
VERTEX
  8
ガラス
 10
92.875
 20
-48.5
 70
     8
  0
VERTEX
  8
ガラス
 10
92.9
 20
-48.55
 70
     8
  0
VERTEX
  8
ガラス
 10
92.9
 20
-48.625
 70
     8
  0
VERTEX
  8
ガラス
 10
92.925
 20
-48.675
 70
     8
  0
VERTEX
  8
ガラス
 10
92.925
 20
-48.725
 70
     8
  0
VERTEX
  8
ガラス
 10
92.95
 20
-48.8
 70
     8
  0
VERTEX
  8
ガラス
 10
92.95
 20
-48.85
 70
     8
  0
VERTEX
  8
ガラス
 10
92.975
 20
-48.9
 70
     8
  0
VERTEX
  8
ガラス
 10
93.0
 20
-48.975
 70
     8
  0
VERTEX
  8
ガラス
 10
93.0
 20
-49.025
 70
     8
  0
VERTEX
  8
ガラス
 10
93.025
 20
-49.075
 70
     8
  0
VERTEX
  8
ガラス
 10
93.05
 20
-49.15
 70
     8
  0
VERTEX
  8
ガラス
 10
93.075
 20
-49.2
 70
     8
  0
VERTEX
  8
ガラス
 10
93.075
 20
-49.25
 70
     8
  0
VERTEX
  8
ガラス
 10
93.1
 20
-49.325
 70
     8
  0
VERTEX
  8
ガラス
 10
93.125
 20
-49.375
 70
     8
  0
VERTEX
  8
ガラス
 10
93.15
 20
-49.425
 70
     8
  0
VERTEX
  8
ガラス
 10
93.175
 20
-49.5
 70
     8
  0
VERTEX
  8
ガラス
 10
93.2
 20
-49.55
 70
     8
  0
VERTEX
  8
ガラス
 10
93.2
 20
-49.6
 70
     8
  0
VERTEX
  8
ガラス
 10
93.225
 20
-49.675
 70
     8
  0
VERTEX
  8
ガラス
 10
93.25
 20
-49.725
 70
     8
  0
VERTEX
  8
ガラス
 10
93.275
 20
-49.775
 70
     8
  0
VERTEX
  8
ガラス
 10
93.3
 20
-49.825
 70
     8
  0
VERTEX
  8
ガラス
 10
93.325
 20
-49.9
 70
     8
  0
VERTEX
  8
ガラス
 10
93.35
 20
-49.95
 70
     8
  0
VERTEX
  8
ガラス
 10
93.375
 20
-50.0
 70
     8
  0
SEQEND
  0
ARC
  8
ガラス
  6
CONTINUOUS
 10
92.502781
 20
-50.354221
 40
0.955135
 50
202.264587
 51
382.264587
  0
ENDBLK
  0
BLOCK
  2
*GRP_0020
 70
    65
 10
0.0
 20
0.0
  0
POLYLINE
  8
ガラス
  6
CONTINUOUS
 66
     1
 70
     4
  0
VERTEX
  8
ガラス
 10
95.725
 20
-60.65
 70
     8
  0
VERTEX
  8
ガラス
 10
95.625
 20
-60.6
 70
     8
  0
VERTEX
  8
ガラス
 10
95.55
 20
-60.575
 70
     8
  0
VERTEX
  8
ガラス
 10
95.475
 20
-60.525
 70
     8
  0
VERTEX
  8
ガラス
 10
95.375
 20
-60.5
 70
     8
  0
VERTEX
  8
ガラス
 10
95.3
 20
-60.475
 70
     8
  0
VERTEX
  8
ガラス
 10
95.2
 20
-60.425
 70
     8
  0
VERTEX
  8
ガラス
 10
95.125
 20
-60.375
 70
     8
  0
VERTEX
  8
ガラス
 10
95.05
 20
-60.35
 70
     8
  0
VERTEX
  8
ガラス
 10
94.975
 20
-60.3
 70
     8
  0
VERTEX
  8
ガラス
 10
94.875
 20
-60.275
 70
     8
  0
VERTEX
  8
ガラス
 10
94.8
 20
-60.225
 70
     8
  0
VERTEX
  8
ガラス
 10
94.725
 20
-60.175
 70
     8
  0
VERTEX
  8
ガラス
 10
94.65
 20
-60.125
 70
     8
  0
VERTEX
  8
ガラス
 10
94.575
 20
-60.075
 70
     8
  0
VERTEX
  8
ガラス
 10
94.525
 20
-60.025
 70
     8
  0
VERTEX
  8
ガラス
 10
94.45
 20
-59.975
 70
     8
  0
VERTEX
  8
ガラス
 10
94.375
 20
-59.925
 70
     8
  0
VERTEX
  8
ガラス
 10
94.325
 20
-59.875
 70
     8
  0
VERTEX
  8
ガラス
 10
94.275
 20
-59.8
 70
     8
  0
VERTEX
  8
ガラス
 10
94.2
 20
-59.75
 70
     8
  0
VERTEX
  8
ガラス
 10
94.15
 20
-59.675
 70
     8
  0
VERTEX
  8
ガラス
 10
94.1
 20
-59.625
 70
     8
  0
VERTEX
  8
ガラス
 10
94.075
 20
-59.55
 70
     8
  0
VERTEX
  8
ガラス
 10
94.025
 20
-59.475
 70
     8
  0
VERTEX
  8
ガラス
 10
93.975
 20
-59.4
 70
     8
  0
VERTEX
  8
ガラス
 10
93.95
 20
-59.325
 70
     8
  0
VERTEX
  8
ガラス
 10
93.9
 20
-59.25
 70
     8
  0
VERTEX
  8
ガラス
 10
93.875
 20
-59.175
 70
     8
  0
VERTEX
  8
ガラス
 10
93.85
 20
-59.1
 70
     8
  0
VERTEX
  8
ガラス
 10
93.825
 20
-59.0
 70
     8
  0
VERTEX
  8
ガラス
 10
93.775
 20
-58.925
 70
     8
  0
VERTEX
  8
ガラス
 10
93.75
 20
-58.825
 70
     8
  0
VERTEX
  8
ガラス
 10
93.75
 20
-58.75
 70
     8
  0
VERTEX
  8
ガラス
 10
93.725
 20
-58.65
 70
     8
  0
VERTEX
  8
ガラス
 10
93.7
 20
-58.575
 70
     8
  0
VERTEX
  8
ガラス
 10
93.675
 20
-58.475
 70
     8
  0
VERTEX
  8
ガラス
 10
93.65
 20
-58.4
 70
     8
  0
VERTEX
  8
ガラス
 10
93.625
 20
-58.3
 70
     8
  0
VERTEX
  8
ガラス
 10
93.625
 20
-58.2
 70
     8
  0
VERTEX
  8
ガラス
 10
93.6
 20
-58.125
 70
     8
  0
SEQEND
  0
POLYLINE
  8
ガラス
  6
CONTINUOUS
 66
     1
 70
     4
  0
VERTEX
  8
ガラス
 10
93.6
 20
-58.125
 70
     8
  0
VERTEX
  8
ガラス
 10
93.65
 20
-58.15
 70
     8
  0
VERTEX
  8
ガラス
 10
93.7
 20
-58.175
 70
     8
  0
VERTEX
  8
ガラス
 10
93.775
 20
-58.2
 70
     8
  0
VERTEX
  8
ガラス
 10
93.825
 20
-58.225
 70
     8
  0
VERTEX
  8
ガラス
 10
93.875
 20
-58.25
 70
     8
  0
VERTEX
  8
ガラス
 10
93.925
 20
-58.275
 70
     8
  0
VERTEX
  8
ガラス
 10
94.0
 20
-58.275
 70
     8
  0
VERTEX
  8
ガラス
 10
94.05
 20
-58.3
 70
     8
  0
VERTEX
  8
ガラス
 10
94.1
 20
-58.325
 70
     8
  0
VERTEX
  8
ガラス
 10
94.175
 20
-58.35
 70
     8
  0
VERTEX
  8
ガラス
 10
94.225
 20
-58.375
 70
     8
  0
VERTEX
  8
ガラス
 10
94.275
 20
-58.4
 70
     8
  0
VERTEX
  8
ガラス
 10
94.325
 20
-58.425
 70
     8
  0
VERTEX
  8
ガラス
 10
94.4
 20
-58.45
 70
     8
  0
VERTEX
  8
ガラス
 10
94.45
 20
-58.45
 70
     8
  0
VERTEX
  8
ガラス
 10
94.5
 20
-58.475
 70
     8
  0
VERTEX
  8
ガラス
 10
94.575
 20
-58.5
 70
     8
  0
VERTEX
  8
ガラス
 10
94.625
 20
-58.525
 70
     8
  0
VERTEX
  8
ガラス
 10
94.675
 20
-58.525
 70
     8
  0
VERTEX
  8
ガラス
 10
94.75
 20
-58.55
 70
     8
  0
VERTEX
  8
ガラス
 10
94.8
 20
-58.575
 70
     8
  0
VERTEX
  8
ガラス
 10
94.85
 20
-58.575
 70
     8
  0
VERTEX
  8
ガラス
 10
94.925
 20
-58.6
 70
     8
  0
VERTEX
  8
ガラス
 10
94.975
 20
-58.6
 70
     8
  0
VERTEX
  8
ガラス
 10
95.05
 20
-58.625
 70
     8
  0
VERTEX
  8
ガラス
 10
95.1
 20
-58.625
 70
     8
  0
VERTEX
  8
ガラス
 10
95.15
 20
-58.65
 70
     8
  0
VERTEX
  8
ガラス
 10
95.225
 20
-58.65
 70
     8
  0
VERTEX
  8
ガラス
 10
95.275
 20
-58.65
 70
     8
  0
VERTEX
  8
ガラス
 10
95.35
 20
-58.675
 70
     8
  0
VERTEX
  8
ガラス
 10
95.4
 20
-58.675
 70
     8
  0
VERTEX
  8
ガラス
 10
95.475
 20
-58.7
 70
     8
  0
VERTEX
  8
ガラス
 10
95.525
 20
-58.7
 70
     8
  0
VERTEX
  8
ガラス
 10
95.575
 20
-58.7
 70
     8
  0
VERTEX
  8
ガラス
 10
95.65
 20
-58.725
 70
     8
  0
VERTEX
  8
ガラス
 10
95.7
 20
-58.725
 70
     8
  0
VERTEX
  8
ガラス
 10
95.775
 20
-58.725
 70
     8
  0
VERTEX
  8
ガラス
 10
95.825
 20
-58.725
 70
     8
  0
VERTEX
  8
ガラス
 10
95.9
 20
-58.75
 70
     8
  0
VERTEX
  8
ガラス
 10
95.95
 20
-58.75
 70
     8
  0
SEQEND
  0
ARC
  8
ガラス
  6
CONTINUOUS
 10
95.849565
 20
-59.685024
 40
0.955135
 50
263.117442
 51
443.117442
  0
ENDBLK
  0
BLOCK
  2
*GRP_0021
 70
    65
 10
0.0
 20
0.0
  0
POLYLINE
  8
ガラス
  6
CONTINUOUS
 66
     1
 70
     4
  0
VERTEX
  8
ガラス
 10
91.825
 20
13.925
 70
     8
  0
VERTEX
  8
ガラス
 10
91.8
 20
14.0
 70
     8
  0
VERTEX
  8
ガラス
 10
91.8
 20
14.1
 70
     8
  0
VERTEX
  8
ガラス
 10
91.8
 20
14.2
 70
     8
  0
VERTEX
  8
ガラス
 10
91.775
 20
14.275
 70
     8
  0
VERTEX
  8
ガラス
 10
91.775
 20
14.375
 70
     8
  0
VERTEX
  8
ガラス
 10
91.75
 20
14.475
 70
     8
  0
VERTEX
  8
ガラス
 10
91.75
 20
14.575
 70
     8
  0
VERTEX
  8
ガラス
 10
91.75
 20
14.65
 70
     8
  0
VERTEX
  8
ガラス
 10
91.75
 20
14.75
 70
     8
  0
VERTEX
  8
ガラス
 10
91.75
 20
14.825
 70
     8
  0
VERTEX
  8
ガラス
 10
91.75
 20
14.925
 70
     8
  0
VERTEX
  8
ガラス
 10
91.75
 20
15.0
 70
     8
  0
VERTEX
  8
ガラス
 10
91.75
 20
15.1
 70
     8
  0
VERTEX
  8
ガラス
 10
91.75
 20
15.175
 70
     8
  0
VERTEX
  8
ガラス
 10
91.775
 20
15.275
 70
     8
  0
VERTEX
  8
ガラス
 10
91.775
 20
15.35
 70
     8
  0
VERTEX
  8
ガラス
 10
91.8
 20
15.425
 70
     8
  0
VERTEX
  8
ガラス
 10
91.825
 20
15.525
 70
     8
  0
VERTEX
  8
ガラス
 10
91.85
 20
15.6
 70
     8
  0
VERTEX
  8
ガラス
 10
91.875
 20
15.675
 70
     8
  0
VERTEX
  8
ガラス
 10
91.9
 20
15.75
 70
     8
  0
VERTEX
  8
ガラス
 10
91.925
 20
15.825
 70
     8
  0
VERTEX
  8
ガラス
 10
91.975
 20
15.9
 70
     8
  0
VERTEX
  8
ガラス
 10
92.0
 20
15.975
 70
     8
  0
VERTEX
  8
ガラス
 10
92.05
 20
16.05
 70
     8
  0
VERTEX
  8
ガラス
 10
92.1
 20
16.125
 70
     8
  0
VERTEX
  8
ガラス
 10
92.15
 20
16.175
 70
     8
  0
VERTEX
  8
ガラス
 10
92.2
 20
16.25
 70
     8
  0
VERTEX
  8
ガラス
 10
92.25
 20
16.325
 70
     8
  0
VERTEX
  8
ガラス
 10
92.325
 20
16.375
 70
     8
  0
VERTEX
  8
ガラス
 10
92.375
 20
16.45
 70
     8
  0
VERTEX
  8
ガラス
 10
92.45
 20
16.5
 70
     8
  0
VERTEX
  8
ガラス
 10
92.5
 20
16.575
 70
     8
  0
VERTEX
  8
ガラス
 10
92.575
 20
16.625
 70
     8
  0
VERTEX
  8
ガラス
 10
92.65
 20
16.7
 70
     8
  0
VERTEX
  8
ガラス
 10
92.7
 20
16.75
 70
     8
  0
VERTEX
  8
ガラス
 10
92.775
 20
16.825
 70
     8
  0
VERTEX
  8
ガラス
 10
92.85
 20
16.875
 70
     8
  0
VERTEX
  8
ガラス
 10
92.925
 20
16.95
 70
     8
  0
VERTEX
  8
ガラス
 10
92.975
 20
17.0
 70
     8
  0
SEQEND
  0
POLYLINE
  8
ガラス
  6
CONTINUOUS
 66
     1
 70
     4
  0
VERTEX
  8
ガラス
 10
92.975
 20
17.0
 70
     8
  0
VERTEX
  8
ガラス
 10
93.0
 20
16.95
 70
     8
  0
VERTEX
  8
ガラス
 10
93.0
 20
16.875
 70
     8
  0
VERTEX
  8
ガラス
 10
93.0
 20
16.825
 70
     8
  0
VERTEX
  8
ガラス
 10
93.025
 20
16.75
 70
     8
  0
VERTEX
  8
ガラス
 10
93.025
 20
16.7
 70
     8
  0
VERTEX
  8
ガラス
 10
93.025
 20
16.65
 70
     8
  0
VERTEX
  8
ガラス
 10
93.025
 20
16.575
 70
     8
  0
VERTEX
  8
ガラス
 10
93.05
 20
16.525
 70
     8
  0
VERTEX
  8
ガラス
 10
93.05
 20
16.45
 70
     8
  0
VERTEX
  8
ガラス
 10
93.05
 20
16.4
 70
     8
  0
VERTEX
  8
ガラス
 10
93.075
 20
16.325
 70
     8
  0
VERTEX
  8
ガラス
 10
93.075
 20
16.275
 70
     8
  0
VERTEX
  8
ガラス
 10
93.1
 20
16.225
 70
     8
  0
VERTEX
  8
ガラス
 10
93.1
 20
16.15
 70
     8
  0
VERTEX
  8
ガラス
 10
93.1
 20
16.1
 70
     8
  0
VERTEX
  8
ガラス
 10
93.125
 20
16.025
 70
     8
  0
VERTEX
  8
ガラス
 10
93.125
 20
15.975
 70
     8
  0
VERTEX
  8
ガラス
 10
93.15
 20
15.9
 70
     8
  0
VERTEX
  8
ガラス
 10
93.15
 20
15.85
 70
     8
  0
VERTEX
  8
ガラス
 10
93.175
 20
15.8
 70
     8
  0
VERTEX
  8
ガラス
 10
93.2
 20
15.725
 70
     8
  0
VERTEX
  8
ガラス
 10
93.2
 20
15.675
 70
     8
  0
VERTEX
  8
ガラス
 10
93.225
 20
15.625
 70
     8
  0
VERTEX
  8
ガラス
 10
93.25
 20
15.55
 70
     8
  0
VERTEX
  8
ガラス
 10
93.25
 20
15.5
 70
     8
  0
VERTEX
  8
ガラス
 10
93.275
 20
15.45
 70
     8
  0
VERTEX
  8
ガラス
 10
93.3
 20
15.375
 70
     8
  0
VERTEX
  8
ガラス
 10
93.325
 20
15.325
 70
     8
  0
VERTEX
  8
ガラス
 10
93.325
 20
15.275
 70
     8
  0
VERTEX
  8
ガラス
 10
93.35
 20
15.2
 70
     8
  0
VERTEX
  8
ガラス
 10
93.375
 20
15.15
 70
     8
  0
VERTEX
  8
ガラス
 10
93.4
 20
15.1
 70
     8
  0
VERTEX
  8
ガラス
 10
93.425
 20
15.05
 70
     8
  0
VERTEX
  8
ガラス
 10
93.45
 20
14.975
 70
     8
  0
VERTEX
  8
ガラス
 10
93.475
 20
14.925
 70
     8
  0
VERTEX
  8
ガラス
 10
93.5
 20
14.875
 70
     8
  0
VERTEX
  8
ガラス
 10
93.525
 20
14.8
 70
     8
  0
VERTEX
  8
ガラス
 10
93.55
 20
14.75
 70
     8
  0
VERTEX
  8
ガラス
 10
93.575
 20
14.7
 70
     8
  0
VERTEX
  8
ガラス
 10
93.575
 20
14.65
 70
     8
  0
SEQEND
  0
ARC
  8
ガラス
  6
CONTINUOUS
 10
92.715116
 20
14.29062
 40
0.955135
 50
202.264587
 51
382.264587
  0
ENDBLK
  0
BLOCK
  2
*GRP_0022
 70
    65
 10
0.0
 20
0.0
  0
POLYLINE
  8
ガラス
  6
CONTINUOUS
 66
     1
 70
     4
  0
VERTEX
  8
ガラス
 10
91.825
 20
-6.8
 70
     8
  0
VERTEX
  8
ガラス
 10
91.8
 20
-6.7
 70
     8
  0
VERTEX
  8
ガラス
 10
91.8
 20
-6.625
 70
     8
  0
VERTEX
  8
ガラス
 10
91.8
 20
-6.525
 70
     8
  0
VERTEX
  8
ガラス
 10
91.775
 20
-6.425
 70
     8
  0
VERTEX
  8
ガラス
 10
91.775
 20
-6.35
 70
     8
  0
VERTEX
  8
ガラス
 10
91.75
 20
-6.25
 70
     8
  0
VERTEX
  8
ガラス
 10
91.75
 20
-6.15
 70
     8
  0
VERTEX
  8
ガラス
 10
91.75
 20
-6.075
 70
     8
  0
VERTEX
  8
ガラス
 10
91.75
 20
-5.975
 70
     8
  0
VERTEX
  8
ガラス
 10
91.75
 20
-5.875
 70
     8
  0
VERTEX
  8
ガラス
 10
91.75
 20
-5.8
 70
     8
  0
VERTEX
  8
ガラス
 10
91.75
 20
-5.7
 70
     8
  0
VERTEX
  8
ガラス
 10
91.75
 20
-5.625
 70
     8
  0
VERTEX
  8
ガラス
 10
91.75
 20
-5.525
 70
     8
  0
VERTEX
  8
ガラス
 10
91.775
 20
-5.45
 70
     8
  0
VERTEX
  8
ガラス
 10
91.775
 20
-5.375
 70
     8
  0
VERTEX
  8
ガラス
 10
91.8
 20
-5.275
 70
     8
  0
VERTEX
  8
ガラス
 10
91.825
 20
-5.2
 70
     8
  0
VERTEX
  8
ガラス
 10
91.85
 20
-5.125
 70
     8
  0
VERTEX
  8
ガラス
 10
91.875
 20
-5.05
 70
     8
  0
VERTEX
  8
ガラス
 10
91.9
 20
-4.975
 70
     8
  0
VERTEX
  8
ガラス
 10
91.925
 20
-4.9
 70
     8
  0
VERTEX
  8
ガラス
 10
91.975
 20
-4.825
 70
     8
  0
VERTEX
  8
ガラス
 10
92.0
 20
-4.75
 70
     8
  0
VERTEX
  8
ガラス
 10
92.05
 20
-4.675
 70
     8
  0
VERTEX
  8
ガラス
 10
92.1
 20
-4.6
 70
     8
  0
VERTEX
  8
ガラス
 10
92.15
 20
-4.55
 70
     8
  0
VERTEX
  8
ガラス
 10
92.2
 20
-4.475
 70
     8
  0
VERTEX
  8
ガラス
 10
92.25
 20
-4.4
 70
     8
  0
VERTEX
  8
ガラス
 10
92.325
 20
-4.35
 70
     8
  0
VERTEX
  8
ガラス
 10
92.375
 20
-4.275
 70
     8
  0
VERTEX
  8
ガラス
 10
92.45
 20
-4.2
 70
     8
  0
VERTEX
  8
ガラス
 10
92.5
 20
-4.15
 70
     8
  0
VERTEX
  8
ガラス
 10
92.575
 20
-4.075
 70
     8
  0
VERTEX
  8
ガラス
 10
92.65
 20
-4.025
 70
     8
  0
VERTEX
  8
ガラス
 10
92.7
 20
-3.95
 70
     8
  0
VERTEX
  8
ガラス
 10
92.775
 20
-3.9
 70
     8
  0
VERTEX
  8
ガラス
 10
92.85
 20
-3.825
 70
     8
  0
VERTEX
  8
ガラス
 10
92.925
 20
-3.775
 70
     8
  0
VERTEX
  8
ガラス
 10
92.975
 20
-3.725
 70
     8
  0
SEQEND
  0
POLYLINE
  8
ガラス
  6
CONTINUOUS
 66
     1
 70
     4
  0
VERTEX
  8
ガラス
 10
92.975
 20
-3.725
 70
     8
  0
VERTEX
  8
ガラス
 10
93.0
 20
-3.775
 70
     8
  0
VERTEX
  8
ガラス
 10
93.0
 20
-3.825
 70
     8
  0
VERTEX
  8
ガラス
 10
93.0
 20
-3.9
 70
     8
  0
VERTEX
  8
ガラス
 10
93.025
 20
-3.95
 70
     8
  0
VERTEX
  8
ガラス
 10
93.025
 20
-4.025
 70
     8
  0
VERTEX
  8
ガラス
 10
93.025
 20
-4.075
 70
     8
  0
VERTEX
  8
ガラス
 10
93.025
 20
-4.15
 70
     8
  0
VERTEX
  8
ガラス
 10
93.05
 20
-4.2
 70
     8
  0
VERTEX
  8
ガラス
 10
93.05
 20
-4.275
 70
     8
  0
VERTEX
  8
ガラス
 10
93.05
 20
-4.325
 70
     8
  0
VERTEX
  8
ガラス
 10
93.075
 20
-4.375
 70
     8
  0
VERTEX
  8
ガラス
 10
93.075
 20
-4.45
 70
     8
  0
VERTEX
  8
ガラス
 10
93.1
 20
-4.5
 70
     8
  0
VERTEX
  8
ガラス
 10
93.1
 20
-4.575
 70
     8
  0
VERTEX
  8
ガラス
 10
93.1
 20
-4.625
 70
     8
  0
VERTEX
  8
ガラス
 10
93.125
 20
-4.7
 70
     8
  0
VERTEX
  8
ガラス
 10
93.125
 20
-4.75
 70
     8
  0
VERTEX
  8
ガラス
 10
93.15
 20
-4.8
 70
     8
  0
VERTEX
  8
ガラス
 10
93.15
 20
-4.875
 70
     8
  0
VERTEX
  8
ガラス
 10
93.175
 20
-4.925
 70
     8
  0
VERTEX
  8
ガラス
 10
93.2
 20
-4.975
 70
     8
  0
VERTEX
  8
ガラス
 10
93.2
 20
-5.05
 70
     8
  0
VERTEX
  8
ガラス
 10
93.225
 20
-5.1
 70
     8
  0
VERTEX
  8
ガラス
 10
93.25
 20
-5.15
 70
     8
  0
VERTEX
  8
ガラス
 10
93.25
 20
-5.225
 70
     8
  0
VERTEX
  8
ガラス
 10
93.275
 20
-5.275
 70
     8
  0
VERTEX
  8
ガラス
 10
93.3
 20
-5.325
 70
     8
  0
VERTEX
  8
ガラス
 10
93.325
 20
-5.4
 70
     8
  0
VERTEX
  8
ガラス
 10
93.325
 20
-5.45
 70
     8
  0
VERTEX
  8
ガラス
 10
93.35
 20
-5.5
 70
     8
  0
VERTEX
  8
ガラス
 10
93.375
 20
-5.575
 70
     8
  0
VERTEX
  8
ガラス
 10
93.4
 20
-5.625
 70
     8
  0
VERTEX
  8
ガラス
 10
93.425
 20
-5.675
 70
     8
  0
VERTEX
  8
ガラス
 10
93.45
 20
-5.75
 70
     8
  0
VERTEX
  8
ガラス
 10
93.475
 20
-5.8
 70
     8
  0
VERTEX
  8
ガラス
 10
93.5
 20
-5.85
 70
     8
  0
VERTEX
  8
ガラス
 10
93.525
 20
-5.9
 70
     8
  0
VERTEX
  8
ガラス
 10
93.55
 20
-5.975
 70
     8
  0
VERTEX
  8
ガラス
 10
93.575
 20
-6.025
 70
     8
  0
VERTEX
  8
ガラス
 10
93.575
 20
-6.075
 70
     8
  0
SEQEND
  0
ARC
  8
ガラス
  6
CONTINUOUS
 10
92.715115
 20
-6.428956
 40
0.955135
 50
202.264587
 51
382.264587
  0
ENDBLK
  0
BLOCK
  2
*GRP_0023
 70
    65
 10
0.0
 20
0.0
  0
LINE
  8
ゴム等
  6
CONTINUOUS
 10
-75.329482
 20
-35.676092
 11
-75.329482
 21
-30.67609
  0
LINE
  8
ゴム等
  6
CONTINUOUS
 10
-75.329482
 20
-35.676092
 11
-85.32948
 21
-35.676092
  0
LINE
  8
ゴム等
  6
CONTINUOUS
 10
-85.32948
 20
-35.676092
 11
-85.32948
 21
-30.67609
  0
LINE
  8
ゴム等
  6
CONTINUOUS
 10
-75.329482
 20
-30.67609
 11
-85.32948
 21
-30.67609
  0
LINE
  8
ゴム等
  6
CONTINUOUS
 10
-85.32948
 20
-32.006215
 11
-83.999355
 21
-30.67609
  0
LINE
  8
ゴム等
  6
CONTINUOUS
 10
-85.32948
 20
-33.42043
 11
-82.58514
 21
-30.67609
  0
LINE
  8
ゴム等
  6
CONTINUOUS
 10
-85.32948
 20
-34.834638
 11
-81.170932
 21
-30.67609
  0
LINE
  8
ゴム等
  6
CONTINUOUS
 10
-81.92829
 20
-35.676092
 11
-76.928287
 21
-30.67609
  0
LINE
  8
ゴム等
  6
CONTINUOUS
 10
-83.342505
 20
-35.676092
 11
-78.342502
 21
-30.67609
  0
LINE
  8
ゴム等
  6
CONTINUOUS
 10
-84.756712
 20
-35.676092
 11
-79.756718
 21
-30.67609
  0
LINE
  8
ゴム等
  6
CONTINUOUS
 10
-80.514075
 20
-35.676092
 11
-75.514073
 21
-30.67609
  0
LINE
  8
ゴム等
  6
CONTINUOUS
 10
-79.09986
 20
-35.676092
 11
-75.329482
 21
-31.905707
  0
LINE
  8
ゴム等
  6
CONTINUOUS
 10
-77.685653
 20
-35.676092
 11
-75.329482
 21
-33.319923
  0
LINE
  8
ゴム等
  6
CONTINUOUS
 10
-76.271437
 20
-35.676092
 11
-75.329482
 21
-34.734137
  0
ENDBLK
  0
BLOCK
  2
*GRP_0024
 70
    65
 10
0.0
 20
0.0
  0
LINE
  8
ゴム等
  6
CONTINUOUS
 10
-10.62948
 20
-58.971685
 11
-13.129478
 21
-58.47169
  0
LINE
  8
ゴム等
  6
CONTINUOUS
 10
-13.129478
 20
-64.271688
 11
-10.62948
 21
-63.771685
  0
LINE
  8
ゴム等
  6
CONTINUOUS
 10
-18.12948
 20
-66.371688
 11
-13.129478
 21
-66.371688
  0
LINE
  8
ゴム等
  6
CONTINUOUS
 10
-18.12948
 20
-56.37169
 11
-13.129478
 21
-56.37169
  0
LINE
  8
ゴム等
  6
CONTINUOUS
 10
-10.62948
 20
-58.971685
 11
-10.62948
 21
-63.771685
  0
LINE
  8
ゴム等
  6
CONTINUOUS
 10
-13.129478
 20
-66.371688
 11
-13.129478
 21
-64.271688
  0
LINE
  8
ゴム等
  6
CONTINUOUS
 10
-13.129478
 20
-58.47169
 11
-13.129478
 21
-56.37169
  0
LINE
  8
ゴム等
  6
CONTINUOUS
 10
-17.629478
 20
-61.371685
 11
-18.12948
 21
-61.871688
  0
LINE
  8
ゴム等
  6
CONTINUOUS
 10
-17.629478
 20
-61.371685
 11
-18.12948
 21
-60.87169
  0
LINE
  8
ゴム等
  6
CONTINUOUS
 10
-18.12948
 20
-56.37169
 11
-18.12948
 21
-60.87169
  0
LINE
  8
ゴム等
  6
CONTINUOUS
 10
-18.12948
 20
-61.871688
 11
-18.12948
 21
-66.371688
  0
LINE
  8
ゴム等
  6
CONTINUOUS
 10
-10.62948
 20
-61.143768
 11
-15.401558
 21
-56.37169
  0
LINE
  8
ゴム等
  6
CONTINUOUS
 10
-10.62948
 20
-63.265082
 11
-17.522872
 21
-56.37169
  0
LINE
  8
ゴム等
  6
CONTINUOUS
 10
-11.975085
 20
-64.040808
 11
-18.12948
 21
-57.886413
  0
LINE
  8
ゴム等
  6
CONTINUOUS
 10
-13.129478
 20
-65.00773
 11
-18.12948
 21
-60.007727
  0
LINE
  8
ゴム等
  6
CONTINUOUS
 10
-16.008165
 20
-66.371688
 11
-18.12948
 21
-64.250372
  0
LINE
  8
ゴム等
  6
CONTINUOUS
 10
-13.886835
 20
-66.371688
 11
-18.12948
 21
-62.129043
  0
ENDBLK
  0
BLOCK
  2
*GRP_0025
 70
    65
 10
0.0
 20
0.0
  0
LINE
  8
ゴム等
  6
CONTINUOUS
 10
-97.32948
 20
-7.176092
 11
-92.329478
 21
-7.176092
  0
LINE
  8
ゴム等
  6
CONTINUOUS
 10
-97.32948
 20
-7.176092
 11
-97.32948
 21
-17.17609
  0
LINE
  8
ゴム等
  6
CONTINUOUS
 10
-97.32948
 20
-17.17609
 11
-92.329478
 21
-17.17609
  0
LINE
  8
ゴム等
  6
CONTINUOUS
 10
-92.329478
 20
-7.176092
 11
-92.329478
 21
-17.17609
  0
LINE
  8
ゴム等
  6
CONTINUOUS
 10
-93.659602
 20
-17.17609
 11
-92.329478
 21
-15.845965
  0
LINE
  8
ゴム等
  6
CONTINUOUS
 10
-95.073818
 20
-17.17609
 11
-92.329478
 21
-14.43175
  0
LINE
  8
ゴム等
  6
CONTINUOUS
 10
-96.488025
 20
-17.17609
 11
-92.329478
 21
-13.017543
  0
LINE
  8
ゴム等
  6
CONTINUOUS
 10
-97.32948
 20
-13.7749
 11
-92.329478
 21
-8.774898
  0
LINE
  8
ゴム等
  6
CONTINUOUS
 10
-97.32948
 20
-15.189115
 11
-92.329478
 21
-10.189113
  0
LINE
  8
ゴム等
  6
CONTINUOUS
 10
-97.32948
 20
-16.603323
 11
-92.329478
 21
-11.603327
  0
LINE
  8
ゴム等
  6
CONTINUOUS
 10
-97.32948
 20
-12.360685
 11
-92.329478
 21
-7.360682
  0
LINE
  8
ゴム等
  6
CONTINUOUS
 10
-97.32948
 20
-10.94647
 11
-93.559095
 21
-7.176092
  0
LINE
  8
ゴム等
  6
CONTINUOUS
 10
-97.32948
 20
-9.532262
 11
-94.97331
 21
-7.176092
  0
LINE
  8
ゴム等
  6
CONTINUOUS
 10
-97.32948
 20
-8.118048
 11
-96.387525
 21
-7.176092
  0
ENDBLK
  0
BLOCK
  2
*GRP_0026
 70
    65
 10
0.0
 20
0.0
  0
LINE
  8
ゴム等
  6
CONTINUOUS
 10
-85.02948
 20
22.82396
 11
-85.02948
 21
20.823957
  0
LINE
  8
ゴム等
  6
CONTINUOUS
 10
-85.02948
 20
12.823963
 11
-85.02948
 21
10.82396
  0
LINE
  8
ゴム等
  6
CONTINUOUS
 10
-85.02948
 20
12.823963
 11
-85.02948
 21
12.823963
  0
ARC
  8
ゴム等
  6
CONTINUOUS
 10
-85.029472
 20
13.32396
 40
0.5
 50
270.0
 51
360.0
  0
LINE
  8
ゴム等
  6
CONTINUOUS
 10
-84.529478
 20
20.323963
 11
-84.529478
 21
13.323957
  0
LINE
  8
ゴム等
  6
CONTINUOUS
 10
-85.02948
 20
20.823957
 11
-85.02948
 21
20.823957
  0
ARC
  8
ゴム等
  6
CONTINUOUS
 10
-85.029472
 20
20.32396
 40
0.5
 50
0.0
 51
90.0
  0
LINE
  8
ゴム等
  6
CONTINUOUS
 10
-85.02948
 20
10.82396
 11
-82.02948
 21
10.82396
  0
LINE
  8
ゴム等
  6
CONTINUOUS
 10
-85.02948
 20
22.82396
 11
-82.02948
 21
22.82396
  0
LINE
  8
ゴム等
  6
CONTINUOUS
 10
-80.22948
 20
19.22396
 11
-82.02948
 21
19.22396
  0
LINE
  8
ゴム等
  6
CONTINUOUS
 10
-82.02948
 20
22.82396
 11
-82.02948
 21
19.22396
  0
LINE
  8
ゴム等
  6
CONTINUOUS
 10
-80.22948
 20
14.42396
 11
-82.02948
 21
14.42396
  0
LINE
  8
ゴム等
  6
CONTINUOUS
 10
-82.02948
 20
10.82396
 11
-82.02948
 21
14.42396
  0
LINE
  8
ゴム等
  6
CONTINUOUS
 10
-80.22948
 20
14.42396
 11
-80.22948
 21
13.423963
  0
LINE
  8
ゴム等
  6
CONTINUOUS
 10
-80.22948
 20
13.423963
 11
-79.729478
 21
13.423963
  0
LINE
  8
ゴム等
  6
CONTINUOUS
 10
-80.22948
 20
19.22396
 11
-80.22948
 21
20.223957
  0
LINE
  8
ゴム等
  6
CONTINUOUS
 10
-79.729478
 20
20.223957
 11
-80.22948
 21
20.223957
  0
ARC
  8
ゴム等
  6
CONTINUOUS
 10
-79.429472
 20
16.82396
 40
1.0
 50
-90.0
 51
0.0
  0
LINE
  8
ゴム等
  6
CONTINUOUS
 10
-78.42948
 20
16.82396
 11
-78.42948
 21
16.82396
  0
ARC
  8
ゴム等
  6
CONTINUOUS
 10
-79.429472
 20
16.82396
 40
1.0
 50
0.0
 51
90.0
  0
LINE
  8
ゴム等
  6
CONTINUOUS
 10
-81.029483
 20
17.823957
 11
-79.429478
 21
17.823957
  0
ARC
  8
ゴム等
  6
CONTINUOUS
 10
-81.029472
 20
16.82396
 40
1.0
 50
90.0
 51
180.0
  0
LINE
  8
ゴム等
  6
CONTINUOUS
 10
-82.02948
 20
16.82396
 11
-82.02948
 21
16.82396
  0
LINE
  8
ゴム等
  6
CONTINUOUS
 10
-81.029483
 20
15.823963
 11
-79.429478
 21
15.823963
  0
ARC
  8
ゴム等
  6
CONTINUOUS
 10
-81.029472
 20
16.82396
 40
1.0
 50
180.0
 51
270.0
  0
LINE
  8
ゴム等
  6
CONTINUOUS
 10
-82.02948
 20
22.652383
 11
-82.201058
 21
22.82396
  0
LINE
  8
ゴム等
  6
CONTINUOUS
 10
-85.02948
 20
11.510247
 11
-84.343192
 21
10.82396
  0
LINE
  8
ゴム等
  6
CONTINUOUS
 10
-84.937507
 20
12.83249
 11
-82.928978
 21
10.82396
  0
LINE
  8
ゴム等
  6
CONTINUOUS
 10
-84.529478
 20
13.838682
 11
-82.02948
 21
11.338678
  0
LINE
  8
ゴム等
  6
CONTINUOUS
 10
-84.529478
 20
15.25289
 11
-82.02948
 21
12.752893
  0
LINE
  8
ゴム等
  6
CONTINUOUS
 10
-84.529478
 20
16.667105
 11
-82.02948
 21
14.167108
  0
LINE
  8
ゴム等
  6
CONTINUOUS
 10
-80.872117
 20
14.42396
 11
-84.529478
 21
18.08132
  0
LINE
  8
ゴム等
  6
CONTINUOUS
 10
-80.22948
 20
13.781322
 11
-79.87212
 21
13.423963
  0
LINE
  8
ゴム等
  6
CONTINUOUS
 10
-83.615265
 20
22.82396
 11
-82.02948
 21
21.238175
  0
LINE
  8
ゴム等
  6
CONTINUOUS
 10
-80.22948
 20
19.438175
 11
-77.52948
 21
16.738175
  0
LINE
  8
ゴム等
  6
CONTINUOUS
 10
-85.02948
 20
22.82396
 11
-82.02948
 21
19.82396
  0
LINE
  8
ゴム等
  6
CONTINUOUS
 10
-81.380182
 20
17.760448
 11
-85.02948
 21
21.409745
  0
LINE
  8
ゴム等
  6
CONTINUOUS
 10
-82.016783
 20
16.982833
 11
-84.529478
 21
19.495535
  0
LINE
  8
ゴム等
  6
CONTINUOUS
 10
-81.42948
 20
19.22396
 11
-80.029478
 21
17.823957
  0
LINE
  8
ゴム等
  6
CONTINUOUS
 10
-80.857905
 20
15.823963
 11
-79.121332
 21
14.08739
  0
LINE
  8
ゴム等
  6
CONTINUOUS
 10
-79.443697
 20
15.823963
 11
-78.444975
 21
14.82524
  0
LINE
  8
ゴム等
  6
CONTINUOUS
 10
-78.55125
 20
16.34573
 11
-77.76861
 21
15.56309
  0
LINE
  8
ゴム等
  6
CONTINUOUS
 10
-79.729478
 20
13.423963
 11
-77.52948
 21
15.823963
  0
LINE
  8
ゴム等
  6
CONTINUOUS
 10
-79.729478
 20
20.223957
 11
-77.52948
 21
17.823957
  0
LINE
  8
ゴム等
  6
CONTINUOUS
 10
-77.52948
 20
15.823963
 11
-77.52948
 21
17.823957
  0
ENDBLK
  0
BLOCK
  2
*GRP_0027
 70
    65
 10
0.0
 20
0.0
  0
LINE
  8
ゴム等
  6
DOT
 10
17.370195
 20
-63.87166
 11
17.870197
 21
-61.371662
  0
LINE
  8
ゴム等
  6
DOT
 10
12.070192
 20
-61.371662
 11
12.570195
 21
-63.87166
  0
LINE
  8
ゴム等
  6
DOT
 10
9.970192
 20
-56.37166
 11
9.970192
 21
-61.371662
  0
LINE
  8
ゴム等
  6
DOT
 10
19.970197
 20
-56.37166
 11
19.970197
 21
-61.371662
  0
LINE
  8
ゴム等
  6
DOT
 10
17.370195
 20
-63.87166
 11
12.570195
 21
-63.87166
  0
LINE
  8
ゴム等
  6
DOT
 10
9.970192
 20
-61.371662
 11
12.070192
 21
-61.371662
  0
LINE
  8
ゴム等
  6
DOT
 10
17.870197
 20
-61.371662
 11
19.970197
 21
-61.371662
  0
LINE
  8
ゴム等
  6
DOT
 10
14.970195
 20
-56.871662
 11
14.470192
 21
-56.37166
  0
LINE
  8
ゴム等
  6
DOT
 10
14.970195
 20
-56.871662
 11
15.470197
 21
-56.37166
  0
LINE
  8
ゴム等
  6
DOT
 10
19.970197
 20
-56.37166
 11
15.470197
 21
-56.37166
  0
LINE
  8
ゴム等
  6
DOT
 10
14.470192
 20
-56.37166
 11
9.970192
 21
-56.37166
  0
INSERT
  2
*HAT_0001
  8
ゴム等
 10
0.0
 20
0.0
  0
ENDBLK
  0
BLOCK
  2
*GRP_0028
 70
    65
 10
0.0
 20
0.0
  0
LINE
  8
ゴム等
  6
DOT
 10
112.471695
 20
-43.671715
 11
109.971697
 21
-44.17171
  0
LINE
  8
ゴム等
  6
DOT
 10
109.971697
 20
-38.371713
 11
112.471695
 21
-38.871715
  0
LINE
  8
ゴム等
  6
DOT
 10
104.971695
 20
-36.271713
 11
109.971697
 21
-36.271713
  0
LINE
  8
ゴム等
  6
DOT
 10
104.971695
 20
-46.27171
 11
109.971697
 21
-46.27171
  0
LINE
  8
ゴム等
  6
DOT
 10
112.471695
 20
-43.671715
 11
112.471695
 21
-38.871715
  0
LINE
  8
ゴム等
  6
DOT
 10
109.971697
 20
-36.271713
 11
109.971697
 21
-38.371713
  0
LINE
  8
ゴム等
  6
DOT
 10
109.971697
 20
-44.17171
 11
109.971697
 21
-46.27171
  0
LINE
  8
ゴム等
  6
DOT
 10
105.471697
 20
-41.271715
 11
104.971695
 21
-40.771713
  0
LINE
  8
ゴム等
  6
DOT
 10
105.471697
 20
-41.271715
 11
104.971695
 21
-41.77171
  0
LINE
  8
ゴム等
  6
DOT
 10
104.971695
 20
-46.27171
 11
104.971695
 21
-41.77171
  0
LINE
  8
ゴム等
  6
DOT
 10
104.971695
 20
-40.771713
 11
104.971695
 21
-36.271713
  0
INSERT
  2
*HAT_0002
  8
ゴム等
 10
0.0
 20
0.0
  0
ENDBLK
  0
BLOCK
  2
*GRP_0029
 70
    65
 10
0.0
 20
0.0
  0
LINE
  8
ゴム等
  6
CONTINUOUS
 10
0.970162
 20
-45.37165
 11
0.970162
 21
-41.371652
  0
LINE
  8
ゴム等
  6
CONTINUOUS
 10
6.970162
 20
-45.37165
 11
6.970162
 21
-53.371652
  0
LINE
  8
ゴム等
  6
CONTINUOUS
 10
0.970162
 20
-53.371652
 11
3.170168
 21
-53.371652
  0
LINE
  8
ゴム等
  6
CONTINUOUS
 10
0.970162
 20
-45.37165
 11
3.170168
 21
-45.37165
  0
LINE
  8
ゴム等
  6
CONTINUOUS
 10
0.970162
 20
-53.371652
 11
0.970162
 21
-55.371655
  0
ARC
  8
ゴム等
  6
CONTINUOUS
 10
1.970165
 20
-48.871638
 40
1.0
 50
90.0
 51
180.0
  0
LINE
  8
ゴム等
  6
CONTINUOUS
 10
4.470165
 20
-47.871655
 11
1.970168
 21
-47.871655
  0
ARC
  8
ゴム等
  6
CONTINUOUS
 10
4.470165
 20
-48.871638
 40
1.0
 50
0.0
 51
90.0
  0
LINE
  8
ゴム等
  6
CONTINUOUS
 10
5.470162
 20
-48.871652
 11
5.470162
 21
-49.87165
  0
ARC
  8
ゴム等
  6
CONTINUOUS
 10
4.470165
 20
-49.871638
 40
1.0
 50
-90.0
 51
0.0
  0
LINE
  8
ゴム等
  6
CONTINUOUS
 10
4.470165
 20
-50.871655
 11
1.970168
 21
-50.871655
  0
LINE
  8
ゴム等
  6
CONTINUOUS
 10
0.970162
 20
-48.871652
 11
0.970162
 21
-49.87165
  0
ARC
  8
ゴム等
  6
CONTINUOUS
 10
1.970165
 20
-49.871638
 40
1.0
 50
180.0
 51
270.0
  0
LINE
  8
ゴム等
  6
CONTINUOUS
 10
-1.229835
 20
-41.371652
 11
0.970162
 21
-41.371652
  0
ARC
  8
ゴム等
  6
CONTINUOUS
 10
-1.229835
 20
-43.371638
 40
2.0
 50
90.0
 51
180.0
  0
LINE
  8
ゴム等
  6
CONTINUOUS
 10
-3.229838
 20
-43.371655
 11
-3.229838
 21
-56.871655
  0
ARC
  8
ゴム等
  6
CONTINUOUS
 10
-2.229835
 20
-56.871638
 40
1.0
 50
180.0
 51
270.0
  0
LINE
  8
ゴム等
  6
CONTINUOUS
 10
6.970162
 20
-45.37165
 11
3.764955
 21
-44.630717
  0
ARC
  8
ゴム等
  6
CONTINUOUS
 10
3.670165
 20
-45.121638
 40
0.5
 50
79.071863
 51
180.0
  0
LINE
  8
ゴム等
  6
CONTINUOUS
 10
3.170168
 20
-45.37165
 11
3.170168
 21
-45.121652
  0
LINE
  8
ゴム等
  6
CONTINUOUS
 10
6.970162
 20
-53.371652
 11
3.764955
 21
-54.112585
  0
ARC
  8
ゴム等
  6
CONTINUOUS
 10
3.670165
 20
-53.621638
 40
0.5
 50
180.0
 51
280.928137
  0
LINE
  8
ゴム等
  6
CONTINUOUS
 10
3.170168
 20
-53.371652
 11
3.170168
 21
-53.62165
  0
LINE
  8
ゴム等
  6
CONTINUOUS
 10
-2.229832
 20
-57.871652
 11
-1.529835
 21
-57.871652
  0
LINE
  8
ゴム等
  6
CONTINUOUS
 10
-1.529835
 20
-57.871652
 11
-1.829835
 21
-55.371655
  0
LINE
  8
ゴム等
  6
CONTINUOUS
 10
0.970162
 20
-55.371655
 11
-1.829835
 21
-55.371655
  0
INSERT
  2
*HAT_0003
  8
ゴム等
 10
0.0
 20
0.0
  0
ENDBLK
  0
BLOCK
  2
*GRP_0030
 70
    65
 10
0.0
 20
0.0
  0
LINE
  8
ゴム等
  6
CONTINUOUS
 10
7.271647
 20
-68.72653
 11
7.271647
 21
-63.726527
  0
LINE
  8
ゴム等
  6
CONTINUOUS
 10
5.271645
 20
-63.726527
 11
3.771645
 21
-63.726527
  0
LINE
  8
ゴム等
  6
CONTINUOUS
 10
5.271645
 20
-68.72653
 11
3.771645
 21
-68.72653
  0
LINE
  8
ゴム等
  6
CONTINUOUS
 10
3.771645
 20
-72.726527
 11
3.771645
 21
-68.72653
  0
LINE
  8
ゴム等
  6
CONTINUOUS
 10
3.771645
 20
-63.726527
 11
3.771645
 21
-57.726527
  0
LINE
  8
ゴム等
  6
CONTINUOUS
 10
3.771645
 20
-57.726527
 11
0.771645
 21
-57.726527
  0
LINE
  8
ゴム等
  6
CONTINUOUS
 10
0.771645
 20
-55.726525
 11
0.771645
 21
-57.726527
  0
LINE
  8
ゴム等
  6
CONTINUOUS
 10
0.771645
 20
-55.726525
 11
-1.728352
 21
-55.726525
  0
ARC
  8
ゴム等
  6
CONTINUOUS
 10
9.521645
 20
-66.726512
 40
12.75
 50
151.927513
 51
208.072487
  0
LINE
  8
ゴム等
  6
CONTINUOUS
 10
-1.728352
 20
-55.726525
 11
-1.728352
 21
-60.726527
  0
LINE
  8
ゴム等
  6
CONTINUOUS
 10
3.771645
 20
-72.726527
 11
-1.728352
 21
-72.726527
  0
LINE
  8
ゴム等
  6
CONTINUOUS
 10
7.271647
 20
-63.726527
 11
6.075353
 21
-62.82646
  0
ARC
  8
ゴム等
  6
CONTINUOUS
 10
5.771645
 20
-63.226512
 40
0.5
 50
52.618449
 51
180.0
  0
LINE
  8
ゴム等
  6
CONTINUOUS
 10
5.271645
 20
-63.726527
 11
5.271645
 21
-63.226525
  0
LINE
  8
ゴム等
  6
CONTINUOUS
 10
7.271647
 20
-68.72653
 11
6.075353
 21
-69.62659
  0
ARC
  8
ゴム等
  6
CONTINUOUS
 10
5.771645
 20
-69.226512
 40
0.5
 50
180.0
 51
307.381551
  0
LINE
  8
ゴム等
  6
CONTINUOUS
 10
5.271645
 20
-68.72653
 11
5.271645
 21
-69.226525
  0
INSERT
  2
*HAT_0004
  8
ゴム等
 10
0.0
 20
0.0
  0
ENDBLK
  0
BLOCK
  2
*GRP_0031
 70
    65
 10
0.0
 20
0.0
  0
LINE
  8
ボルト／ビス
  6
CONTINUOUS
 62
    64
 10
-83.82948
 20
-37.676095
 11
-83.737777
 21
-38.724258
  0
ARC
  8
ボルト／ビス
  6
CONTINUOUS
 62
    64
 10
-82.044245
 20
-38.57609
 40
1.7
 50
184.999989
 51
270.0
  0
LINE
  8
ボルト／ビス
  6
CONTINUOUS
 62
    64
 10
-82.044247
 20
-40.27609
 11
-80.329478
 21
-40.27609
  0
LINE
  8
ボルト／ビス
  6
CONTINUOUS
 62
    64
 10
-76.829482
 20
-37.676095
 11
-76.921185
 21
-38.724258
  0
ARC
  8
ボルト／ビス
  6
CONTINUOUS
 62
    64
 10
-78.614712
 20
-38.57609
 40
1.7
 50
270.0
 51
355.000011
  0
LINE
  8
ボルト／ビス
  6
CONTINUOUS
 62
    64
 10
-78.614715
 20
-40.27609
 11
-80.329478
 21
-40.27609
  0
LINE
  8
ボルト／ビス
  6
CONTINUOUS
 62
    64
 10
-82.726117
 20
-39.89119
 11
-82.726117
 21
-40.13335
  0
LINE
  8
ボルト／ビス
  6
CONTINUOUS
 62
    64
 10
-81.029483
 20
-39.241105
 11
-80.329478
 21
-39.241105
  0
LINE
  8
ボルト／ビス
  6
CONTINUOUS
 62
    64
 10
-81.42948
 20
-39.89119
 11
-82.726117
 21
-39.89119
  0
LINE
  8
ボルト／ビス
  6
CONTINUOUS
 62
    64
 10
-81.029483
 20
-39.241105
 11
-81.029483
 21
-39.491185
  0
ARC
  8
ボルト／ビス
  6
CONTINUOUS
 62
    64
 10
-81.429479
 20
-39.491185
 40
0.4
 50
270.0
 51
360.0
  0
LINE
  8
ボルト／ビス
  6
CONTINUOUS
 62
    64
 10
-77.932838
 20
-39.89119
 11
-77.932838
 21
-40.13335
  0
LINE
  8
ボルト／ビス
  6
CONTINUOUS
 62
    64
 10
-79.62948
 20
-39.241105
 11
-80.329478
 21
-39.241105
  0
LINE
  8
ボルト／ビス
  6
CONTINUOUS
 62
    64
 10
-79.229482
 20
-39.89119
 11
-77.932838
 21
-39.89119
  0
LINE
  8
ボルト／ビス
  6
CONTINUOUS
 62
    64
 10
-79.62948
 20
-39.241105
 11
-79.62948
 21
-39.491185
  0
ARC
  8
ボルト／ビス
  6
CONTINUOUS
 62
    64
 10
-79.229479
 20
-39.491185
 40
0.4
 50
180.0
 51
270.0
  0
LINE
  8
ボルト／ビス
  6
CONTINUOUS
 62
    64
 10
-83.82948
 20
-37.676095
 11
-76.829482
 21
-37.676095
  0
LINE
  8
ボルト／ビス
  6
CONTINUOUS
 62
    64
 10
-82.32948
 20
-26.17609
 11
-81.829478
 21
-25.676095
  0
LINE
  8
ボルト／ビス
  6
CONTINUOUS
 62
    64
 10
-78.329482
 20
-26.17609
 11
-78.829478
 21
-25.676095
  0
LINE
  8
ボルト／ビス
  6
CONTINUOUS
 62
    64
 10
-82.32948
 20
-26.17609
 11
-78.329482
 21
-26.17609
  0
LINE
  8
ボルト／ビス
  6
CONTINUOUS
 62
    64
 10
-81.829478
 20
-25.676095
 11
-78.829478
 21
-25.676095
  0
LINE
  8
ボルト／ビス
  6
CONTINUOUS
 62
    64
 10
-81.829478
 20
-37.676095
 11
-81.829478
 21
-25.676095
  0
LINE
  8
ボルト／ビス
  6
CONTINUOUS
 62
    64
 10
-78.829478
 20
-37.676095
 11
-78.829478
 21
-25.676095
  0
LINE
  8
ボルト／ビス
  6
CONTINUOUS
 62
    64
 10
-78.329482
 20
-37.676095
 11
-78.329482
 21
-26.17609
  0
LINE
  8
ボルト／ビス
  6
CONTINUOUS
 62
    64
 10
-82.32948
 20
-37.676095
 11
-82.32948
 21
-26.17609
  0
LINE
  8
ボルト／ビス
  6
DASHDOT
 62
    64
 10
-80.329478
 20
-43.27609
 11
-80.329478
 21
-22.676095
  0
ENDBLK
  0
BLOCK
  2
*GRP_0032
 70
    65
 10
0.0
 20
0.0
  0
LINE
  8
ボルト／ビス
  6
CONTINUOUS
 62
    64
 10
-6.53094
 20
-64.871695
 11
-5.482777
 21
-64.779993
  0
ARC
  8
ボルト／ビス
  6
CONTINUOUS
 62
    64
 10
-5.630934
 20
-63.086464
 40
1.7
 50
274.999989
 51
360.0
  0
LINE
  8
ボルト／ビス
  6
CONTINUOUS
 62
    64
 10
-3.930937
 20
-63.086463
 11
-3.930937
 21
-61.371692
  0
LINE
  8
ボルト／ビス
  6
CONTINUOUS
 62
    64
 10
-6.53094
 20
-57.87169
 11
-5.482777
 21
-57.963393
  0
ARC
  8
ボルト／ビス
  6
CONTINUOUS
 62
    64
 10
-5.630934
 20
-59.656931
 40
1.7
 50
0.0
 51
85.000011
  0
LINE
  8
ボルト／ビス
  6
CONTINUOUS
 62
    64
 10
-3.930937
 20
-59.656923
 11
-3.930937
 21
-61.371692
  0
LINE
  8
ボルト／ビス
  6
CONTINUOUS
 62
    64
 10
-4.315845
 20
-63.768333
 11
-4.073685
 21
-63.768333
  0
LINE
  8
ボルト／ビス
  6
CONTINUOUS
 62
    64
 10
-4.96593
 20
-62.07169
 11
-4.96593
 21
-61.371692
  0
LINE
  8
ボルト／ビス
  6
CONTINUOUS
 62
    64
 10
-4.315845
 20
-62.471695
 11
-4.315845
 21
-63.768333
  0
LINE
  8
ボルト／ビス
  6
CONTINUOUS
 62
    64
 10
-4.96593
 20
-62.07169
 11
-4.715842
 21
-62.07169
  0
ARC
  8
ボルト／ビス
  6
CONTINUOUS
 62
    64
 10
-4.715839
 20
-62.471698
 40
0.4
 50
0.0
 51
90.0
  0
LINE
  8
ボルト／ビス
  6
CONTINUOUS
 62
    64
 10
-4.315845
 20
-58.975053
 11
-4.073685
 21
-58.975053
  0
LINE
  8
ボルト／ビス
  6
CONTINUOUS
 62
    64
 10
-4.96593
 20
-60.671695
 11
-4.96593
 21
-61.371692
  0
LINE
  8
ボルト／ビス
  6
CONTINUOUS
 62
    64
 10
-4.315845
 20
-60.27169
 11
-4.315845
 21
-58.975053
  0
LINE
  8
ボルト／ビス
  6
CONTINUOUS
 62
    64
 10
-4.96593
 20
-60.671695
 11
-4.715842
 21
-60.671695
  0
ARC
  8
ボルト／ビス
  6
CONTINUOUS
 62
    64
 10
-4.715839
 20
-60.271698
 40
0.4
 50
270.0
 51
360.0
  0
LINE
  8
ボルト／ビス
  6
CONTINUOUS
 62
    64
 10
-6.53094
 20
-64.871695
 11
-6.53094
 21
-57.87169
  0
LINE
  8
ボルト／ビス
  6
CONTINUOUS
 62
    64
 10
-22.030943
 20
-63.371695
 11
-22.530937
 21
-62.871692
  0
LINE
  8
ボルト／ビス
  6
CONTINUOUS
 62
    64
 10
-22.030943
 20
-59.37169
 11
-22.530937
 21
-59.871692
  0
LINE
  8
ボルト／ビス
  6
CONTINUOUS
 62
    64
 10
-22.030943
 20
-63.371695
 11
-22.030943
 21
-59.37169
  0
LINE
  8
ボルト／ビス
  6
CONTINUOUS
 62
    64
 10
-22.530937
 20
-62.871692
 11
-22.530937
 21
-59.871692
  0
LINE
  8
ボルト／ビス
  6
CONTINUOUS
 62
    64
 10
-6.53094
 20
-59.37169
 11
-22.030943
 21
-59.37169
  0
LINE
  8
ボルト／ビス
  6
CONTINUOUS
 62
    64
 10
-6.53094
 20
-63.371695
 11
-22.030943
 21
-63.371695
  0
LINE
  8
ボルト／ビス
  6
CONTINUOUS
 62
    64
 10
-6.53094
 20
-62.871692
 11
-22.530937
 21
-62.871692
  0
LINE
  8
ボルト／ビス
  6
CONTINUOUS
 62
    64
 10
-6.53094
 20
-59.871692
 11
-22.530937
 21
-59.871692
  0
LINE
  8
ボルト／ビス
  6
DASHDOT
 62
    64
 10
-0.930937
 20
-61.371692
 11
-25.530937
 21
-61.371692
  0
ENDBLK
  0
BLOCK
  2
*GRP_0033
 70
    65
 10
0.0
 20
0.0
  0
LINE
  8
ボルト／ビス
  6
CONTINUOUS
 62
    64
 10
-68.929418
 20
-11.871692
 11
-68.837715
 21
-10.82353
  0
ARC
  8
ボルト／ビス
  6
CONTINUOUS
 62
    64
 10
-67.144184
 20
-10.971695
 40
1.7
 50
90.0
 51
175.000011
  0
LINE
  8
ボルト／ビス
  6
CONTINUOUS
 62
    64
 10
-67.144185
 20
-9.271698
 11
-65.429415
 21
-9.271698
  0
LINE
  8
ボルト／ビス
  6
CONTINUOUS
 62
    64
 10
-61.92942
 20
-11.871692
 11
-62.021123
 21
-10.82353
  0
ARC
  8
ボルト／ビス
  6
CONTINUOUS
 62
    64
 10
-63.714651
 20
-10.971695
 40
1.7
 50
4.999989
 51
90.0
  0
LINE
  8
ボルト／ビス
  6
CONTINUOUS
 62
    64
 10
-63.714653
 20
-9.271698
 11
-65.429415
 21
-9.271698
  0
LINE
  8
ボルト／ビス
  6
CONTINUOUS
 62
    64
 10
-67.826055
 20
-9.656598
 11
-67.826055
 21
-9.414437
  0
LINE
  8
ボルト／ビス
  6
CONTINUOUS
 62
    64
 10
-66.12942
 20
-10.306682
 11
-65.429415
 21
-10.306682
  0
LINE
  8
ボルト／ビス
  6
CONTINUOUS
 62
    64
 10
-66.529417
 20
-9.656598
 11
-67.826055
 21
-9.656598
  0
LINE
  8
ボルト／ビス
  6
CONTINUOUS
 62
    64
 10
-66.12942
 20
-10.306682
 11
-66.12942
 21
-10.056603
  0
ARC
  8
ボルト／ビス
  6
CONTINUOUS
 62
    64
 10
-66.529418
 20
-10.0566
 40
0.4
 50
0.0
 51
90.0
  0
LINE
  8
ボルト／ビス
  6
CONTINUOUS
 62
    64
 10
-63.032775
 20
-9.656598
 11
-63.032775
 21
-9.414437
  0
LINE
  8
ボルト／ビス
  6
CONTINUOUS
 62
    64
 10
-64.729417
 20
-10.306682
 11
-65.429415
 21
-10.306682
  0
LINE
  8
ボルト／ビス
  6
CONTINUOUS
 62
    64
 10
-64.32942
 20
-9.656598
 11
-63.032775
 21
-9.656598
  0
LINE
  8
ボルト／ビス
  6
CONTINUOUS
 62
    64
 10
-64.729417
 20
-10.306682
 11
-64.729417
 21
-10.056603
  0
ARC
  8
ボルト／ビス
  6
CONTINUOUS
 62
    64
 10
-64.329418
 20
-10.0566
 40
0.4
 50
90.0
 51
180.0
  0
LINE
  8
ボルト／ビス
  6
CONTINUOUS
 62
    64
 10
-68.929418
 20
-11.871692
 11
-61.92942
 21
-11.871692
  0
LINE
  8
ボルト／ビス
  6
CONTINUOUS
 62
    64
 10
-67.429418
 20
-23.371698
 11
-66.929415
 21
-23.871692
  0
LINE
  8
ボルト／ビス
  6
CONTINUOUS
 62
    64
 10
-63.42942
 20
-23.371698
 11
-63.929415
 21
-23.871692
  0
LINE
  8
ボルト／ビス
  6
CONTINUOUS
 62
    64
 10
-67.429418
 20
-23.371698
 11
-63.42942
 21
-23.371698
  0
LINE
  8
ボルト／ビス
  6
CONTINUOUS
 62
    64
 10
-66.929415
 20
-23.871692
 11
-63.929415
 21
-23.871692
  0
LINE
  8
ボルト／ビス
  6
CONTINUOUS
 62
    64
 10
-66.929415
 20
-11.871692
 11
-66.929415
 21
-23.871692
  0
LINE
  8
ボルト／ビス
  6
CONTINUOUS
 62
    64
 10
-63.929415
 20
-11.871692
 11
-63.929415
 21
-23.871692
  0
LINE
  8
ボルト／ビス
  6
CONTINUOUS
 62
    64
 10
-63.42942
 20
-11.871692
 11
-63.42942
 21
-23.371698
  0
LINE
  8
ボルト／ビス
  6
CONTINUOUS
 62
    64
 10
-67.429418
 20
-11.871692
 11
-67.429418
 21
-23.371698
  0
LINE
  8
ボルト／ビス
  6
DASHDOT
 62
    64
 10
-65.429415
 20
-6.271698
 11
-65.429415
 21
-26.871692
  0
ENDBLK
  0
BLOCK
  2
*GRP_0034
 70
    65
 10
0.0
 20
0.0
  0
LINE
  8
ボルト／ビス
  6
CONTINUOUS
 62
    64
 10
-83.82948
 20
-39.676098
 11
-83.737777
 21
-40.72426
  0
ARC
  8
ボルト／ビス
  6
CONTINUOUS
 62
    64
 10
-82.044242
 20
-40.57609
 40
1.7
 50
184.999989
 51
270.0
  0
LINE
  8
ボルト／ビス
  6
CONTINUOUS
 62
    64
 10
-82.044247
 20
-42.276092
 11
-80.329478
 21
-42.276092
  0
LINE
  8
ボルト／ビス
  6
CONTINUOUS
 62
    64
 10
-76.829482
 20
-39.676098
 11
-76.921185
 21
-40.72426
  0
ARC
  8
ボルト／ビス
  6
CONTINUOUS
 62
    64
 10
-78.614708
 20
-40.57609
 40
1.7
 50
270.0
 51
355.000011
  0
LINE
  8
ボルト／ビス
  6
CONTINUOUS
 62
    64
 10
-78.614715
 20
-42.276092
 11
-80.329478
 21
-42.276092
  0
LINE
  8
ボルト／ビス
  6
CONTINUOUS
 62
    64
 10
-82.726117
 20
-41.891193
 11
-82.726117
 21
-42.133353
  0
LINE
  8
ボルト／ビス
  6
CONTINUOUS
 62
    64
 10
-81.029483
 20
-41.241107
 11
-80.329478
 21
-41.241107
  0
LINE
  8
ボルト／ビス
  6
CONTINUOUS
 62
    64
 10
-81.42948
 20
-41.891193
 11
-82.726117
 21
-41.891193
  0
LINE
  8
ボルト／ビス
  6
CONTINUOUS
 62
    64
 10
-81.029483
 20
-41.241107
 11
-81.029483
 21
-41.491187
  0
ARC
  8
ボルト／ビス
  6
CONTINUOUS
 62
    64
 10
-81.429475
 20
-41.491185
 40
0.4
 50
270.0
 51
360.0
  0
LINE
  8
ボルト／ビス
  6
CONTINUOUS
 62
    64
 10
-77.932838
 20
-41.891193
 11
-77.932838
 21
-42.133353
  0
LINE
  8
ボルト／ビス
  6
CONTINUOUS
 62
    64
 10
-79.62948
 20
-41.241107
 11
-80.329478
 21
-41.241107
  0
LINE
  8
ボルト／ビス
  6
CONTINUOUS
 62
    64
 10
-79.229482
 20
-41.891193
 11
-77.932838
 21
-41.891193
  0
LINE
  8
ボルト／ビス
  6
CONTINUOUS
 62
    64
 10
-79.62948
 20
-41.241107
 11
-79.62948
 21
-41.491187
  0
ARC
  8
ボルト／ビス
  6
CONTINUOUS
 62
    64
 10
-79.229475
 20
-41.491185
 40
0.4
 50
180.0
 51
270.0
  0
LINE
  8
ボルト／ビス
  6
CONTINUOUS
 62
    64
 10
-83.82948
 20
-39.676098
 11
-76.829482
 21
-39.676098
  0
LINE
  8
ボルト／ビス
  6
CONTINUOUS
 62
    64
 10
-82.32948
 20
-28.176092
 11
-81.829478
 21
-27.676098
  0
LINE
  8
ボルト／ビス
  6
CONTINUOUS
 62
    64
 10
-78.329482
 20
-28.176092
 11
-78.829478
 21
-27.676098
  0
LINE
  8
ボルト／ビス
  6
CONTINUOUS
 62
    64
 10
-82.32948
 20
-28.176092
 11
-78.329482
 21
-28.176092
  0
LINE
  8
ボルト／ビス
  6
CONTINUOUS
 62
    64
 10
-81.829478
 20
-27.676098
 11
-78.829478
 21
-27.676098
  0
LINE
  8
ボルト／ビス
  6
CONTINUOUS
 62
    64
 10
-81.829478
 20
-39.676098
 11
-81.829478
 21
-27.676098
  0
LINE
  8
ボルト／ビス
  6
CONTINUOUS
 62
    64
 10
-78.829478
 20
-39.676098
 11
-78.829478
 21
-27.676098
  0
LINE
  8
ボルト／ビス
  6
CONTINUOUS
 62
    64
 10
-78.329482
 20
-39.676098
 11
-78.329482
 21
-28.176092
  0
LINE
  8
ボルト／ビス
  6
CONTINUOUS
 62
    64
 10
-82.32948
 20
-39.676098
 11
-82.32948
 21
-28.176092
  0
LINE
  8
ボルト／ビス
  6
DASHDOT
 62
    64
 10
-80.329478
 20
-45.276092
 11
-80.329478
 21
-24.676098
  0
ENDBLK
  0
BLOCK
  2
*GRP_0035
 70
    65
 10
0.0
 20
0.0
  0
LINE
  8
ボルト／ビス
  6
CONTINUOUS
 62
    64
 10
108.17058
 20
26.628327
 11
109.218743
 21
26.536625
  0
ARC
  8
ボルト／ビス
  6
CONTINUOUS
 62
    64
 10
109.070579
 20
24.843105
 40
1.7
 50
0.0
 51
85.000011
  0
LINE
  8
ボルト／ビス
  6
CONTINUOUS
 62
    64
 10
110.770582
 20
24.843095
 11
110.770582
 21
23.128325
  0
LINE
  8
ボルト／ビス
  6
CONTINUOUS
 62
    64
 10
108.17058
 20
19.62833
 11
109.218743
 21
19.720032
  0
ARC
  8
ボルト／ビス
  6
CONTINUOUS
 62
    64
 10
109.070579
 20
21.413572
 40
1.7
 50
274.999989
 51
360.0
  0
LINE
  8
ボルト／ビス
  6
CONTINUOUS
 62
    64
 10
110.770582
 20
21.413563
 11
110.770582
 21
23.128325
  0
LINE
  8
ボルト／ビス
  6
CONTINUOUS
 62
    64
 10
110.385675
 20
25.524965
 11
110.627835
 21
25.524965
  0
LINE
  8
ボルト／ビス
  6
CONTINUOUS
 62
    64
 10
109.73559
 20
23.82833
 11
109.73559
 21
23.128325
  0
LINE
  8
ボルト／ビス
  6
CONTINUOUS
 62
    64
 10
110.385675
 20
24.228327
 11
110.385675
 21
25.524965
  0
LINE
  8
ボルト／ビス
  6
CONTINUOUS
 62
    64
 10
109.73559
 20
23.82833
 11
109.985678
 21
23.82833
  0
ARC
  8
ボルト／ビス
  6
CONTINUOUS
 62
    64
 10
109.985674
 20
24.228339
 40
0.4
 50
270.0
 51
360.0
  0
LINE
  8
ボルト／ビス
  6
CONTINUOUS
 62
    64
 10
110.385675
 20
20.731685
 11
110.627835
 21
20.731685
  0
LINE
  8
ボルト／ビス
  6
CONTINUOUS
 62
    64
 10
109.73559
 20
22.428327
 11
109.73559
 21
23.128325
  0
LINE
  8
ボルト／ビス
  6
CONTINUOUS
 62
    64
 10
110.385675
 20
22.02833
 11
110.385675
 21
20.731685
  0
LINE
  8
ボルト／ビス
  6
CONTINUOUS
 62
    64
 10
109.73559
 20
22.428327
 11
109.985678
 21
22.428327
  0
ARC
  8
ボルト／ビス
  6
CONTINUOUS
 62
    64
 10
109.985674
 20
22.028339
 40
0.4
 50
0.0
 51
90.0
  0
LINE
  8
ボルト／ビス
  6
CONTINUOUS
 62
    64
 10
108.17058
 20
26.628327
 11
108.17058
 21
19.62833
  0
LINE
  8
ボルト／ビス
  6
CONTINUOUS
 62
    64
 10
100.67058
 20
25.128327
 11
100.170578
 21
24.628325
  0
LINE
  8
ボルト／ビス
  6
CONTINUOUS
 62
    64
 10
100.67058
 20
21.12833
 11
100.170578
 21
21.628325
  0
LINE
  8
ボルト／ビス
  6
CONTINUOUS
 62
    64
 10
108.17058
 20
24.628325
 11
100.170578
 21
24.628325
  0
LINE
  8
ボルト／ビス
  6
CONTINUOUS
 62
    64
 10
108.17058
 20
25.128327
 11
100.67058
 21
25.128327
  0
LINE
  8
ボルト／ビス
  6
CONTINUOUS
 62
    64
 10
108.17058
 20
21.628325
 11
100.170578
 21
21.628325
  0
LINE
  8
ボルト／ビス
  6
CONTINUOUS
 62
    64
 10
108.17058
 20
21.12833
 11
100.67058
 21
21.12833
  0
LINE
  8
ボルト／ビス
  6
CONTINUOUS
 62
    64
 10
100.67058
 20
25.128327
 11
100.67058
 21
21.12833
  0
LINE
  8
ボルト／ビス
  6
CONTINUOUS
 62
    64
 10
100.170578
 20
24.628325
 11
100.170578
 21
21.628325
  0
LINE
  8
ボルト／ビス
  6
CONTINUOUS
 62
    64
 10
112.741965
 20
23.128325
 11
97.920082
 21
23.128325
  0
ENDBLK
  0
BLOCK
  2
*GRP_0036
 70
    65
 10
0.0
 20
0.0
  0
LINE
  8
ボルト／ビス
  6
CONTINUOUS
 62
    64
 10
108.17058
 20
-26.321665
 11
109.218743
 21
-26.413368
  0
ARC
  8
ボルト／ビス
  6
CONTINUOUS
 62
    64
 10
109.070584
 20
-28.106887
 40
1.7
 50
0.0
 51
85.000011
  0
LINE
  8
ボルト／ビス
  6
CONTINUOUS
 62
    64
 10
110.770582
 20
-28.106898
 11
110.770582
 21
-29.821667
  0
LINE
  8
ボルト／ビス
  6
CONTINUOUS
 62
    64
 10
108.17058
 20
-33.321663
 11
109.218743
 21
-33.22996
  0
ARC
  8
ボルト／ビス
  6
CONTINUOUS
 62
    64
 10
109.070584
 20
-31.536421
 40
1.7
 50
274.999989
 51
360.0
  0
LINE
  8
ボルト／ビス
  6
CONTINUOUS
 62
    64
 10
110.770582
 20
-31.53643
 11
110.770582
 21
-29.821667
  0
LINE
  8
ボルト／ビス
  6
CONTINUOUS
 62
    64
 10
110.385675
 20
-27.425028
 11
110.627835
 21
-27.425028
  0
LINE
  8
ボルト／ビス
  6
CONTINUOUS
 62
    64
 10
109.73559
 20
-29.121663
 11
109.73559
 21
-29.821667
  0
LINE
  8
ボルト／ビス
  6
CONTINUOUS
 62
    64
 10
110.385675
 20
-28.721665
 11
110.385675
 21
-27.425028
  0
LINE
  8
ボルト／ビス
  6
CONTINUOUS
 62
    64
 10
109.73559
 20
-29.121663
 11
109.985678
 21
-29.121663
  0
ARC
  8
ボルト／ビス
  6
CONTINUOUS
 62
    64
 10
109.985679
 20
-28.721654
 40
0.4
 50
270.0
 51
360.0
  0
LINE
  8
ボルト／ビス
  6
CONTINUOUS
 62
    64
 10
110.385675
 20
-32.218307
 11
110.627835
 21
-32.218307
  0
LINE
  8
ボルト／ビス
  6
CONTINUOUS
 62
    64
 10
109.73559
 20
-30.521665
 11
109.73559
 21
-29.821667
  0
LINE
  8
ボルト／ビス
  6
CONTINUOUS
 62
    64
 10
110.385675
 20
-30.921663
 11
110.385675
 21
-32.218307
  0
LINE
  8
ボルト／ビス
  6
CONTINUOUS
 62
    64
 10
109.73559
 20
-30.521665
 11
109.985678
 21
-30.521665
  0
ARC
  8
ボルト／ビス
  6
CONTINUOUS
 62
    64
 10
109.985679
 20
-30.921654
 40
0.4
 50
0.0
 51
90.0
  0
LINE
  8
ボルト／ビス
  6
CONTINUOUS
 62
    64
 10
108.17058
 20
-26.321665
 11
108.17058
 21
-33.321663
  0
LINE
  8
ボルト／ビス
  6
CONTINUOUS
 62
    64
 10
100.67058
 20
-27.821665
 11
100.170578
 21
-28.321667
  0
LINE
  8
ボルト／ビス
  6
CONTINUOUS
 62
    64
 10
100.67058
 20
-31.821663
 11
100.170578
 21
-31.321667
  0
LINE
  8
ボルト／ビス
  6
CONTINUOUS
 62
    64
 10
108.17058
 20
-28.321667
 11
100.170578
 21
-28.321667
  0
LINE
  8
ボルト／ビス
  6
CONTINUOUS
 62
    64
 10
108.17058
 20
-27.821665
 11
100.67058
 21
-27.821665
  0
LINE
  8
ボルト／ビス
  6
CONTINUOUS
 62
    64
 10
108.17058
 20
-31.321667
 11
100.170578
 21
-31.321667
  0
LINE
  8
ボルト／ビス
  6
CONTINUOUS
 62
    64
 10
108.17058
 20
-31.821663
 11
100.67058
 21
-31.821663
  0
LINE
  8
ボルト／ビス
  6
CONTINUOUS
 62
    64
 10
100.67058
 20
-27.821665
 11
100.67058
 21
-31.821663
  0
LINE
  8
ボルト／ビス
  6
CONTINUOUS
 62
    64
 10
100.170578
 20
-28.321667
 11
100.170578
 21
-31.321667
  0
LINE
  8
ボルト／ビス
  6
CONTINUOUS
 62
    64
 10
112.741965
 20
-29.821667
 11
97.920082
 21
-29.821667
  0
ENDBLK
  0
BLOCK
  2
*GRP_0037
 70
    65
 10
0.0
 20
0.0
  0
LINE
  8
ボルト／ビス
  6
CONTINUOUS
 62
    64
 10
55.721632
 20
61.728353
 11
45.221632
 21
61.728353
  0
LINE
  8
ボルト／ビス
  6
CONTINUOUS
 62
    64
 10
50.471632
 20
70.649172
 11
50.471632
 21
47.15926
  0
LINE
  8
ボルト／ビス
  6
CONTINUOUS
 62
    64
 10
45.221632
 20
61.728353
 11
45.221632
 21
63.128353
  0
ARC
  8
ボルト／ビス
  6
CONTINUOUS
 62
    64
 10
47.721635
 20
63.128352
 40
2.5
 50
90.0
 51
180.0
  0
LINE
  8
ボルト／ビス
  6
CONTINUOUS
 62
    64
 10
47.721632
 20
65.628353
 11
53.221632
 21
65.628353
  0
LINE
  8
ボルト／ビス
  6
CONTINUOUS
 62
    64
 10
55.721632
 20
61.728353
 11
55.721632
 21
63.128353
  0
ARC
  8
ボルト／ビス
  6
CONTINUOUS
 62
    64
 10
53.221635
 20
63.128352
 40
2.5
 50
0.0
 51
90.0
  0
LINE
  8
ボルト／ビス
  6
CONTINUOUS
 62
    64
 10
53.471632
 20
52.228353
 11
52.971632
 21
51.728353
  0
LINE
  8
ボルト／ビス
  6
CONTINUOUS
 62
    64
 10
47.471632
 20
52.228353
 11
47.971632
 21
51.728353
  0
LINE
  8
ボルト／ビス
  6
CONTINUOUS
 62
    64
 10
47.471632
 20
61.728353
 11
47.471632
 21
52.228353
  0
LINE
  8
ボルト／ビス
  6
CONTINUOUS
 62
    64
 10
47.971632
 20
61.728353
 11
47.971632
 21
51.728353
  0
LINE
  8
ボルト／ビス
  6
CONTINUOUS
 62
    64
 10
53.471632
 20
61.728353
 11
53.471632
 21
52.228353
  0
LINE
  8
ボルト／ビス
  6
CONTINUOUS
 62
    64
 10
47.471632
 20
52.228353
 11
53.471632
 21
52.228353
  0
LINE
  8
ボルト／ビス
  6
CONTINUOUS
 62
    64
 10
52.971632
 20
61.728353
 11
52.971632
 21
51.728353
  0
LINE
  8
ボルト／ビス
  6
CONTINUOUS
 62
    64
 10
47.971632
 20
51.728353
 11
52.971632
 21
51.728353
  0
ENDBLK
  0
BLOCK
  2
*GRP_0038
 70
    65
 10
0.0
 20
0.0
  0
LINE
  8
ボルト／ビス
  6
CONTINUOUS
 62
    64
 10
-23.279547
 20
36.72834
 11
-33.779547
 21
36.72834
  0
LINE
  8
ボルト／ビス
  6
CONTINUOUS
 62
    64
 10
-28.529547
 20
45.64916
 11
-28.529547
 21
22.159247
  0
LINE
  8
ボルト／ビス
  6
CONTINUOUS
 62
    64
 10
-33.779547
 20
36.72834
 11
-33.779547
 21
38.12834
  0
ARC
  8
ボルト／ビス
  6
CONTINUOUS
 62
    64
 10
-31.279545
 20
38.128339
 40
2.5
 50
90.0
 51
180.0
  0
LINE
  8
ボルト／ビス
  6
CONTINUOUS
 62
    64
 10
-31.279547
 20
40.62834
 11
-25.779547
 21
40.62834
  0
LINE
  8
ボルト／ビス
  6
CONTINUOUS
 62
    64
 10
-23.279547
 20
36.72834
 11
-23.279547
 21
38.12834
  0
ARC
  8
ボルト／ビス
  6
CONTINUOUS
 62
    64
 10
-25.779545
 20
38.128339
 40
2.5
 50
0.0
 51
90.0
  0
LINE
  8
ボルト／ビス
  6
CONTINUOUS
 62
    64
 10
-25.529547
 20
27.22834
 11
-26.029547
 21
26.72834
  0
LINE
  8
ボルト／ビス
  6
CONTINUOUS
 62
    64
 10
-31.529547
 20
27.22834
 11
-31.029547
 21
26.72834
  0
LINE
  8
ボルト／ビス
  6
CONTINUOUS
 62
    64
 10
-31.529547
 20
36.72834
 11
-31.529547
 21
27.22834
  0
LINE
  8
ボルト／ビス
  6
CONTINUOUS
 62
    64
 10
-31.029547
 20
36.72834
 11
-31.029547
 21
26.72834
  0
LINE
  8
ボルト／ビス
  6
CONTINUOUS
 62
    64
 10
-25.529547
 20
36.72834
 11
-25.529547
 21
27.22834
  0
LINE
  8
ボルト／ビス
  6
CONTINUOUS
 62
    64
 10
-31.529547
 20
27.22834
 11
-25.529547
 21
27.22834
  0
LINE
  8
ボルト／ビス
  6
CONTINUOUS
 62
    64
 10
-26.029547
 20
36.72834
 11
-26.029547
 21
26.72834
  0
LINE
  8
ボルト／ビス
  6
CONTINUOUS
 62
    64
 10
-31.029547
 20
26.72834
 11
-26.029547
 21
26.72834
  0
ENDBLK
  0
BLOCK
  2
*GRP_0039
 70
    65
 10
0.0
 20
0.0
  0
LINE
  8
ボルト／ビス
  6
CONTINUOUS
 10
11.4702
 20
-54.371658
 11
11.561902
 21
-53.323495
  0
ARC
  8
ボルト／ビス
  6
CONTINUOUS
 10
13.255435
 20
-53.471654
 40
1.7
 50
90.0
 51
175.000011
  0
LINE
  8
ボルト／ビス
  6
CONTINUOUS
 10
13.255432
 20
-51.771655
 11
14.970195
 21
-51.771655
  0
LINE
  8
ボルト／ビス
  6
CONTINUOUS
 10
18.470197
 20
-54.371658
 11
18.378495
 21
-53.323495
  0
ARC
  8
ボルト／ビス
  6
CONTINUOUS
 10
16.684969
 20
-53.471654
 40
1.7
 50
4.999989
 51
90.0
  0
LINE
  8
ボルト／ビス
  6
CONTINUOUS
 10
16.684965
 20
-51.771655
 11
14.970195
 21
-51.771655
  0
LINE
  8
ボルト／ビス
  6
CONTINUOUS
 10
12.573555
 20
-52.156563
 11
12.573555
 21
-51.914402
  0
LINE
  8
ボルト／ビス
  6
CONTINUOUS
 10
14.270197
 20
-52.806647
 11
14.970195
 21
-52.806647
  0
LINE
  8
ボルト／ビス
  6
CONTINUOUS
 10
13.8702
 20
-52.156563
 11
12.573555
 21
-52.156563
  0
LINE
  8
ボルト／ビス
  6
CONTINUOUS
 10
14.270197
 20
-52.806647
 11
14.270197
 21
-52.55656
  0
ARC
  8
ボルト／ビス
  6
CONTINUOUS
 10
13.870202
 20
-52.556559
 40
0.4
 50
0.0
 51
90.0
  0
LINE
  8
ボルト／ビス
  6
CONTINUOUS
 10
17.366835
 20
-52.156563
 11
17.366835
 21
-51.914402
  0
LINE
  8
ボルト／ビス
  6
CONTINUOUS
 10
15.6702
 20
-52.806647
 11
14.970195
 21
-52.806647
  0
LINE
  8
ボルト／ビス
  6
CONTINUOUS
 10
16.070197
 20
-52.156563
 11
17.366835
 21
-52.156563
  0
LINE
  8
ボルト／ビス
  6
CONTINUOUS
 10
15.6702
 20
-52.806647
 11
15.6702
 21
-52.55656
  0
ARC
  8
ボルト／ビス
  6
CONTINUOUS
 10
16.070202
 20
-52.556559
 40
0.4
 50
90.0
 51
180.0
  0
LINE
  8
ボルト／ビス
  6
CONTINUOUS
 10
11.4702
 20
-54.371658
 11
18.470197
 21
-54.371658
  0
LINE
  8
ボルト／ビス
  6
CONTINUOUS
 10
14.970195
 20
-49.800273
 11
14.970195
 21
-70.014933
  0
LINE
  8
ボルト／ビス
  6
CONTINUOUS
 10
12.9702
 20
-67.871658
 11
13.470195
 21
-68.37166
  0
LINE
  8
ボルト／ビス
  6
CONTINUOUS
 10
16.970197
 20
-67.871658
 11
16.470195
 21
-68.37166
  0
LINE
  8
ボルト／ビス
  6
CONTINUOUS
 10
12.9702
 20
-67.871658
 11
16.970197
 21
-67.871658
  0
LINE
  8
ボルト／ビス
  6
CONTINUOUS
 10
13.470195
 20
-68.37166
 11
16.470195
 21
-68.37166
  0
LINE
  8
ボルト／ビス
  6
CONTINUOUS
 10
16.970197
 20
-54.371658
 11
16.970197
 21
-67.871658
  0
LINE
  8
ボルト／ビス
  6
CONTINUOUS
 10
12.9702
 20
-54.371658
 11
12.9702
 21
-67.871658
  0
LINE
  8
ボルト／ビス
  6
CONTINUOUS
 10
13.470195
 20
-54.371658
 11
13.470195
 21
-68.37166
  0
LINE
  8
ボルト／ビス
  6
CONTINUOUS
 10
16.470195
 20
-54.371658
 11
16.470195
 21
-68.37166
  0
ENDBLK
  0
BLOCK
  2
*GRP_0040
 70
    65
 10
0.0
 20
0.0
  0
LINE
  8
ボルト／ビス
  6
CONTINUOUS
 10
114.27024
 20
-44.77171
 11
115.318403
 21
-44.680008
  0
ARC
  8
ボルト／ビス
  6
CONTINUOUS
 10
115.17024
 20
-42.986484
 40
1.7
 50
274.999989
 51
360.0
  0
LINE
  8
ボルト／ビス
  6
CONTINUOUS
 10
116.870242
 20
-42.986477
 11
116.870242
 21
-41.271715
  0
LINE
  8
ボルト／ビス
  6
CONTINUOUS
 10
114.27024
 20
-37.771713
 11
115.318403
 21
-37.863415
  0
ARC
  8
ボルト／ビス
  6
CONTINUOUS
 10
115.17024
 20
-39.55695
 40
1.7
 50
0.0
 51
85.000011
  0
LINE
  8
ボルト／ビス
  6
CONTINUOUS
 10
116.870242
 20
-39.556945
 11
116.870242
 21
-41.271715
  0
LINE
  8
ボルト／ビス
  6
CONTINUOUS
 10
116.485335
 20
-43.668355
 11
116.727495
 21
-43.668355
  0
LINE
  8
ボルト／ビス
  6
CONTINUOUS
 10
115.83525
 20
-41.971713
 11
115.83525
 21
-41.271715
  0
LINE
  8
ボルト／ビス
  6
CONTINUOUS
 10
116.485335
 20
-42.37171
 11
116.485335
 21
-43.668355
  0
LINE
  8
ボルト／ビス
  6
CONTINUOUS
 10
115.83525
 20
-41.971713
 11
116.085338
 21
-41.971713
  0
ARC
  8
ボルト／ビス
  6
CONTINUOUS
 10
116.085335
 20
-42.371717
 40
0.4
 50
0.0
 51
90.0
  0
LINE
  8
ボルト／ビス
  6
CONTINUOUS
 10
116.485335
 20
-38.875075
 11
116.727495
 21
-38.875075
  0
LINE
  8
ボルト／ビス
  6
CONTINUOUS
 10
115.83525
 20
-40.57171
 11
115.83525
 21
-41.271715
  0
LINE
  8
ボルト／ビス
  6
CONTINUOUS
 10
116.485335
 20
-40.171713
 11
116.485335
 21
-38.875075
  0
LINE
  8
ボルト／ビス
  6
CONTINUOUS
 10
115.83525
 20
-40.57171
 11
116.085338
 21
-40.57171
  0
ARC
  8
ボルト／ビス
  6
CONTINUOUS
 10
116.085335
 20
-40.171717
 40
0.4
 50
270.0
 51
360.0
  0
LINE
  8
ボルト／ビス
  6
CONTINUOUS
 10
114.27024
 20
-44.77171
 11
114.27024
 21
-37.771713
  0
LINE
  8
ボルト／ビス
  6
CONTINUOUS
 10
118.841625
 20
-41.271715
 11
98.626965
 21
-41.271715
  0
LINE
  8
ボルト／ビス
  6
CONTINUOUS
 10
100.77024
 20
-43.27171
 11
100.270238
 21
-42.771715
  0
LINE
  8
ボルト／ビス
  6
CONTINUOUS
 10
100.77024
 20
-39.271713
 11
100.270238
 21
-39.771715
  0
LINE
  8
ボルト／ビス
  6
CONTINUOUS
 10
100.77024
 20
-43.27171
 11
100.77024
 21
-39.271713
  0
LINE
  8
ボルト／ビス
  6
CONTINUOUS
 10
100.270238
 20
-42.771715
 11
100.270238
 21
-39.771715
  0
LINE
  8
ボルト／ビス
  6
CONTINUOUS
 10
114.27024
 20
-39.271713
 11
100.77024
 21
-39.271713
  0
LINE
  8
ボルト／ビス
  6
CONTINUOUS
 10
114.27024
 20
-43.27171
 11
100.77024
 21
-43.27171
  0
LINE
  8
ボルト／ビス
  6
CONTINUOUS
 10
114.27024
 20
-42.771715
 11
100.270238
 21
-42.771715
  0
LINE
  8
ボルト／ビス
  6
CONTINUOUS
 10
114.27024
 20
-39.771715
 11
100.270238
 21
-39.771715
  0
ENDBLK
  0
BLOCK
  2
*GRP_0041
 70
    65
 10
0.0
 20
0.0
  0
POLYLINE
  8
寸法
  6
BYBLOCK
 62
     0
 66
     1
  0
VERTEX
  8
寸法
 10
-72.742407
 20
-34.820865
  0
VERTEX
  8
寸法
 10
-75.340482
 20
-33.320865
  0
VERTEX
  8
寸法
 10
-73.840482
 20
-35.91894
  0
SEQEND
  0
POLYLINE
  8
寸法
  6
BYBLOCK
 62
     0
 66
     1
  0
VERTEX
  8
寸法
 10
-75.340482
 20
-33.320865
  0
VERTEX
  8
寸法
 10
-60.027485
 20
-48.633863
  0
VERTEX
  8
寸法
 10
-60.027485
 20
-50.635542
  0
SEQEND
  0
ENDBLK
  0
BLOCK
  2
*GRP_0042
 70
    65
 10
0.0
 20
0.0
  0
POLYLINE
  8
寸法
  6
BYBLOCK
 62
     0
 66
     1
  0
VERTEX
  8
寸法
 10
-49.945717
 20
-61.63667
  0
VERTEX
  8
寸法
 10
-48.445717
 20
-59.038595
  0
VERTEX
  8
寸法
 10
-51.043795
 20
-60.538595
  0
SEQEND
  0
POLYLINE
  8
寸法
  6
BYBLOCK
 62
     0
 66
     1
  0
VERTEX
  8
寸法
 10
-48.445717
 20
-59.038595
  0
VERTEX
  8
寸法
 10
-52.712997
 20
-63.305875
  0
VERTEX
  8
寸法
 10
-52.712997
 20
-67.290668
  0
SEQEND
  0
ENDBLK
  0
BLOCK
  2
*GRP_0043
 70
    65
 10
0.0
 20
0.0
  0
POLYLINE
  8
寸法
  6
BYBLOCK
 62
     0
 66
     1
  0
VERTEX
  8
寸法
 10
-13.846155
 20
-67.435623
  0
VERTEX
  8
寸法
 10
-16.44423
 20
-65.935623
  0
VERTEX
  8
寸法
 10
-14.94423
 20
-68.533698
  0
SEQEND
  0
POLYLINE
  8
寸法
  6
BYBLOCK
 62
     0
 66
     1
  0
VERTEX
  8
寸法
 10
-16.44423
 20
-65.935623
  0
VERTEX
  8
寸法
 10
-4.112252
 20
-78.2676
  0
VERTEX
  8
寸法
 10
-4.112252
 20
-100.211785
  0
SEQEND
  0
ENDBLK
  0
BLOCK
  2
*GRP_0044
 70
    65
 10
0.0
 20
0.0
  0
POLYLINE
  8
寸法
  6
BYBLOCK
 62
     0
 66
     1
  0
VERTEX
  8
寸法
 10
-53.42088
 20
-14.808162
  0
VERTEX
  8
寸法
 10
-51.92088
 20
-17.406238
  0
VERTEX
  8
寸法
 10
-54.518955
 20
-15.906238
  0
SEQEND
  0
POLYLINE
  8
寸法
  6
BYBLOCK
 62
     0
 66
     1
  0
VERTEX
  8
寸法
 10
-51.92088
 20
-17.406238
  0
VERTEX
  8
寸法
 10
-58.74785
 20
-10.579267
  0
VERTEX
  8
寸法
 10
-58.74785
 20
-3.577553
  0
SEQEND
  0
ENDBLK
  0
BLOCK
  2
*GRP_0045
 70
    65
 10
0.0
 20
0.0
  0
POLYLINE
  8
寸法
  6
BYBLOCK
 62
     0
 66
     1
  0
VERTEX
  8
寸法
 10
-69.459508
 20
16.603038
  0
VERTEX
  8
寸法
 10
-70.959508
 20
14.004962
  0
VERTEX
  8
寸法
 10
-68.361432
 20
15.504962
  0
SEQEND
  0
POLYLINE
  8
寸法
  6
BYBLOCK
 62
     0
 66
     1
  0
VERTEX
  8
寸法
 10
-70.959508
 20
14.004962
  0
VERTEX
  8
寸法
 10
-61.792487
 20
23.17198
  0
VERTEX
  8
寸法
 10
-61.792487
 20
25.593817
  0
SEQEND
  0
ENDBLK
  0
BLOCK
  2
*DIM_0046
 70
    65
 10
0.0
 20
0.0
  0
LINE
  8
寸法
  6
CONTINUOUS
 10
-103.333062
 20
3.62828
 11
-144.287543
 21
3.62828
  0
LINE
  8
寸法
  6
CONTINUOUS
 10
-37.329478
 20
-79.271695
 11
-144.287543
 21
-79.271695
  0
LINE
  8
寸法
  6
CONTINUOUS
 10
-144.287543
 20
3.62828
 11
-144.287543
 21
-79.271695
  0
POINT
  8
寸法
 10
-144.287543
 20
3.62828
  0
POINT
  8
寸法
 10
-144.287543
 20
-79.271695
  0
TEXT
  7
TextStyle03
  8
寸法
  6
CONTINUOUS
 10
-144.625
 20
-42.275
  1
82.9
 40
4.0
 50
90.0
 72
     5
 11
-144.625
 21
-33.525
  0
ENDBLK
  0
BLOCK
  2
*DIM_0047
 70
    65
 10
0.0
 20
0.0
  0
LINE
  8
寸法
  6
CONTINUOUS
 10
-116.8295
 20
-51.37174
 11
-137.217853
 21
-51.37174
  0
LINE
  8
寸法
  6
CONTINUOUS
 10
-137.217853
 20
3.62828
 11
-137.217853
 21
-51.37174
  0
POINT
  8
寸法
 10
-137.217853
 20
3.62828
  0
POINT
  8
寸法
 10
-137.217853
 20
-51.37174
  0
TEXT
  7
TextStyle03
  8
寸法
  6
CONTINUOUS
 10
-137.575
 20
-26.075
  1
55
 40
4.0
 50
90.0
 72
     5
 11
-137.575
 21
-21.825
  0
ENDBLK
  0
BLOCK
  2
*DIM_0048
 70
    65
 10
0.0
 20
0.0
  0
LINE
  8
寸法
  6
CONTINUOUS
 10
-118.6295
 20
23.62826
 11
-129.885888
 21
23.62826
  0
LINE
  8
寸法
  6
CONTINUOUS
 10
-129.885888
 20
3.62828
 11
-129.885888
 21
23.62826
  0
POINT
  8
寸法
 10
-129.885888
 20
3.62828
  0
POINT
  8
寸法
 10
-129.885888
 20
23.62826
  0
TEXT
  7
TextStyle03
  8
寸法
  6
CONTINUOUS
 10
-130.225
 20
11.425
  1
20
 40
4.0
 50
90.0
 72
     5
 11
-130.225
 21
15.675
  0
ENDBLK
  0
BLOCK
  2
*DIM_0049
 70
    65
 10
0.0
 20
0.0
  0
LINE
  8
寸法
  6
CONTINUOUS
 10
79.47052
 20
61.128327
 11
-137.217853
 21
61.128327
  0
LINE
  8
寸法
  6
CONTINUOUS
 10
-137.217853
 20
3.62828
 11
-137.217853
 21
61.128327
  0
POINT
  8
寸法
 10
-137.217853
 20
3.62828
  0
POINT
  8
寸法
 10
-137.217853
 20
61.128327
  0
TEXT
  7
TextStyle03
  8
寸法
  6
CONTINUOUS
 10
-137.575
 20
29.01875
  1
57.5
 40
3.0
 50
90.0
 72
     5
 11
-137.575
 21
35.58125
  0
ENDBLK
  0
BLOCK
  2
*GRP_0050
 70
    65
 10
0.0
 20
0.0
  0
POLYLINE
  8
寸法
  6
BYBLOCK
 62
     0
 66
     1
  0
VERTEX
  8
寸法
 10
98.667
 20
-81.869777
  0
VERTEX
  8
寸法
 10
100.167
 20
-79.271702
  0
VERTEX
  8
寸法
 10
97.568925
 20
-80.771702
  0
SEQEND
  0
POLYLINE
  8
寸法
  6
BYBLOCK
 62
     0
 66
     1
  0
VERTEX
  8
寸法
 10
100.167
 20
-79.271702
  0
VERTEX
  8
寸法
 10
92.326045
 20
-87.112658
  0
VERTEX
  8
寸法
 10
92.326045
 20
-106.539148
  0
SEQEND
  0
ENDBLK
  0
BLOCK
  2
*GRP_0051
 70
    65
 10
0.0
 20
0.0
  0
POLYLINE
  8
寸法
  6
BYBLOCK
 62
     0
 66
     1
  0
VERTEX
  8
寸法
 10
108.055578
 20
5.347983
  0
VERTEX
  8
寸法
 10
106.555578
 20
2.749907
  0
VERTEX
  8
寸法
 10
109.153652
 20
4.249907
  0
SEQEND
  0
POLYLINE
  8
寸法
  6
BYBLOCK
 62
     0
 66
     1
  0
VERTEX
  8
寸法
 10
106.555578
 20
2.749907
  0
VERTEX
  8
寸法
 10
118.918405
 20
15.112735
  0
VERTEX
  8
寸法
 10
118.918405
 20
22.110227
  0
SEQEND
  0
ENDBLK
  0
BLOCK
  2
*GRP_0052
 70
    65
 10
0.0
 20
0.0
  0
POLYLINE
  8
寸法
  6
BYBLOCK
 62
     0
 66
     1
  0
VERTEX
  8
寸法
 10
1.141232
 20
-44.115708
  0
VERTEX
  8
寸法
 10
-0.358767
 20
-46.713782
  0
VERTEX
  8
寸法
 10
2.239307
 20
-45.213782
  0
SEQEND
  0
POLYLINE
  8
寸法
  6
BYBLOCK
 62
     0
 66
     1
  0
VERTEX
  8
寸法
 10
-0.358767
 20
-46.713782
  0
VERTEX
  8
寸法
 10
9.000905
 20
-37.35411
  0
VERTEX
  8
寸法
 10
9.000905
 20
-35.907595
  0
SEQEND
  0
ENDBLK
  0
BLOCK
  2
*GRP_0053
 70
    65
 10
0.0
 20
0.0
  0
POLYLINE
  8
寸法
  6
BYBLOCK
 62
     0
 66
     1
  0
VERTEX
  8
寸法
 10
3.99824
 20
-64.72017
  0
VERTEX
  8
寸法
 10
1.832877
 20
-66.796512
  0
VERTEX
  8
寸法
 10
4.746307
 20
-66.08103
  0
SEQEND
  0
POLYLINE
  8
寸法
  6
BYBLOCK
 62
     0
 66
     1
  0
VERTEX
  8
寸法
 10
1.832877
 20
-66.796512
  0
VERTEX
  8
寸法
 10
23.869303
 20
-54.683035
  0
VERTEX
  8
寸法
 10
23.869303
 20
-57.051455
  0
SEQEND
  0
ENDBLK
  0
BLOCK
  2
*GRP_0054
 70
    65
 10
0.0
 20
0.0
  0
POLYLINE
  8
寸法
  6
CONTINUOUS
 66
     1
  0
VERTEX
  8
寸法
 10
37.574577
 20
75.90005
  0
VERTEX
  8
寸法
 10
18.143253
 20
99.795168
  0
VERTEX
  8
寸法
 10
18.143253
 20
105.9683
  0
SEQEND
  0
ENDBLK
  0
BLOCK
  2
*GRP_0055
 70
    65
 10
0.0
 20
0.0
  0
LINE
  8
寸法
  6
CONTINUOUS
 10
18.143253
 20
99.795168
 11
-15.242565
 21
78.37689
  0
ENDBLK
  0
BLOCK
  2
*GRP_0056
 70
    65
 10
0.0
 20
0.0
  0
POLYLINE
  8
寸法
  6
CONTINUOUS
 66
     1
  0
VERTEX
  8
寸法
 10
2.575455
 20
49.710468
  0
VERTEX
  8
寸法
 10
0.487823
 20
52.053257
  0
VERTEX
  8
寸法
 10
0.487823
 20
55.194745
  0
SEQEND
  0
ENDBLK
  0
BLOCK
  2
*DIM_0057
 70
    65
 10
0.0
 20
0.0
  0
LINE
  8
寸法
  6
CONTINUOUS
 10
-66.8295
 20
-51.676095
 11
-66.8295
 21
-86.805228
  0
LINE
  8
寸法
  6
CONTINUOUS
 10
-116.829508
 20
-53.371742
 11
-116.829508
 21
-86.805228
  0
LINE
  8
寸法
  6
CONTINUOUS
 10
-66.8295
 20
-86.805228
 11
-116.829508
 21
-86.805228
  0
POINT
  8
寸法
 10
-116.829508
 20
-86.805228
 50
-180.0
  0
TEXT
  7
TextStyle03
  8
寸法
  6
CONTINUOUS
 10
-90.20625
 20
-87.225
  1
50
 40
3.0
 50
180.0
 72
     5
 11
-93.39375
 21
-87.225
  0
ENDBLK
  0
BLOCK
  2
*DIM_0058
 70
    65
 10
0.0
 20
0.0
  0
LINE
  8
寸法
  6
CONTINUOUS
 10
-66.8295
 20
-51.676095
 11
-66.8295
 21
-86.805228
  0
LINE
  8
寸法
  6
CONTINUOUS
 10
-32.329478
 20
-86.805228
 11
-66.8295
 21
-86.805228
  0
POINT
  8
寸法
 10
-32.329478
 20
-86.805228
 50
-180.0
  0
POINT
  8
寸法
 10
-66.8295
 20
-86.805228
 50
-180.0
  0
TEXT
  7
TextStyle03
  8
寸法
  6
CONTINUOUS
 10
-46.26875
 20
-87.225
  1
34.5
 40
3.0
 50
180.0
 72
     5
 11
-52.83125
 21
-87.225
  0
ENDBLK
  0
BLOCK
  2
*DIM_0059
 70
    65
 10
0.0
 20
0.0
  0
LINE
  8
寸法
  6
CONTINUOUS
 10
2.670525
 20
-84.271695
 11
2.670525
 21
-86.805228
  0
LINE
  8
寸法
  6
CONTINUOUS
 10
-32.329478
 20
-84.271695
 11
-32.329478
 21
-86.805228
  0
LINE
  8
寸法
  6
CONTINUOUS
 10
2.670525
 20
-86.805228
 11
-32.329478
 21
-86.805228
  0
POINT
  8
寸法
 10
-32.329478
 20
-86.805228
 50
-180.0
  0
TEXT
  7
TextStyle03
  8
寸法
  6
CONTINUOUS
 10
-13.20625
 20
-87.225
  1
35
 40
3.0
 50
180.0
 72
     5
 11
-16.39375
 21
-87.225
  0
ENDBLK
  0
BLOCK
  2
*DIM_0060
 70
    65
 10
0.0
 20
0.0
  0
LINE
  8
寸法
  6
CONTINUOUS
 10
2.670525
 20
-84.271695
 11
2.670525
 21
-86.805228
  0
LINE
  8
寸法
  6
CONTINUOUS
 10
3.770557
 20
-78.371677
 11
3.770557
 21
-86.805228
  0
LINE
  8
寸法
  6
CONTINUOUS
 10
2.670525
 20
-86.805228
 11
3.770557
 21
-86.805228
  0
POINT
  8
寸法
 10
2.670525
 20
-86.805228
 50
-180.0
  0
POINT
  8
寸法
 10
3.770557
 20
-86.805228
 50
-180.0
  0
TEXT
  7
TextStyle03
  8
寸法
  6
CONTINUOUS
 10
5.6875
 20
-87.225
  1
1.1
 40
3.0
 50
180.0
 72
     5
 11
0.8125
 21
-87.225
  0
ENDBLK
  0
BLOCK
  2
*DIM_0061
 70
    65
 10
0.0
 20
0.0
  0
LINE
  8
寸法
  6
CONTINUOUS
 10
-116.829503
 20
-52.811035
 11
-116.829503
 21
-97.286295
  0
LINE
  8
寸法
  6
CONTINUOUS
 10
126.77169
 20
-84.271717
 11
126.77169
 21
-97.286295
  0
LINE
  8
寸法
  6
CONTINUOUS
 10
-116.829503
 20
-97.286295
 11
126.77169
 21
-97.286295
  0
POINT
  8
寸法
 10
-116.829503
 20
-97.286295
 50
-180.0
  0
POINT
  8
寸法
 10
126.77169
 20
-97.286295
 50
-180.0
  0
TEXT
  7
TextStyle03
  8
寸法
  6
CONTINUOUS
 10
9.125
 20
-97.725
  1
243.5
 40
3.0
 50
180.0
 72
     5
 11
0.875
 21
-97.725
  0
ENDBLK
  0
BLOCK
  2
*DIM_0062
 70
    65
 10
0.0
 20
0.0
  0
LINE
  8
寸法
  6
CONTINUOUS
 10
126.77169
 20
-84.271717
 11
126.77169
 21
-97.286295
  0
LINE
  8
寸法
  6
CONTINUOUS
 10
136.871693
 20
-59.271713
 11
136.871693
 21
-97.286295
  0
LINE
  8
寸法
  6
CONTINUOUS
 10
126.77169
 20
-97.286295
 11
136.871693
 21
-97.286295
  0
POINT
  8
寸法
 10
136.871693
 20
-97.286295
 50
-180.0
  0
TEXT
  7
TextStyle03
  8
寸法
  6
CONTINUOUS
 10
135.13125
 20
-97.725
  1
10.1
 40
3.0
 50
180.0
 72
     5
 11
128.56875
 21
-97.725
  0
ENDBLK
  0
BLOCK
  2
*DIM_0063
 70
    65
 10
0.0
 20
0.0
  0
LINE
  8
寸法
  6
CONTINUOUS
 10
50.470515
 20
51.02833
 11
50.470515
 21
83.983855
  0
LINE
  8
寸法
  6
CONTINUOUS
 10
84.47052
 20
66.128327
 11
84.47052
 21
83.983855
  0
LINE
  8
寸法
  6
CONTINUOUS
 10
50.470515
 20
83.983855
 11
84.47052
 21
83.983855
  0
POINT
  8
寸法
 10
84.47052
 20
83.983855
 50
-180.0
  0
TEXT
  7
TextStyle03
  8
寸法
  6
CONTINUOUS
 10
69.09375
 20
83.55
  1
34
 40
3.0
 50
180.0
 72
     5
 11
65.90625
 21
83.55
  0
ENDBLK
  0
BLOCK
  2
*DIM_0064
 70
    65
 10
0.0
 20
0.0
  0
LINE
  8
寸法
  6
CONTINUOUS
 10
84.47052
 20
66.128327
 11
84.47052
 21
83.983855
  0
LINE
  8
寸法
  6
CONTINUOUS
 10
98.470515
 20
66.128327
 11
98.470515
 21
83.983855
  0
LINE
  8
寸法
  6
CONTINUOUS
 10
84.47052
 20
83.983855
 11
98.470515
 21
83.983855
  0
POINT
  8
寸法
 10
98.470515
 20
83.983855
 50
-180.0
  0
TEXT
  7
TextStyle03
  8
寸法
  6
CONTINUOUS
 10
93.09375
 20
83.55
  1
14
 40
3.0
 50
180.0
 72
     5
 11
89.90625
 21
83.55
  0
ENDBLK
  0
BLOCK
  2
*DIM_0065
 70
    65
 10
0.0
 20
0.0
  0
LINE
  8
寸法
  6
CONTINUOUS
 10
98.470515
 20
66.128327
 11
98.470515
 21
96.481653
  0
LINE
  8
寸法
  6
CONTINUOUS
 10
104.970578
 20
33.128335
 11
104.970578
 21
96.481653
  0
LINE
  8
寸法
  6
CONTINUOUS
 10
98.470515
 20
96.481653
 11
104.970578
 21
96.481653
  0
POINT
  8
寸法
 10
104.970578
 20
96.481653
 50
-180.0
  0
TEXT
  7
TextStyle03
  8
寸法
  6
CONTINUOUS
 10
104.1875
 20
96.05
  1
6.5
 40
3.0
 50
180.0
 72
     5
 11
99.3125
 21
96.05
  0
ENDBLK
  0
BLOCK
  2
*DIM_0066
 70
    65
 10
0.0
 20
0.0
  0
LINE
  8
寸法
  6
CONTINUOUS
 10
-116.829503
 20
25.817072
 11
-116.829503
 21
96.481653
  0
LINE
  8
寸法
  6
CONTINUOUS
 10
98.470515
 20
66.128327
 11
98.470515
 21
96.481653
  0
LINE
  8
寸法
  6
CONTINUOUS
 10
-116.829503
 20
96.481653
 11
98.470515
 21
96.481653
  0
POINT
  8
寸法
 10
-116.829503
 20
96.481653
 50
-180.0
  0
POINT
  8
寸法
 10
98.470515
 20
96.481653
 50
-180.0
  0
TEXT
  7
TextStyle03
  8
寸法
  6
CONTINUOUS
 10
-5.025
 20
96.05
  1
215.3
 40
3.0
 50
180.0
 72
     5
 11
-13.275
 21
96.05
  0
ENDBLK
  0
BLOCK
  2
*DIM_0067
 70
    65
 10
0.0
 20
0.0
  0
LINE
  8
寸法
  6
CONTINUOUS
 10
-28.529468
 20
51.02833
 11
-28.529468
 21
83.983855
  0
LINE
  8
寸法
  6
CONTINUOUS
 10
50.470515
 20
51.02833
 11
50.470515
 21
83.983855
  0
LINE
  8
寸法
  6
CONTINUOUS
 10
-28.529468
 20
83.983855
 11
50.470515
 21
83.983855
  0
POINT
  8
寸法
 10
-28.529468
 20
83.983855
 50
-180.0
  0
POINT
  8
寸法
 10
50.470515
 20
83.983855
 50
-180.0
  0
TEXT
  7
TextStyle03
  8
寸法
  6
CONTINUOUS
 10
12.59375
 20
83.55
  1
79
 40
3.0
 50
180.0
 72
     5
 11
9.40625
 21
83.55
  0
ENDBLK
  0
BLOCK
  2
*DIM_0068
 70
    65
 10
0.0
 20
0.0
  0
LINE
  8
寸法
  6
CONTINUOUS
 10
-28.529547
 20
18.285315
 11
-28.529547
 21
83.983855
  0
LINE
  8
寸法
  6
CONTINUOUS
 10
-70.529545
 20
83.983855
 11
-28.529547
 21
83.983855
  0
POINT
  8
寸法
 10
-70.529545
 20
83.983855
 50
-180.0
  0
POINT
  8
寸法
 10
-28.529547
 20
83.983855
 50
-180.0
  0
TEXT
  7
TextStyle03
  8
寸法
  6
CONTINUOUS
 10
-47.90625
 20
83.55
  1
42
 40
3.0
 50
180.0
 72
     5
 11
-51.09375
 21
83.55
  0
ENDBLK
  0
BLOCK
  2
*DIM_0069
 70
    65
 10
0.0
 20
0.0
  0
LINE
  8
寸法
  6
CONTINUOUS
 10
-70.529483
 20
28.323903
 11
-70.529483
 21
83.983855
  0
LINE
  8
寸法
  6
CONTINUOUS
 10
-85.029485
 20
75.623345
 11
-85.029485
 21
83.983855
  0
LINE
  8
寸法
  6
CONTINUOUS
 10
-70.529483
 20
83.983855
 11
-85.029485
 21
83.983855
  0
POINT
  8
寸法
 10
-70.529483
 20
83.983855
 50
-180.0
  0
POINT
  8
寸法
 10
-85.029485
 20
83.983855
 50
-180.0
  0
TEXT
  7
TextStyle03
  8
寸法
  6
CONTINUOUS
 10
-74.46875
 20
83.55
  1
14.5
 40
3.0
 50
180.0
 72
     5
 11
-81.03125
 21
83.55
  0
ENDBLK
  0
BLOCK
  2
*DIM_0070
 70
    65
 10
0.0
 20
0.0
  0
LINE
  8
寸法
  6
CONTINUOUS
 10
-85.029485
 20
75.623345
 11
-85.029485
 21
83.983855
  0
LINE
  8
寸法
  6
CONTINUOUS
 10
-102.829485
 20
75.623345
 11
-102.829485
 21
83.983855
  0
LINE
  8
寸法
  6
CONTINUOUS
 10
-85.029485
 20
83.983855
 11
-102.829485
 21
83.983855
  0
POINT
  8
寸法
 10
-102.829485
 20
83.983855
 50
-180.0
  0
TEXT
  7
TextStyle03
  8
寸法
  6
CONTINUOUS
 10
-90.61875
 20
83.55
  1
17.8
 40
3.0
 50
180.0
 72
     5
 11
-97.18125
 21
83.55
  0
ENDBLK
  0
BLOCK
  2
*DIM_0071
 70
    65
 10
0.0
 20
0.0
  0
LINE
  8
寸法
  6
CONTINUOUS
 10
-102.829485
 20
75.623345
 11
-102.829485
 21
83.983855
  0
LINE
  8
寸法
  6
CONTINUOUS
 10
-116.829503
 20
26.025825
 11
-116.829503
 21
83.983855
  0
LINE
  8
寸法
  6
CONTINUOUS
 10
-102.829485
 20
83.983855
 11
-116.829503
 21
83.983855
  0
POINT
  8
寸法
 10
-116.829503
 20
83.983855
 50
-180.0
  0
TEXT
  7
TextStyle03
  8
寸法
  6
CONTINUOUS
 10
-108.20625
 20
83.55
  1
14
 40
3.0
 50
180.0
 72
     5
 11
-111.39375
 21
83.55
  0
ENDBLK
  0
BLOCK
  2
*DIM_0072
 70
    65
 10
0.0
 20
0.0
  0
LINE
  8
寸法
  6
CONTINUOUS
 10
104.971695
 20
33.128342
 11
104.971695
 21
96.481653
  0
LINE
  8
寸法
  6
CONTINUOUS
 10
136.871693
 20
-47.271717
 11
136.871693
 21
96.481653
  0
LINE
  8
寸法
  6
CONTINUOUS
 10
104.971695
 20
96.481653
 11
136.871693
 21
96.481653
  0
POINT
  8
寸法
 10
104.971695
 20
96.481653
 50
-180.0
  0
POINT
  8
寸法
 10
136.871693
 20
96.481653
 50
-180.0
  0
TEXT
  7
TextStyle03
  8
寸法
  6
CONTINUOUS
 10
124.23125
 20
96.05
  1
31.9
 40
3.0
 50
180.0
 72
     5
 11
117.66875
 21
96.05
  0
ENDBLK
  0
BLOCK
  2
*DIM_0073
 70
    65
 10
0.0
 20
0.0
  0
LINE
  8
寸法
  6
CONTINUOUS
 10
141.871693
 20
-54.271713
 11
162.106122
 21
-54.271713
  0
LINE
  8
寸法
  6
CONTINUOUS
 10
131.77169
 20
-79.271717
 11
162.106122
 21
-79.271717
  0
LINE
  8
寸法
  6
CONTINUOUS
 10
162.106122
 20
-54.271713
 11
162.106122
 21
-79.271717
  0
POINT
  8
寸法
 10
162.106122
 20
-54.271713
  0
POINT
  8
寸法
 10
162.106122
 20
-79.271717
  0
TEXT
  7
TextStyle03
  8
寸法
  6
CONTINUOUS
 10
161.725
 20
-68.41875
  1
25
 40
3.0
 50
90.0
 72
     5
 11
161.725
 21
-65.23125
  0
ENDBLK
  0
BLOCK
  2
*DIM_0074
 70
    65
 10
0.0
 20
0.0
  0
LINE
  8
寸法
  6
CONTINUOUS
 10
3.77169
 20
-78.371662
 11
3.77169
 21
-86.805228
  0
LINE
  8
寸法
  6
CONTINUOUS
 10
126.77169
 20
-84.271717
 11
126.77169
 21
-86.805228
  0
LINE
  8
寸法
  6
CONTINUOUS
 10
3.77169
 20
-86.805228
 11
126.77169
 21
-86.805228
  0
POINT
  8
寸法
 10
3.77169
 20
-86.805228
 50
-180.0
  0
POINT
  8
寸法
 10
126.77169
 20
-86.805228
 50
-180.0
  0
TEXT
  7
TextStyle03
  8
寸法
  6
CONTINUOUS
 10
67.7125
 20
-87.2
  1
123
 40
3.0
 50
180.0
 72
     5
 11
62.8375
 21
-87.2
  0
ENDBLK
  0
BLOCK
  2
*GRP_0075
 70
    65
 10
0.0
 20
0.0
  0
LINE
  8
別途部材
  6
CONTINUOUS
 10
-111.8295
 20
-51.37174
 11
-111.8295
 21
-49.87174
  0
LINE
  8
別途部材
  6
CONTINUOUS
 10
-113.829503
 20
-51.37174
 11
-111.8295
 21
-51.37174
  0
ARC
  8
別途部材
  6
CONTINUOUS
 10
-113.829508
 20
-48.371742
 40
3.0
 50
180.0
 51
270.0
  0
LINE
  8
別途部材
  6
CONTINUOUS
 10
-113.829503
 20
-49.87174
 11
-111.8295
 21
-49.87174
  0
ARC
  8
別途部材
  6
CONTINUOUS
 10
-113.829508
 20
-48.371742
 40
1.5
 50
180.0
 51
270.0
  0
LINE
  8
別途部材
  6
CONTINUOUS
 10
-115.329503
 20
-48.37174
 11
-115.329503
 21
-46.676095
  0
LINE
  8
別途部材
  6
CONTINUOUS
 10
-113.6295
 20
15.628257
 11
-114.8295
 21
15.628257
  0
LINE
  8
別途部材
  6
CONTINUOUS
 10
-115.829505
 20
23.62826
 11
-113.6295
 21
23.62826
  0
ARC
  8
別途部材
  6
CONTINUOUS
 10
-115.829508
 20
22.628258
 40
1.0
 50
90.0
 51
180.0
  0
LINE
  8
別途部材
  6
CONTINUOUS
 10
-113.6295
 20
23.62826
 11
-113.6295
 21
15.628257
  0
LINE
  8
別途部材
  6
CONTINUOUS
 10
-116.829503
 20
-48.37174
 11
-116.829503
 21
22.628262
  0
LINE
  8
別途部材
  6
CONTINUOUS
 10
-114.8295
 20
-4.176092
 11
-114.8295
 21
15.628257
  0
ARC
  8
別途部材
  6
CONTINUOUS
 10
-111.829497
 20
-4.176099
 40
3.0
 50
180.0
 51
270.0
  0
LINE
  8
別途部材
  6
CONTINUOUS
 10
-103.829483
 20
-7.476092
 11
-104.129482
 21
-7.176092
  0
LINE
  8
別途部材
  6
CONTINUOUS
 10
-103.829483
 20
-7.476092
 11
-103.529483
 21
-7.176092
  0
LINE
  8
別途部材
  6
CONTINUOUS
 10
-111.8295
 20
-7.176092
 11
-104.129482
 21
-7.176092
  0
LINE
  8
別途部材
  6
CONTINUOUS
 10
-103.529483
 20
-7.176092
 11
-97.32948
 21
-7.176092
  0
LINE
  8
別途部材
  6
CONTINUOUS
 10
-80.329478
 20
-46.376095
 11
-80.629478
 21
-46.676095
  0
LINE
  8
別途部材
  6
CONTINUOUS
 10
-80.329478
 20
-46.376095
 11
-80.029478
 21
-46.676095
  0
LINE
  8
別途部材
  6
CONTINUOUS
 10
-115.329503
 20
-46.676095
 11
-80.629478
 21
-46.676095
  0
LINE
  8
別途部材
  6
CONTINUOUS
 10
-80.029478
 20
-46.676095
 11
-66.8295
 21
-46.676095
  0
LINE
  8
別途部材
  6
CONTINUOUS
 10
-92.329478
 20
-38.176098
 11
-75.329475
 21
-38.176098
  0
LINE
  8
別途部材
  6
CONTINUOUS
 10
-75.329475
 20
-39.676098
 11
-75.329475
 21
-38.176098
  0
LINE
  8
別途部材
  6
CONTINUOUS
 10
-66.8295
 20
-46.676095
 11
-66.8295
 21
-45.176095
  0
LINE
  8
別途部材
  6
CONTINUOUS
 10
-92.329478
 20
-38.176098
 11
-92.329478
 21
-45.176095
  0
LINE
  8
別途部材
  6
CONTINUOUS
 10
-90.829478
 20
-39.676098
 11
-90.829478
 21
-45.176095
  0
LINE
  8
別途部材
  6
CONTINUOUS
 10
-90.829478
 20
-45.176095
 11
-66.8295
 21
-45.176095
  0
LINE
  8
別途部材
  6
CONTINUOUS
 10
-97.32948
 20
-45.176095
 11
-92.329478
 21
-45.176095
  0
LINE
  8
別途部材
  6
CONTINUOUS
 10
-80.329478
 20
-39.376098
 11
-80.629478
 21
-39.676098
  0
LINE
  8
別途部材
  6
CONTINUOUS
 10
-80.329478
 20
-39.376098
 11
-80.029478
 21
-39.676098
  0
LINE
  8
別途部材
  6
CONTINUOUS
 10
-90.829478
 20
-39.676098
 11
-80.629478
 21
-39.676098
  0
LINE
  8
別途部材
  6
CONTINUOUS
 10
-80.029478
 20
-39.676098
 11
-75.329475
 21
-39.676098
  0
LINE
  8
別途部材
  6
DOT
 10
-85.32948
 20
-46.676095
 11
-85.32948
 21
-45.176095
  0
LINE
  8
別途部材
  6
DOT
 10
-75.329475
 20
-46.676095
 11
-75.329475
 21
-45.176095
  0
LINE
  8
別途部材
  6
CONTINUOUS
 10
-115.329503
 20
-45.176095
 11
-115.329503
 21
-8.676092
  0
LINE
  8
別途部材
  6
DOT
 10
-85.32948
 20
-46.301095
 11
-75.329475
 21
-46.301095
  0
LINE
  8
別途部材
  6
DOT
 10
-85.32948
 20
-45.926095
 11
-75.329475
 21
-45.926095
  0
LINE
  8
別途部材
  6
DOT
 10
-85.32948
 20
-45.551095
 11
-75.329475
 21
-45.551095
  0
LINE
  8
別途部材
  6
CONTINUOUS
 10
-115.329503
 20
-8.676092
 11
-98.82948
 21
-8.676092
  0
LINE
  8
別途部材
  6
CONTINUOUS
 10
-115.329503
 20
-45.176095
 11
-98.82948
 21
-45.176095
  0
LINE
  8
別途部材
  6
CONTINUOUS
 10
-98.82948
 20
-8.676092
 11
-98.82948
 21
-45.176095
  0
LINE
  8
別途部材
  6
CONTINUOUS
 10
-97.62948
 20
-30.4261
 11
-97.32948
 21
-30.1261
  0
LINE
  8
別途部材
  6
CONTINUOUS
 10
-97.62948
 20
-30.4261
 11
-97.32948
 21
-30.7261
  0
LINE
  8
別途部材
  6
CONTINUOUS
 10
-97.62948
 20
-17.926098
 11
-97.32948
 21
-17.626098
  0
LINE
  8
別途部材
  6
CONTINUOUS
 10
-97.62948
 20
-17.926098
 11
-97.32948
 21
-18.226098
  0
LINE
  8
別途部材
  6
CONTINUOUS
 10
-97.32948
 20
-30.1261
 11
-97.32948
 21
-18.226098
  0
LINE
  8
別途部材
  6
CONTINUOUS
 10
-97.32948
 20
-7.176092
 11
-97.32948
 21
-17.626098
  0
LINE
  8
別途部材
  6
CONTINUOUS
 10
-97.32948
 20
-45.176095
 11
-97.32948
 21
-30.7261
  0
ENDBLK
  0
BLOCK
  2
*GRP_0076
 70
    65
 10
0.0
 20
0.0
  0
LINE
  8
別途部材
  6
DOT
 10
115.271693
 20
-67.77172
 11
115.271693
 21
-77.771717
  0
LINE
  8
別途部材
  6
DOT
 10
125.27169
 20
-77.771717
 11
115.271693
 21
-77.771717
  0
INSERT
  2
*HAT_0005
  8
別途部材
 10
0.0
 20
0.0
  0
LINE
  8
別途部材
  6
DOT
 10
125.27169
 20
-67.77172
 11
115.271693
 21
-67.77172
  0
LINE
  8
別途部材
  6
DOT
 10
125.27169
 20
-67.77172
 11
125.27169
 21
-77.771717
  0
ENDBLK
  0
BLOCK
  2
*GRP_0077
 70
    65
 10
0.0
 20
0.0
  0
LINE
  8
曲げ物
  6
CONTINUOUS
 10
-107.329478
 20
-10.176092
 11
-100.32948
 21
-10.176092
  0
LINE
  8
曲げ物
  6
CONTINUOUS
 10
-100.32948
 20
-10.176092
 11
-100.32948
 21
-37.176092
  0
LINE
  8
曲げ物
  6
CONTINUOUS
 10
-100.32948
 20
-37.176092
 11
-107.329478
 21
-37.176092
  0
LINE
  8
曲げ物
  6
CONTINUOUS
 10
-107.329478
 20
-10.176092
 11
-107.329478
 21
-37.176092
  0
LINE
  8
曲げ物
  6
CONTINUOUS
 10
-108.829478
 20
-38.676092
 11
-98.82948
 21
-38.676092
  0
LINE
  8
曲げ物
  6
CONTINUOUS
 10
-98.82948
 20
-38.676092
 11
-98.82948
 21
-8.676092
  0
LINE
  8
曲げ物
  6
CONTINUOUS
 10
-98.82948
 20
-8.676092
 11
-108.829478
 21
-8.676092
  0
LINE
  8
曲げ物
  6
CONTINUOUS
 10
-108.829478
 20
-38.676092
 11
-108.829478
 21
-8.676092
  0
ENDBLK
  0
BLOCK
  2
*GRP_0078
 70
    65
 10
0.0
 20
0.0
  0
LINE
  8
鉄骨等
  6
CONTINUOUS
 10
2.670525
 20
-79.271695
 11
2.670525
 21
-77.771695
  0
LINE
  8
鉄骨等
  6
CONTINUOUS
 10
2.670525
 20
-77.771695
 11
-6.53094
 21
-77.771695
  0
LINE
  8
鉄骨等
  6
CONTINUOUS
 10
-8.03094
 20
-75.271698
 11
-8.03094
 21
-77.771695
  0
LINE
  8
鉄骨等
  6
CONTINUOUS
 10
-8.03094
 20
-75.271698
 11
-10.030943
 21
-75.271698
  0
LINE
  8
鉄骨等
  6
CONTINUOUS
 10
-8.03094
 20
-74.2717
 11
-10.030943
 21
-74.2717
  0
LINE
  8
鉄骨等
  6
CONTINUOUS
 10
-10.030943
 20
-75.271698
 11
-10.030943
 21
-74.2717
  0
LINE
  8
鉄骨等
  6
CONTINUOUS
 10
-13.129478
 20
-58.371692
 11
-13.129478
 21
-56.37169
  0
LINE
  8
鉄骨等
  6
CONTINUOUS
 10
-13.129478
 20
-64.371692
 11
-13.129478
 21
-66.371695
  0
LINE
  8
鉄骨等
  6
CONTINUOUS
 10
-13.129478
 20
-64.371692
 11
-8.03094
 21
-63.351985
  0
LINE
  8
鉄骨等
  6
CONTINUOUS
 10
-8.03094
 20
-63.351985
 11
-8.03094
 21
-59.3914
  0
LINE
  8
鉄骨等
  6
CONTINUOUS
 10
-13.129478
 20
-58.371692
 11
-8.03094
 21
-59.3914
  0
LINE
  8
鉄骨等
  6
CONTINUOUS
 10
-11.629478
 20
-66.371695
 11
-11.629478
 21
-65.37169
  0
LINE
  8
鉄骨等
  6
CONTINUOUS
 10
-13.129478
 20
-66.371695
 11
-11.629478
 21
-66.371695
  0
LINE
  8
鉄骨等
  6
CONTINUOUS
 10
-13.129478
 20
-56.37169
 11
-11.629478
 21
-56.37169
  0
LINE
  8
鉄骨等
  6
CONTINUOUS
 10
-11.629478
 20
-57.371695
 11
-11.629478
 21
-56.37169
  0
LINE
  8
鉄骨等
  6
CONTINUOUS
 10
-11.629478
 20
-57.371695
 11
-6.53094
 21
-57.371695
  0
LINE
  8
鉄骨等
  6
CONTINUOUS
 10
-11.629478
 20
-65.37169
 11
-8.03094
 21
-65.37169
  0
LINE
  8
鉄骨等
  6
CONTINUOUS
 10
-8.03094
 20
-74.2717
 11
-8.03094
 21
-65.37169
  0
LINE
  8
鉄骨等
  6
CONTINUOUS
 10
-65.29986
 20
-36.67609
 11
-62.067518
 21
-36.67609
  0
LINE
  8
鉄骨等
  6
CONTINUOUS
 10
-62.067518
 20
-36.67609
 11
-60.799763
 21
-38.222958
  0
LINE
  8
鉄骨等
  6
CONTINUOUS
 10
-60.799763
 20
-38.222958
 11
-60.026332
 21
-37.58908
  0
LINE
  8
鉄骨等
  6
CONTINUOUS
 10
2.670525
 20
-79.271695
 11
-32.329478
 21
-79.271695
  0
LINE
  8
鉄骨等
  6
CONTINUOUS
 10
-65.29986
 20
-36.67609
 11
-32.145398
 21
-77.129912
  0
LINE
  8
鉄骨等
  6
CONTINUOUS
 10
-8.03094
 20
-77.771695
 11
-30.789623
 21
-77.771695
  0
LINE
  8
鉄骨等
  6
CONTINUOUS
 10
-32.145398
 20
-77.129912
 11
-30.961965
 21
-74.629915
  0
LINE
  8
鉄骨等
  6
CONTINUOUS
 10
-30.789623
 20
-77.771695
 11
-29.60619
 21
-75.271698
  0
LINE
  8
鉄骨等
  6
CONTINUOUS
 10
-30.961965
 20
-74.629915
 11
-32.22972
 21
-73.083047
  0
LINE
  8
鉄骨等
  6
CONTINUOUS
 10
-32.22972
 20
-73.083047
 11
-31.456282
 21
-72.44917
  0
LINE
  8
鉄骨等
  6
CONTINUOUS
 10
-29.962605
 20
-74.2717
 11
-31.456282
 21
-72.44917
  0
LINE
  8
鉄骨等
  6
CONTINUOUS
 10
-29.60619
 20
-75.271698
 11
-27.606188
 21
-75.271698
  0
LINE
  8
鉄骨等
  6
CONTINUOUS
 10
-27.606188
 20
-75.271698
 11
-27.606188
 21
-74.2717
  0
LINE
  8
鉄骨等
  6
CONTINUOUS
 10
-29.962605
 20
-74.2717
 11
-27.606188
 21
-74.2717
  0
LINE
  8
鉄骨等
  6
CONTINUOUS
 10
-6.83094
 20
-61.371692
 11
-6.53094
 21
-61.071692
  0
LINE
  8
鉄骨等
  6
CONTINUOUS
 10
-6.83094
 20
-61.371692
 11
-6.53094
 21
-61.671692
  0
LINE
  8
鉄骨等
  6
CONTINUOUS
 10
-6.53094
 20
-61.071692
 11
-6.53094
 21
-57.371695
  0
ARC
  8
鉄骨等
  6
CONTINUOUS
 10
-1.830931
 20
-66.371687
 40
0.5
 50
270.0
 51
360.0
  0
LINE
  8
鉄骨等
  6
CONTINUOUS
 10
-1.330935
 20
-66.371688
 11
-1.330935
 21
-65.871692
  0
ARC
  8
鉄骨等
  6
CONTINUOUS
 10
-1.830931
 20
-65.871687
 40
0.5
 50
0.0
 51
90.0
  0
LINE
  8
鉄骨等
  6
CONTINUOUS
 10
-6.53094
 20
-77.771695
 11
-6.53094
 21
-66.87169
  0
LINE
  8
鉄骨等
  6
CONTINUOUS
 10
-1.830937
 20
-66.87169
 11
-6.53094
 21
-66.87169
  0
LINE
  8
鉄骨等
  6
CONTINUOUS
 10
-1.830937
 20
-65.37169
 11
-6.53094
 21
-65.37169
  0
LINE
  8
鉄骨等
  6
CONTINUOUS
 10
-6.53094
 20
-61.671692
 11
-6.53094
 21
-65.37169
  0
LINE
  8
鉄骨等
  6
CONTINUOUS
 10
-92.329478
 20
-35.676092
 11
-61.594147
 21
-35.676092
  0
LINE
  8
鉄骨等
  6
CONTINUOUS
 10
-60.026332
 20
-37.58908
 11
-61.594147
 21
-35.676092
  0
LINE
  8
鉄骨等
  6
CONTINUOUS
 10
-32.329478
 20
-79.271695
 11
-66.829485
 21
-37.176092
  0
LINE
  8
鉄骨等
  6
CONTINUOUS
 10
-92.329478
 20
-35.676092
 11
-92.329478
 21
-37.676095
  0
LINE
  8
鉄骨等
  6
CONTINUOUS
 10
-92.329478
 20
-37.676095
 11
-90.329475
 21
-37.676095
  0
LINE
  8
鉄骨等
  6
CONTINUOUS
 10
-90.329475
 20
-37.676095
 11
-90.329475
 21
-37.176092
  0
LINE
  8
鉄骨等
  6
CONTINUOUS
 10
-80.329478
 20
-37.376095
 11
-80.629478
 21
-37.676095
  0
LINE
  8
鉄骨等
  6
CONTINUOUS
 10
-80.329478
 20
-37.376095
 11
-80.029478
 21
-37.676095
  0
LINE
  8
鉄骨等
  6
CONTINUOUS
 10
-80.029478
 20
-37.676095
 11
-76.32948
 21
-37.676095
  0
LINE
  8
鉄骨等
  6
CONTINUOUS
 10
-80.629478
 20
-37.676095
 11
-84.329475
 21
-37.676095
  0
LINE
  8
鉄骨等
  6
CONTINUOUS
 10
-90.329475
 20
-37.176092
 11
-84.829478
 21
-37.176092
  0
LINE
  8
鉄骨等
  6
CONTINUOUS
 10
-84.329475
 20
-37.676095
 11
-84.829478
 21
-37.176092
  0
LINE
  8
鉄骨等
  6
CONTINUOUS
 10
-76.32948
 20
-37.676095
 11
-75.829478
 21
-37.176092
  0
LINE
  8
鉄骨等
  6
CONTINUOUS
 10
-66.829485
 20
-37.176092
 11
-75.829478
 21
-37.176092
  0
ENDBLK
  0
BLOCK
  2
*GRP_0079
 70
    65
 10
0.0
 20
0.0
  0
LINE
  8
St
  6
CONTINUOUS
 10
-8.03094
 20
-48.871675
 11
-8.030955
 21
-31.871673
  0
LINE
  8
St
  6
CONTINUOUS
 10
-8.03094
 20
-48.871675
 11
-18.12948
 21
-48.871675
  0
LINE
  8
St
  6
CONTINUOUS
 10
-11.02947
 20
-31.871673
 11
-8.030955
 21
-31.871673
  0
LINE
  8
St
  6
CONTINUOUS
 10
-19.62948
 20
-66.371688
 11
-18.12948
 21
-66.371688
  0
LINE
  8
St
  6
CONTINUOUS
 10
-74.82948
 20
-30.67609
 11
-74.82948
 21
-30.97609
  0
LINE
  8
St
  6
CONTINUOUS
 10
-74.82948
 20
-30.97609
 11
-75.329482
 21
-30.97609
  0
LINE
  8
St
  6
CONTINUOUS
 10
-75.329482
 20
-30.97609
 11
-75.329482
 21
-30.67609
  0
LINE
  8
St
  6
CONTINUOUS
 10
-36.529515
 20
-16.371797
 11
-41.529525
 21
-16.371797
  0
LINE
  8
St
  6
CONTINUOUS
 10
-41.529525
 20
-16.371797
 11
-45.029422
 21
-12.87172
  0
LINE
  8
St
  6
CONTINUOUS
 10
-46.529535
 20
-12.87172
 11
-45.029422
 21
-12.87172
  0
LINE
  8
St
  6
CONTINUOUS
 10
-20.529472
 20
-16.376087
 11
-15.529478
 21
-16.376087
  0
LINE
  8
St
  6
CONTINUOUS
 10
-20.529472
 20
-16.376087
 11
-20.529472
 21
-18.59575
  0
LINE
  8
St
  6
CONTINUOUS
 10
-36.529515
 20
-18.59578
 11
-36.529515
 21
-16.371797
  0
ARC
  8
St
  6
CONTINUOUS
 10
-10.529471
 20
-3.876077
 40
2.2
 50
90.0
 51
270.0
  0
LINE
  8
St
  6
CONTINUOUS
 10
-49.38264
 20
-2.876087
 11
-50.529472
 21
-2.876087
  0
LINE
  8
St
  6
CONTINUOUS
 10
-49.38264
 20
-2.876087
 11
-50.529472
 21
-4.376087
  0
LINE
  8
St
  6
CONTINUOUS
 10
-6.52947
 20
-2.876087
 11
-7.67631
 21
-2.876087
  0
LINE
  8
St
  6
CONTINUOUS
 10
-7.67631
 20
-2.876087
 11
-6.52947
 21
-4.376087
  0
LINE
  8
St
  6
CONTINUOUS
 10
-6.52947
 20
-2.876087
 11
-6.52947
 21
3.623915
  0
LINE
  8
St
  6
CONTINUOUS
 10
-6.52947
 20
3.623915
 11
-10.529475
 21
3.623915
  0
LINE
  8
St
  6
CONTINUOUS
 10
-10.529475
 20
-1.676087
 11
-10.529475
 21
3.623915
  0
LINE
  8
St
  6
CONTINUOUS
 10
-46.529475
 20
3.623915
 11
-50.529472
 21
3.623915
  0
LINE
  8
St
  6
CONTINUOUS
 10
-50.529472
 20
-2.876087
 11
-50.529472
 21
3.623915
  0
ARC
  8
St
  6
CONTINUOUS
 10
-46.529463
 20
-3.871668
 40
2.5
 50
300.705753
 51
419.293349
  0
LINE
  8
St
  6
CONTINUOUS
 10
-50.529472
 20
-16.371797
 11
-50.529472
 21
-4.376087
  0
LINE
  8
St
  6
CONTINUOUS
 10
-89.329478
 20
-19.871725
 11
-90.329475
 21
-20.871723
  0
LINE
  8
St
  6
CONTINUOUS
 10
-72.529455
 20
-28.676087
 11
-72.529455
 21
-16.371692
  0
LINE
  8
St
  6
CONTINUOUS
 10
-90.329475
 20
-11.871707
 11
-89.329478
 21
-12.871705
  0
LINE
  8
St
  6
CONTINUOUS
 10
-89.329478
 20
-19.871725
 11
-89.329478
 21
-12.871705
  0
LINE
  8
St
  6
CONTINUOUS
 10
-74.82948
 20
-30.67609
 11
-48.029468
 21
-30.67609
  0
LINE
  8
St
  6
CONTINUOUS
 10
-48.029468
 20
-31.871673
 11
-48.029468
 21
-30.67609
  0
LINE
  8
St
  6
CONTINUOUS
 10
-92.329478
 20
-16.671715
 11
-92.029478
 21
-16.371715
  0
LINE
  8
St
  6
CONTINUOUS
 10
-92.029478
 20
-16.371715
 11
-92.329478
 21
-16.071715
  0
LINE
  8
St
  6
CONTINUOUS
 10
-90.329475
 20
-11.871707
 11
-90.329475
 21
-8.676092
  0
LINE
  8
St
  6
CONTINUOUS
 10
-50.529472
 20
-16.371692
 11
-60.929415
 21
-16.371692
  0
POLYLINE
  8
St
  6
CONTINUOUS
 66
     1
  0
VERTEX
  8
St
 10
-18.12948
 20
-61.671685
  0
VERTEX
  8
St
 10
-18.42948
 20
-61.371685
  0
VERTEX
  8
St
 10
-18.12948
 20
-61.071685
  0
SEQEND
  0
POLYLINE
  8
St
  6
CONTINUOUS
 66
     1
  0
VERTEX
  8
St
 10
-19.62948
 20
-64.371685
  0
VERTEX
  8
St
 10
-20.129482
 20
-63.871683
  0
VERTEX
  8
St
 10
-20.129482
 20
-58.871688
  0
VERTEX
  8
St
 10
-19.62948
 20
-58.371685
  0
SEQEND
  0
LINE
  8
St
  6
CONTINUOUS
 10
-19.62948
 20
-66.371688
 11
-19.62948
 21
-64.371685
  0
LINE
  8
St
  6
CONTINUOUS
 10
-18.12948
 20
-66.371688
 11
-18.12948
 21
-61.671685
  0
LINE
  8
St
  6
CONTINUOUS
 10
-18.12948
 20
-61.071685
 11
-18.12948
 21
-50.371675
  0
ARC
  8
St
  6
CONTINUOUS
 10
-3.730968
 20
-49.871671
 40
0.5
 50
270.0
 51
360.0
  0
LINE
  8
St
  6
CONTINUOUS
 10
-3.23097
 20
-49.871673
 11
-3.23097
 21
-49.37167
  0
ARC
  8
St
  6
CONTINUOUS
 10
-3.730968
 20
-49.371671
 40
0.5
 50
0.0
 51
90.0
  0
LINE
  8
St
  6
CONTINUOUS
 10
-92.329478
 20
-30.67609
 11
-92.329478
 21
-16.671715
  0
LINE
  8
St
  6
CONTINUOUS
 10
-92.329478
 20
-16.071715
 11
-92.329478
 21
-7.176092
  0
LINE
  8
St
  6
CONTINUOUS
 10
-90.329475
 20
-20.871723
 11
-90.329475
 21
-23.23915
  0
LINE
  8
St
  6
CONTINUOUS
 10
-72.529455
 20
-28.676087
 11
-84.892545
 21
-28.676087
  0
LINE
  8
St
  6
CONTINUOUS
 10
-3.730973
 20
-50.371675
 11
-9.730935
 21
-50.371675
  0
LINE
  8
St
  6
CONTINUOUS
 10
-10.330935
 20
-50.371675
 11
-18.12948
 21
-50.371675
  0
ARC
  8
St
  6
CONTINUOUS
 10
-88.43668
 20
-24.178385
 40
0.75
 50
272.457576
 51
452.457232
  0
ARC
  8
St
  6
CONTINUOUS
 10
-85.831779
 20
-26.783286
 40
0.75
 50
357.542364
 51
537.542397
  0
ARC
  8
St
  6
CONTINUOUS
 10
-88.329479
 20
-26.676086
 40
1.75
 50
92.457615
 51
357.542407
  0
ARC
  8
St
  6
CONTINUOUS
 10
-88.329479
 20
-26.676086
 40
3.25
 50
92.457518
 51
113.578083
  0
ARC
  8
St
  6
CONTINUOUS
 10
-89.829473
 20
-23.239151
 40
0.5
 50
180.0
 51
293.578083
  0
ARC
  8
St
  6
CONTINUOUS
 10
-88.329479
 20
-26.676086
 40
3.25
 50
336.421841
 51
357.542389
  0
ARC
  8
St
  6
CONTINUOUS
 10
-84.892547
 20
-28.176084
 40
0.5
 50
156.421841
 51
270.0
  0
LINE
  8
St
  6
CONTINUOUS
 10
-10.030935
 20
-50.071675
 11
-10.330935
 21
-50.371675
  0
LINE
  8
St
  6
CONTINUOUS
 10
-10.030935
 20
-50.071675
 11
-9.730935
 21
-50.371675
  0
LINE
  8
St
  6
CONTINUOUS
 10
-46.529535
 20
-12.87172
 11
-46.529535
 21
-6.021183
  0
LINE
  8
St
  6
CONTINUOUS
 10
-45.252892
 20
-6.021183
 11
-46.529535
 21
-6.021183
  0
LINE
  8
St
  6
CONTINUOUS
 10
-45.252862
 20
-1.722198
 11
-46.529475
 21
-1.722198
  0
LINE
  8
St
  6
CONTINUOUS
 10
-46.529475
 20
3.623915
 11
-46.529475
 21
-1.722198
  0
LINE
  8
St
  6
CONTINUOUS
 10
-71.029455
 20
-28.676087
 11
-71.029455
 21
-17.871692
  0
LINE
  8
St
  6
CONTINUOUS
 10
-15.529478
 20
-16.376087
 11
-12.02511
 21
-12.87172
  0
LINE
  8
St
  6
CONTINUOUS
 10
-10.529475
 20
-6.076083
 11
-10.529475
 21
-12.87172
  0
LINE
  8
St
  6
CONTINUOUS
 10
-12.02511
 20
-12.87172
 11
-10.529475
 21
-12.87172
  0
LINE
  8
St
  6
CONTINUOUS
 10
-46.529468
 20
-18.876085
 11
-46.529475
 21
-27.04858
  0
LINE
  8
St
  6
CONTINUOUS
 10
-44.43795
 20
-27.609003
 11
-46.529475
 21
-27.04858
  0
ARC
  8
St
  6
CONTINUOUS
 10
-44.696767
 20
-28.574927
 40
1.0
 50
348.4746
 51
434.999996
  0
ARC
  8
St
  6
CONTINUOUS
 10
-12.362168
 20
-28.574927
 40
1.0
 50
105.000004
 51
191.5254
  0
ARC
  8
St
  6
CONTINUOUS
 10
-28.529467
 20
-31.871666
 40
15.500003
 50
168.4746
 51
371.5254
  0
LINE
  8
St
  6
CONTINUOUS
 10
-12.620993
 20
-27.609003
 11
-10.52946
 21
-27.04858
  0
ARC
  8
St
  6
CONTINUOUS
 10
-28.529467
 20
-31.871668
 40
19.5
 50
180.0
 51
221.955436
  0
LINE
  8
St
  6
CONTINUOUS
 10
-43.030935
 20
-44.908443
 11
-43.030935
 21
-48.871675
  0
LINE
  8
St
  6
CONTINUOUS
 10
-41.329485
 20
-51.071673
 11
-41.629485
 21
-51.371673
  0
LINE
  8
St
  6
CONTINUOUS
 10
-41.329485
 20
-51.071673
 11
-41.029485
 21
-51.371673
  0
LINE
  8
St
  6
CONTINUOUS
 10
-19.62948
 20
-58.371685
 11
-19.62948
 21
-51.371673
  0
LINE
  8
St
  6
CONTINUOUS
 10
-43.030935
 20
-48.871675
 11
-44.33094
 21
-48.871675
  0
LINE
  8
St
  6
CONTINUOUS
 10
-45.330937
 20
-49.871673
 11
-45.330937
 21
-51.371673
  0
LINE
  8
St
  6
CONTINUOUS
 10
-72.529455
 20
-16.371692
 11
-62.429415
 21
-16.371692
  0
LINE
  8
St
  6
CONTINUOUS
 10
-70.229415
 20
-11.871692
 11
-70.229415
 21
-13.371692
  0
LINE
  8
St
  6
CONTINUOUS
 10
-70.229415
 20
-13.371692
 11
-62.429415
 21
-13.371692
  0
LINE
  8
St
  6
CONTINUOUS
 10
-65.429415
 20
-12.171692
 11
-65.729415
 21
-11.871692
  0
LINE
  8
St
  6
CONTINUOUS
 10
-65.429415
 20
-12.171692
 11
-65.129415
 21
-11.871692
  0
LINE
  8
St
  6
CONTINUOUS
 10
-70.229415
 20
-11.871692
 11
-65.729415
 21
-11.871692
  0
LINE
  8
St
  6
CONTINUOUS
 10
-65.129415
 20
-11.871692
 11
-60.929415
 21
-11.871692
  0
LINE
  8
St
  6
CONTINUOUS
 10
-62.429415
 20
-16.371692
 11
-62.429415
 21
-13.371692
  0
LINE
  8
St
  6
CONTINUOUS
 10
-60.929415
 20
-16.371692
 11
-60.929415
 21
-11.871692
  0
LINE
  8
St
  6
CONTINUOUS
 10
-92.329478
 20
-7.176092
 11
-87.329475
 21
-7.176092
  0
LINE
  8
St
  6
CONTINUOUS
 10
-90.329475
 20
-8.676092
 11
-87.329475
 21
-8.676092
  0
LINE
  8
St
  6
CONTINUOUS
 10
-87.329475
 20
-8.676092
 11
-87.329475
 21
-7.176092
  0
LINE
  8
St
  6
CONTINUOUS
 10
-41.629485
 20
-51.371673
 11
-45.330937
 21
-51.371673
  0
LINE
  8
St
  6
CONTINUOUS
 10
-41.029485
 20
-51.371673
 11
-19.62948
 21
-51.371673
  0
LINE
  8
St
  6
CONTINUOUS
 10
-44.33094
 20
-48.871675
 11
-45.330937
 21
-49.871673
  0
ARC
  8
St
  6
CONTINUOUS
 10
-12.422271
 20
-23.373787
 40
0.75
 50
92.457576
 51
272.457232
  0
ARC
  8
St
  6
CONTINUOUS
 10
-15.027172
 20
-20.768886
 40
0.75
 50
177.542364
 51
357.542397
  0
ARC
  8
St
  6
CONTINUOUS
 10
-12.529472
 20
-20.876087
 40
1.75
 50
272.457615
 51
537.542407
  0
LINE
  8
St
  6
CONTINUOUS
 10
-6.52947
 20
-4.376087
 11
-6.529447
 21
-48.871675
  0
LINE
  8
St
  6
CONTINUOUS
 10
-3.730973
 20
-48.871675
 11
-6.529447
 21
-48.871675
  0
LINE
  8
St
  6
CONTINUOUS
 10
-10.52946
 20
-24.313015
 11
-10.52946
 21
-27.04858
  0
ARC
  8
St
  6
CONTINUOUS
 10
-12.529472
 20
-20.876087
 40
3.25
 50
272.457518
 51
293.578437
  0
ARC
  8
St
  6
CONTINUOUS
 10
-11.029456
 20
-24.313012
 40
0.5
 50
0.000053
 51
113.578437
  0
ARC
  8
St
  6
CONTINUOUS
 10
-12.529472
 20
-20.876087
 40
3.25
 50
156.421789
 51
177.542389
  0
ARC
  8
St
  6
CONTINUOUS
 10
-15.966403
 20
-19.376085
 40
0.5
 50
-23.578211
 51
90.0
  0
LINE
  8
St
  6
CONTINUOUS
 10
-18.12948
 20
-45.946112
 11
-18.12948
 21
-48.871675
  0
ARC
  8
St
  6
CONTINUOUS
 10
-28.529461
 20
-31.871665
 40
17.499997
 50
306.461684
 51
359.999975
  0
LINE
  8
St
  6
CONTINUOUS
 10
-71.029455
 20
-17.871692
 11
-48.52947
 21
-17.871692
  0
ARC
  8
St
  6
CONTINUOUS
 10
-50.422272
 20
-24.178385
 40
0.75
 50
87.542768
 51
267.542424
  0
ARC
  8
St
  6
CONTINUOUS
 10
-53.027173
 20
-26.783286
 40
0.75
 50
2.457603
 51
182.457636
  0
ARC
  8
St
  6
CONTINUOUS
 10
-50.529473
 20
-26.676086
 40
1.75
 50
182.457593
 51
447.542385
  0
LINE
  8
St
  6
CONTINUOUS
 10
-71.029455
 20
-28.676087
 11
-53.966407
 21
-28.676087
  0
ARC
  8
St
  6
CONTINUOUS
 10
-50.529473
 20
-26.676086
 40
3.25
 50
182.457611
 51
203.578172
  0
ARC
  8
St
  6
CONTINUOUS
 10
-53.966404
 20
-28.176085
 40
0.5
 50
270.0
 51
383.578172
  0
LINE
  8
St
  6
CONTINUOUS
 10
-48.52947
 20
-17.871692
 11
-48.52947
 21
-23.239157
  0
ARC
  8
St
  6
CONTINUOUS
 10
-50.529473
 20
-26.676086
 40
3.25
 50
66.421802
 51
87.542482
  0
ARC
  8
St
  6
CONTINUOUS
 10
-49.029471
 20
-23.239154
 40
0.5
 50
246.421802
 51
359.99996
  0
LINE
  8
St
  6
CONTINUOUS
 10
-46.529468
 20
-18.876085
 11
-40.861815
 21
-18.876085
  0
LINE
  8
St
  6
CONTINUOUS
 10
-39.866438
 20
-19.92499
 11
-40.861815
 21
-18.876085
  0
ARC
  8
St
  6
CONTINUOUS
 10
-28.529467
 20
-31.871666
 40
15.500003
 50
121.072924
 51
130.025403
  0
ARC
  8
St
  6
CONTINUOUS
 10
-39.141067
 20
-19.236634
 40
1.0
 50
223.500014
 51
310.025403
  0
ARC
  8
St
  6
CONTINUOUS
 10
-17.917869
 20
-19.236634
 40
1.0
 50
229.974597
 51
316.499986
  0
ARC
  8
St
  6
CONTINUOUS
 10
-28.529467
 20
-31.871666
 40
15.500003
 50
49.974601
 51
58.927076
  0
LINE
  8
St
  6
CONTINUOUS
 10
-17.19249
 20
-19.92499
 11
-16.19712
 21
-18.876085
  0
LINE
  8
St
  6
CONTINUOUS
 10
-15.966413
 20
-18.876085
 11
-16.19712
 21
-18.876085
  0
LINE
  8
St
  6
DOT
 10
-28.529468
 20
-31.871665
 11
-46.529475
 21
-27.04858
  0
LINE
  8
St
  6
DOT
 10
-28.529468
 20
-31.871665
 11
-40.861815
 21
-18.876085
  0
LINE
  8
St
  6
DOT
 10
-28.529468
 20
-31.871665
 11
-10.52946
 21
-27.04858
  0
LINE
  8
St
  6
DOT
 10
-28.529468
 20
-31.871665
 11
-16.19712
 21
-18.876085
  0
LINE
  8
St
  6
CONTINUOUS
 10
-80.329478
 20
-30.37609
 11
-80.629478
 21
-30.67609
  0
LINE
  8
St
  6
CONTINUOUS
 10
-80.329478
 20
-30.37609
 11
-80.029478
 21
-30.67609
  0
LINE
  8
St
  6
CONTINUOUS
 10
-75.329482
 20
-30.67609
 11
-80.029478
 21
-30.67609
  0
LINE
  8
St
  6
CONTINUOUS
 10
-80.629478
 20
-30.67609
 11
-92.329478
 21
-30.67609
  0
ENDBLK
  0
BLOCK
  2
*GRP_0080
 70
    65
 10
0.0
 20
0.0
  0
LINE
  8
St
  6
CONTINUOUS
 10
118.263615
 20
-20.67169
 11
121.463625
 21
-23.871692
  0
LINE
  8
St
  6
CONTINUOUS
 10
117.5565
 20
-20.67169
 11
120.75651
 21
-23.871692
  0
ARC
  8
St
  6
CONTINUOUS
 62
   127
 10
108.170588
 20
-20.671679
 40
3.2
 50
180.0
 51
270.0
  0
LINE
  8
St
  6
CONTINUOUS
 10
104.970578
 20
16.562795
 11
108.17058
 21
13.3628
  0
LINE
  8
St
  6
CONTINUOUS
 10
104.970578
 20
15.855688
 11
108.17058
 21
12.655693
  0
LINE
  8
St
  6
CONTINUOUS
 10
104.970578
 20
-12.078677
 11
108.17058
 21
-15.278672
  0
LINE
  8
St
  6
CONTINUOUS
 10
104.970578
 20
-12.785785
 11
108.17058
 21
-15.98578
  0
LINE
  8
St
  6
CONTINUOUS
 10
104.970578
 20
-28.07167
 11
108.17058
 21
-28.07167
  0
LINE
  8
St
  6
CONTINUOUS
 10
104.970578
 20
-31.571665
 11
108.17058
 21
-31.571665
  0
LINE
  8
St
  6
CONTINUOUS
 10
104.970578
 20
21.378327
 11
108.17058
 21
21.378327
  0
LINE
  8
St
  6
CONTINUOUS
 10
104.970578
 20
24.878322
 11
108.17058
 21
24.878322
  0
LINE
  8
St
  6
CONTINUOUS
 10
109.99767
 20
-29.821667
 11
103.34061
 21
-29.821667
  0
LINE
  8
St
  6
CONTINUOUS
 10
109.99767
 20
23.128325
 11
103.34061
 21
23.128325
  0
LINE
  8
St
  6
CONTINUOUS
 10
105.77058
 20
24.878322
 11
105.77058
 21
21.378327
  0
LINE
  8
St
  6
CONTINUOUS
 10
106.570575
 20
24.878322
 11
106.570575
 21
21.378327
  0
LINE
  8
St
  6
CONTINUOUS
 10
107.370578
 20
24.878322
 11
107.370578
 21
21.378327
  0
LINE
  8
St
  6
CONTINUOUS
 10
105.77058
 20
-28.07167
 11
105.77058
 21
-31.571665
  0
LINE
  8
St
  6
CONTINUOUS
 10
106.570575
 20
-28.07167
 11
106.570575
 21
-31.571665
  0
LINE
  8
St
  6
CONTINUOUS
 10
107.370578
 20
-28.07167
 11
107.370578
 21
-31.571665
  0
LINE
  8
St
  6
CONTINUOUS
 10
104.970578
 20
-33.678115
 11
108.17058
 21
-33.678115
  0
LINE
  8
St
  6
CONTINUOUS
 62
   127
 10
104.970578
 20
-33.678115
 11
104.970578
 21
28.128335
  0
LINE
  8
St
  6
CONTINUOUS
 62
   127
 10
108.17058
 20
-33.678115
 11
108.17058
 21
28.128335
  0
LINE
  8
St
  6
CONTINUOUS
 10
104.970578
 20
28.128335
 11
108.17058
 21
28.128335
  0
LINE
  8
St
  6
CONTINUOUS
 10
154.970565
 20
-20.67169
 11
154.970565
 21
-23.871692
  0
LINE
  8
St
  6
CONTINUOUS
 10
144.97056
 20
-20.67169
 11
144.97056
 21
-23.871692
  0
LINE
  8
St
  6
CONTINUOUS
 62
   127
 10
144.97056
 20
-21.471692
 11
154.970565
 21
-21.471692
  0
LINE
  8
St
  6
CONTINUOUS
 62
   127
 10
144.97056
 20
-22.271688
 11
154.970565
 21
-22.271688
  0
LINE
  8
St
  6
CONTINUOUS
 62
   127
 10
144.97056
 20
-23.07169
 11
154.970565
 21
-23.07169
  0
LINE
  8
St
  6
CONTINUOUS
 10
149.970563
 20
-17.543448
 11
149.970563
 21
-27.29128
  0
LINE
  8
St
  6
CONTINUOUS
 10
165.270578
 20
-20.67169
 11
165.270578
 21
-23.871692
  0
LINE
  8
St
  6
CONTINUOUS
 62
   127
 10
108.17058
 20
-20.67169
 11
165.270578
 21
-20.67169
  0
LINE
  8
St
  6
CONTINUOUS
 62
   127
 10
108.17058
 20
-23.871692
 11
165.270578
 21
-23.871692
  0
ENDBLK
  0
BLOCK
  2
*GRP_0081
 70
    65
 10
0.0
 20
0.0
  0
INSERT
  2
*GRP_0089
  8
補助線
  6
DOT
 10
0.0
 20
0.0
  0
INSERT
  2
*GRP_0090
  8
補助線
  6
DOT
 10
0.0
 20
0.0
  0
LINE
  8
St
  6
CONTINUOUS
 62
   127
 10
-37.779457
 20
9.628348
 11
-19.27947
 21
9.628348
  0
LINE
  8
St
  6
CONTINUOUS
 62
   127
 10
-41.029478
 20
-8.371667
 11
-41.029478
 21
-14.171658
  0
LINE
  8
St
  6
CONTINUOUS
 62
   127
 10
-41.029478
 20
-14.171658
 11
-16.029472
 21
-14.171658
  0
LINE
  8
St
  6
CONTINUOUS
 62
   127
 10
-16.029472
 20
-8.371667
 11
-16.029472
 21
-14.171658
  0
LINE
  8
St
  6
CONTINUOUS
 62
   127
 10
-41.029478
 20
-8.371667
 11
-16.029472
 21
-8.371667
  0
LINE
  8
St
  6
CONTINUOUS
 62
   127
 10
-20.756048
 20
1.12604
 11
-36.303045
 21
1.12604
  0
LINE
  8
St
  6
CONTINUOUS
 62
   127
 10
-20.756048
 20
2.12609
 11
-36.303045
 21
2.12609
  0
LINE
  8
St
  6
CONTINUOUS
 62
   127
 10
-36.303045
 20
2.12609
 11
-36.303045
 21
1.12604
  0
LINE
  8
St
  6
CONTINUOUS
 62
   127
 10
-20.756048
 20
2.12609
 11
-20.756048
 21
1.12604
  0
LINE
  8
St
  6
CONTINUOUS
 62
   127
 10
-33.34074
 20
6.12608
 11
-34.30293
 21
5.775852
  0
LINE
  8
St
  6
CONTINUOUS
 62
   127
 10
-23.718195
 20
6.12608
 11
-22.756005
 21
5.775852
  0
LINE
  8
St
  6
CONTINUOUS
 62
   127
 10
-33.34074
 20
6.12608
 11
-23.718195
 21
6.12608
  0
LINE
  8
St
  6
CONTINUOUS
 62
   127
 10
-22.756005
 20
5.775852
 11
-22.756005
 21
2.12609
  0
LINE
  8
St
  6
CONTINUOUS
 62
   127
 10
-25.642732
 20
5.775852
 11
-25.642732
 21
2.12609
  0
LINE
  8
St
  6
CONTINUOUS
 62
   127
 10
-34.30293
 20
5.775852
 11
-34.30293
 21
2.12609
  0
LINE
  8
St
  6
CONTINUOUS
 62
   127
 10
-31.416202
 20
5.775852
 11
-31.416202
 21
2.12609
  0
LINE
  8
St
  6
CONTINUOUS
 62
   127
 10
-22.756005
 20
2.12609
 11
-34.30293
 21
2.12609
  0
LINE
  8
St
  6
CONTINUOUS
 62
   127
 10
-28.529468
 20
-7.873915
 11
-23.779515
 21
-7.873915
  0
LINE
  8
St
  6
CONTINUOUS
 62
   127
 10
-23.779515
 20
-7.873915
 11
-24.27939
 21
-8.373865
  0
LINE
  8
St
  6
CONTINUOUS
 62
   127
 10
-28.529468
 20
-8.373865
 11
-24.27939
 21
-8.373865
  0
LINE
  8
St
  6
CONTINUOUS
 62
   127
 10
-23.779515
 20
-7.373965
 11
-23.779515
 21
-7.873915
  0
LINE
  8
St
  6
CONTINUOUS
 62
   127
 10
-11.029583
 20
-1.424417
 11
-28.529468
 21
-1.424417
  0
LINE
  8
St
  6
CONTINUOUS
 62
   127
 10
-11.029583
 20
-6.323433
 11
-28.529468
 21
-6.323433
  0
LINE
  8
St
  6
CONTINUOUS
 62
   127
 10
-28.529468
 20
0.126065
 11
-23.779515
 21
0.126065
  0
LINE
  8
St
  6
CONTINUOUS
 62
   127
 10
-23.779515
 20
0.126065
 11
-24.27939
 21
0.62609
  0
LINE
  8
St
  6
CONTINUOUS
 62
   127
 10
-28.529468
 20
0.62609
 11
-24.27939
 21
0.62609
  0
LINE
  8
St
  6
CONTINUOUS
 62
   127
 10
-23.779515
 20
-0.373892
 11
-23.779515
 21
0.126065
  0
LINE
  8
St
  6
CONTINUOUS
 62
   127
 10
-11.029583
 20
-6.323433
 11
-11.029583
 21
-6.87394
  0
LINE
  8
St
  6
CONTINUOUS
 62
   127
 10
-11.529457
 20
-7.373965
 11
-28.529468
 21
-7.373965
  0
LINE
  8
St
  6
CONTINUOUS
 62
   127
 10
-11.029583
 20
-1.424417
 11
-11.029583
 21
-0.873917
  0
LINE
  8
St
  6
CONTINUOUS
 62
   127
 10
-11.529457
 20
-0.373892
 11
-28.529468
 21
-0.373892
  0
LINE
  8
St
  6
CONTINUOUS
 62
   127
 10
-28.529468
 20
-7.873915
 11
-33.27942
 21
-7.873915
  0
LINE
  8
St
  6
CONTINUOUS
 62
   127
 10
-33.27942
 20
-7.873915
 11
-32.779545
 21
-8.373865
  0
LINE
  8
St
  6
CONTINUOUS
 62
   127
 10
-28.529468
 20
-8.373865
 11
-32.779545
 21
-8.373865
  0
LINE
  8
St
  6
CONTINUOUS
 62
   127
 10
-33.27942
 20
-7.373965
 11
-33.27942
 21
-7.873915
  0
LINE
  8
St
  6
CONTINUOUS
 62
   127
 10
-46.029503
 20
-1.424417
 11
-28.529468
 21
-1.424417
  0
LINE
  8
St
  6
CONTINUOUS
 62
   127
 10
-46.029503
 20
-6.323433
 11
-28.529468
 21
-6.323433
  0
LINE
  8
St
  6
CONTINUOUS
 62
   127
 10
-28.529468
 20
0.126065
 11
-33.27942
 21
0.126065
  0
LINE
  8
St
  6
CONTINUOUS
 62
   127
 10
-33.27942
 20
0.126065
 11
-32.779545
 21
0.62609
  0
LINE
  8
St
  6
CONTINUOUS
 62
   127
 10
-28.529468
 20
0.62609
 11
-32.779545
 21
0.62609
  0
LINE
  8
St
  6
CONTINUOUS
 62
   127
 10
-33.27942
 20
-0.373892
 11
-33.27942
 21
0.126065
  0
LINE
  8
St
  6
CONTINUOUS
 62
   127
 10
-46.029503
 20
-6.323433
 11
-46.029503
 21
-6.87394
  0
LINE
  8
St
  6
CONTINUOUS
 62
   127
 10
-45.52947
 20
-7.373965
 11
-28.529468
 21
-7.373965
  0
LINE
  8
St
  6
CONTINUOUS
 62
   127
 10
-46.029503
 20
-1.424417
 11
-46.029503
 21
-0.873917
  0
LINE
  8
St
  6
CONTINUOUS
 62
   127
 10
-45.52947
 20
-0.373892
 11
-28.529468
 21
-0.373892
  0
LINE
  8
St
  6
CONTINUOUS
 62
   127
 10
-37.779457
 20
9.628348
 11
-37.779457
 21
-0.373892
  0
LINE
  8
St
  6
CONTINUOUS
 62
   127
 10
-37.779457
 20
-7.373965
 11
-37.779457
 21
-8.371667
  0
LINE
  8
St
  6
CONTINUOUS
 62
   127
 10
-19.27947
 20
9.628348
 11
-19.27947
 21
-0.373892
  0
LINE
  8
St
  6
CONTINUOUS
 62
   127
 10
-19.27947
 20
-7.373965
 11
-19.27947
 21
-8.371667
  0
LINE
  8
St
  6
CONTINUOUS
 62
   127
 10
-35.279453
 20
-19.606375
 11
-35.279453
 21
-19.014617
  0
LINE
  8
St
  6
CONTINUOUS
 62
   127
 10
-21.77946
 20
-19.606375
 11
-21.77946
 21
-19.014617
  0
LINE
  8
St
  6
CONTINUOUS
 62
   127
 10
41.221643
 20
9.628348
 11
59.72163
 21
9.628348
  0
LINE
  8
St
  6
CONTINUOUS
 62
   127
 10
45.471615
 20
48.032848
 11
45.471615
 21
37.632853
  0
LINE
  8
St
  6
CONTINUOUS
 62
   127
 10
46.221608
 20
48.78284
 11
46.221608
 21
37.632853
  0
LINE
  8
St
  6
CONTINUOUS
 62
   127
 10
54.471623
 20
49.032875
 11
46.47162
 21
49.032875
  0
LINE
  8
St
  6
CONTINUOUS
 62
   127
 10
55.471628
 20
48.032848
 11
45.471615
 21
48.032848
  0
LINE
  8
St
  6
CONTINUOUS
 62
   127
 10
54.721635
 20
48.78284
 11
54.721635
 21
37.632853
  0
LINE
  8
St
  6
CONTINUOUS
 62
   127
 10
55.471628
 20
48.032848
 11
55.471628
 21
37.632853
  0
LINE
  8
St
  6
CONTINUOUS
 62
   127
 10
55.471628
 20
48.032848
 11
54.471623
 21
49.032875
  0
LINE
  8
St
  6
CONTINUOUS
 62
   127
 10
45.471615
 20
48.032848
 11
46.47162
 21
49.032875
  0
LINE
  8
St
  6
CONTINUOUS
 62
   127
 10
37.971615
 20
-8.371667
 11
37.971615
 21
-14.171658
  0
LINE
  8
St
  6
CONTINUOUS
 62
   127
 10
37.971615
 20
-14.171658
 11
62.971628
 21
-14.171658
  0
LINE
  8
St
  6
CONTINUOUS
 62
   127
 10
62.971628
 20
-8.371667
 11
62.971628
 21
-14.171658
  0
LINE
  8
St
  6
CONTINUOUS
 62
   127
 10
37.971615
 20
-8.371667
 11
62.971628
 21
-8.371667
  0
LINE
  8
St
  6
CONTINUOUS
 62
   127
 10
58.245053
 20
1.12604
 11
42.698063
 21
1.12604
  0
LINE
  8
St
  6
CONTINUOUS
 62
   127
 10
58.245053
 20
2.12609
 11
42.698063
 21
2.12609
  0
LINE
  8
St
  6
CONTINUOUS
 62
   127
 10
42.698063
 20
2.12609
 11
42.698063
 21
1.12604
  0
LINE
  8
St
  6
CONTINUOUS
 62
   127
 10
58.245053
 20
2.12609
 11
58.245053
 21
1.12604
  0
LINE
  8
St
  6
CONTINUOUS
 62
   127
 10
45.660368
 20
6.12608
 11
44.69817
 21
5.775852
  0
LINE
  8
St
  6
CONTINUOUS
 62
   127
 10
55.282905
 20
6.12608
 11
56.245103
 21
5.775852
  0
LINE
  8
St
  6
CONTINUOUS
 62
   127
 10
45.660368
 20
6.12608
 11
55.282905
 21
6.12608
  0
LINE
  8
St
  6
CONTINUOUS
 62
   127
 10
56.245103
 20
5.775852
 11
56.245103
 21
2.12609
  0
LINE
  8
St
  6
CONTINUOUS
 62
   127
 10
53.358367
 20
5.775852
 11
53.358367
 21
2.12609
  0
LINE
  8
St
  6
CONTINUOUS
 62
   127
 10
44.69817
 20
5.775852
 11
44.69817
 21
2.12609
  0
LINE
  8
St
  6
CONTINUOUS
 62
   127
 10
47.584905
 20
5.775852
 11
47.584905
 21
2.12609
  0
LINE
  8
St
  6
CONTINUOUS
 62
   127
 10
56.245103
 20
2.12609
 11
44.69817
 21
2.12609
  0
LINE
  8
St
  6
CONTINUOUS
 62
   127
 10
50.471632
 20
-7.873915
 11
55.221593
 21
-7.873915
  0
LINE
  8
St
  6
CONTINUOUS
 62
   127
 10
55.221593
 20
-7.873915
 11
54.72171
 21
-8.373865
  0
LINE
  8
St
  6
CONTINUOUS
 62
   127
 10
50.471632
 20
-8.373865
 11
54.72171
 21
-8.373865
  0
LINE
  8
St
  6
CONTINUOUS
 62
   127
 10
55.221593
 20
-7.373965
 11
55.221593
 21
-7.873915
  0
LINE
  8
St
  6
CONTINUOUS
 62
   127
 10
67.971517
 20
-1.424417
 11
50.471632
 21
-1.424417
  0
LINE
  8
St
  6
CONTINUOUS
 62
   127
 10
67.971517
 20
-6.323433
 11
50.471632
 21
-6.323433
  0
LINE
  8
St
  6
CONTINUOUS
 62
   127
 10
50.471632
 20
0.126065
 11
55.221593
 21
0.126065
  0
LINE
  8
St
  6
CONTINUOUS
 62
   127
 10
55.221593
 20
0.126065
 11
54.72171
 21
0.62609
  0
LINE
  8
St
  6
CONTINUOUS
 62
   127
 10
50.471632
 20
0.62609
 11
54.72171
 21
0.62609
  0
LINE
  8
St
  6
CONTINUOUS
 62
   127
 10
55.221593
 20
-0.373892
 11
55.221593
 21
0.126065
  0
LINE
  8
St
  6
CONTINUOUS
 62
   127
 10
67.971517
 20
-6.323433
 11
67.971517
 21
-6.87394
  0
LINE
  8
St
  6
CONTINUOUS
 62
   127
 10
67.471643
 20
-7.373965
 11
50.471632
 21
-7.373965
  0
LINE
  8
St
  6
CONTINUOUS
 62
   127
 10
67.971517
 20
-1.424417
 11
67.971517
 21
-0.873917
  0
LINE
  8
St
  6
CONTINUOUS
 62
   127
 10
67.471643
 20
-0.373892
 11
50.471632
 21
-0.373892
  0
LINE
  8
St
  6
CONTINUOUS
 62
   127
 10
50.471632
 20
-7.873915
 11
45.72168
 21
-7.873915
  0
LINE
  8
St
  6
CONTINUOUS
 62
   127
 10
45.72168
 20
-7.873915
 11
46.221563
 21
-8.373865
  0
LINE
  8
St
  6
CONTINUOUS
 62
   127
 10
50.471632
 20
-8.373865
 11
46.221563
 21
-8.373865
  0
LINE
  8
St
  6
CONTINUOUS
 62
   127
 10
45.72168
 20
-7.373965
 11
45.72168
 21
-7.873915
  0
LINE
  8
St
  6
CONTINUOUS
 62
   127
 10
32.971605
 20
-1.424417
 11
50.471632
 21
-1.424417
  0
LINE
  8
St
  6
CONTINUOUS
 62
   127
 10
32.971605
 20
-6.323433
 11
50.471632
 21
-6.323433
  0
LINE
  8
St
  6
CONTINUOUS
 62
   127
 10
50.471632
 20
0.126065
 11
45.72168
 21
0.126065
  0
LINE
  8
St
  6
CONTINUOUS
 62
   127
 10
45.72168
 20
0.126065
 11
46.221563
 21
0.62609
  0
LINE
  8
St
  6
CONTINUOUS
 62
   127
 10
50.471632
 20
0.62609
 11
46.221563
 21
0.62609
  0
LINE
  8
St
  6
CONTINUOUS
 62
   127
 10
45.72168
 20
-0.373892
 11
45.72168
 21
0.126065
  0
LINE
  8
St
  6
CONTINUOUS
 62
   127
 10
32.971605
 20
-6.323433
 11
32.971605
 21
-6.87394
  0
LINE
  8
St
  6
CONTINUOUS
 62
   127
 10
33.47163
 20
-7.373965
 11
50.471632
 21
-7.373965
  0
LINE
  8
St
  6
CONTINUOUS
 62
   127
 10
32.971605
 20
-1.424417
 11
32.971605
 21
-0.873917
  0
LINE
  8
St
  6
CONTINUOUS
 62
   127
 10
33.47163
 20
-0.373892
 11
50.471632
 21
-0.373892
  0
LINE
  8
St
  6
CONTINUOUS
 62
   127
 10
41.221643
 20
9.628348
 11
41.221643
 21
-0.373892
  0
LINE
  8
St
  6
CONTINUOUS
 62
   127
 10
41.221643
 20
-7.373965
 11
41.221643
 21
-8.371667
  0
LINE
  8
St
  6
CONTINUOUS
 62
   127
 10
59.72163
 20
9.628348
 11
59.72163
 21
-0.373892
  0
LINE
  8
St
  6
CONTINUOUS
 62
   127
 10
59.72163
 20
-7.373965
 11
59.72163
 21
-8.371667
  0
LINE
  8
St
  6
CONTINUOUS
 62
   127
 10
43.721647
 20
-19.606375
 11
43.721647
 21
-19.014617
  0
LINE
  8
St
  6
CONTINUOUS
 62
   127
 10
57.221647
 20
-19.606375
 11
57.221647
 21
-19.014617
  0
LINE
  8
St
  6
CONTINUOUS
 62
   127
 10
-35.179463
 20
-19.551865
 11
-35.179463
 21
-14.171658
  0
LINE
  8
St
  6
CONTINUOUS
 62
   127
 10
-21.879472
 20
-19.551865
 11
-21.879472
 21
-14.171658
  0
LINE
  8
St
  6
CONTINUOUS
 62
   127
 10
43.821637
 20
-19.551865
 11
43.821637
 21
-14.171658
  0
LINE
  8
St
  6
CONTINUOUS
 62
   127
 10
57.121628
 20
-19.551865
 11
57.121628
 21
-14.171658
  0
LINE
  8
St
  6
CONTINUOUS
 62
   127
 10
-8.529255
 20
15.128338
 11
-8.529255
 21
12.628355
  0
LINE
  8
St
  6
CONTINUOUS
 62
   127
 10
-48.529238
 20
12.628355
 11
-8.529255
 21
12.628355
  0
LINE
  8
St
  6
CONTINUOUS
 62
   127
 10
-48.529238
 20
15.128338
 11
-48.529238
 21
12.628355
  0
LINE
  8
St
  6
CONTINUOUS
 62
   127
 10
-18.529238
 20
15.128338
 11
-18.529238
 21
35.12837
  0
LINE
  8
St
  6
DOT
 62
   127
 10
-21.529245
 20
15.128338
 11
-21.529245
 21
35.12837
  0
LINE
  8
St
  6
CONTINUOUS
 62
   127
 10
-38.529255
 20
15.128338
 11
-38.529255
 21
35.12837
  0
LINE
  8
St
  6
DOT
 62
   127
 10
-35.52927
 20
15.128338
 11
-35.52927
 21
35.12837
  0
LINE
  8
St
  6
CONTINUOUS
 62
   127
 10
-16.029255
 20
13.628495
 11
-11.02926
 21
13.628495
  0
LINE
  8
St
  6
CONTINUOUS
 62
   127
 10
-11.736367
 20
13.628495
 11
-11.736367
 21
22.1285
  0
LINE
  8
St
  6
CONTINUOUS
 62
   127
 10
-15.32211
 20
13.628495
 11
-15.32211
 21
22.1285
  0
LINE
  8
St
  6
CONTINUOUS
 62
   127
 10
-16.029255
 20
21.421385
 11
-11.02926
 21
21.421385
  0
LINE
  8
St
  6
CONTINUOUS
 62
   127
 10
-11.02926
 20
21.421385
 11
-11.736367
 21
22.1285
  0
LINE
  8
St
  6
CONTINUOUS
 62
   127
 10
-11.02926
 20
13.628495
 11
-11.02926
 21
21.421385
  0
LINE
  8
St
  6
CONTINUOUS
 62
   127
 10
-16.029255
 20
13.628495
 11
-16.029255
 21
21.421385
  0
LINE
  8
St
  6
CONTINUOUS
 62
   127
 10
-16.029255
 20
21.421385
 11
-15.32211
 21
22.1285
  0
LINE
  8
St
  6
CONTINUOUS
 62
   127
 10
-15.32211
 20
22.1285
 11
-11.736367
 21
22.1285
  0
LINE
  8
St
  6
CONTINUOUS
 62
   127
 10
-41.02926
 20
13.628495
 11
-46.029255
 21
13.628495
  0
LINE
  8
St
  6
CONTINUOUS
 62
   127
 10
-45.32211
 20
13.628495
 11
-45.32211
 21
22.1285
  0
LINE
  8
St
  6
CONTINUOUS
 62
   127
 10
-41.736367
 20
13.628495
 11
-41.736367
 21
22.1285
  0
LINE
  8
St
  6
CONTINUOUS
 62
   127
 10
-41.02926
 20
21.421385
 11
-46.029255
 21
21.421385
  0
LINE
  8
St
  6
CONTINUOUS
 62
   127
 10
-46.029255
 20
21.421385
 11
-45.32211
 21
22.1285
  0
LINE
  8
St
  6
CONTINUOUS
 62
   127
 10
-46.029255
 20
13.628495
 11
-46.029255
 21
21.421385
  0
LINE
  8
St
  6
CONTINUOUS
 62
   127
 10
-41.02926
 20
13.628495
 11
-41.02926
 21
21.421385
  0
LINE
  8
St
  6
CONTINUOUS
 62
   127
 10
-41.02926
 20
21.421385
 11
-41.736367
 21
22.1285
  0
LINE
  8
St
  6
CONTINUOUS
 62
   127
 10
-41.736367
 20
22.1285
 11
-45.32211
 21
22.1285
  0
LINE
  8
St
  6
CONTINUOUS
 62
   127
 10
70.471613
 20
44.421245
 11
69.764505
 21
45.128353
  0
LINE
  8
St
  6
CONTINUOUS
 62
   127
 10
65.471647
 20
44.421245
 11
66.178755
 21
45.128353
  0
LINE
  8
St
  6
CONTINUOUS
 62
   127
 10
63.97164
 20
25.128357
 11
71.97162
 21
25.128357
  0
LINE
  8
St
  6
CONTINUOUS
 62
   127
 10
63.97164
 20
25.128357
 11
63.97164
 21
30.128353
  0
LINE
  8
St
  6
CONTINUOUS
 62
   127
 10
71.97162
 20
25.128357
 11
71.97162
 21
30.128353
  0
LINE
  8
St
  6
CONTINUOUS
 62
   127
 10
35.47161
 20
44.421245
 11
30.471645
 21
44.421245
  0
LINE
  8
St
  6
CONTINUOUS
 62
   127
 10
30.471645
 20
44.421245
 11
31.178752
 21
45.128353
  0
LINE
  8
St
  6
CONTINUOUS
 62
   127
 10
35.47161
 20
44.421245
 11
34.764502
 21
45.128353
  0
LINE
  8
St
  6
CONTINUOUS
 62
   127
 10
34.764502
 20
45.128353
 11
31.178752
 21
45.128353
  0
LINE
  8
St
  6
CONTINUOUS
 62
   127
 10
36.971617
 20
25.128357
 11
28.971637
 21
25.128357
  0
LINE
  8
St
  6
CONTINUOUS
 62
   127
 10
36.971617
 20
25.128357
 11
36.971617
 21
30.128353
  0
LINE
  8
St
  6
CONTINUOUS
 62
   127
 10
28.971637
 20
25.128357
 11
28.971637
 21
30.128353
  0
LINE
  8
St
  6
DOT
 62
   127
 10
62.971853
 20
57.42836
 11
62.971853
 21
60.128353
  0
LINE
  8
St
  6
DOT
 62
   127
 10
37.971862
 20
57.42836
 11
37.971862
 21
60.128353
  0
LINE
  8
St
  6
CONTINUOUS
 62
   127
 10
43.571602
 20
37.628353
 11
57.371617
 21
37.628353
  0
LINE
  8
St
  6
DOT
 62
   127
 10
61.97187
 20
40.128357
 11
61.97187
 21
42.82835
  0
LINE
  8
St
  6
DOT
 62
   127
 10
38.971845
 20
40.128357
 11
38.971845
 21
42.82835
  0
LINE
  8
St
  6
DOT
 62
   127
 10
-18.529238
 20
15.128322
 11
-18.529238
 21
17.828338
  0
LINE
  8
St
  6
DOT
 62
   127
 10
-18.529238
 20
32.428355
 11
-18.529238
 21
35.12834
  0
LINE
  8
St
  6
DOT
 62
   127
 10
-38.529255
 20
15.128322
 11
-38.529255
 21
17.828338
  0
LINE
  8
St
  6
DOT
 62
   127
 10
-38.529255
 20
32.428355
 11
-38.529255
 21
35.12834
  0
LINE
  8
St
  6
CONTINUOUS
 62
   127
 10
-8.529255
 20
15.128338
 11
-48.529238
 21
15.128338
  0
LINE
  8
St
  6
CONTINUOUS
 62
   127
 10
-38.529255
 20
35.12837
 11
-18.529238
 21
35.12837
  0
LINE
  8
St
  6
CONTINUOUS
 62
   127
 10
38.471632
 20
10.12835
 11
38.471632
 21
12.628355
  0
LINE
  8
St
  6
CONTINUOUS
 62
   127
 10
62.47164
 20
12.628355
 11
38.471632
 21
12.628355
  0
LINE
  8
St
  6
CONTINUOUS
 62
   127
 10
62.47164
 20
10.12835
 11
62.47164
 21
12.628355
  0
LINE
  8
St
  6
CONTINUOUS
 62
   127
 10
62.47164
 20
10.12835
 11
38.471632
 21
10.12835
  0
LINE
  8
St
  6
DOT
 62
   127
 10
57.971632
 20
10.12835
 11
57.971632
 21
12.628355
  0
LINE
  8
St
  6
DOT
 62
   127
 10
42.971632
 20
10.12835
 11
42.971632
 21
12.628355
  0
LINE
  8
St
  6
CONTINUOUS
 62
   127
 10
-40.529468
 20
10.12835
 11
-40.529468
 21
12.628355
  0
LINE
  8
St
  6
CONTINUOUS
 62
   127
 10
-16.529468
 20
12.628355
 11
-40.529468
 21
12.628355
  0
LINE
  8
St
  6
CONTINUOUS
 62
   127
 10
-16.529468
 20
10.12835
 11
-16.529468
 21
12.628355
  0
LINE
  8
St
  6
CONTINUOUS
 62
   127
 10
-16.529468
 20
10.12835
 11
-40.529468
 21
10.12835
  0
LINE
  8
St
  6
DOT
 62
   127
 10
-21.029468
 20
10.12835
 11
-21.029468
 21
12.628355
  0
LINE
  8
St
  6
DOT
 62
   127
 10
-36.029468
 20
10.12835
 11
-36.029468
 21
12.628355
  0
LINE
  8
St
  6
CONTINUOUS
 62
   127
 10
-40.529468
 20
35.12834
 11
-40.529468
 21
37.628353
  0
LINE
  8
St
  6
CONTINUOUS
 62
   127
 10
-16.529468
 20
37.628353
 11
-40.529468
 21
37.628353
  0
LINE
  8
St
  6
CONTINUOUS
 62
   127
 10
-16.529468
 20
35.12834
 11
-16.529468
 21
37.628353
  0
LINE
  8
St
  6
CONTINUOUS
 62
   127
 10
-16.529468
 20
35.12834
 11
-40.529468
 21
35.12834
  0
LINE
  8
St
  6
DOT
 62
   127
 10
-21.029468
 20
35.12834
 11
-21.029468
 21
37.628353
  0
LINE
  8
St
  6
DOT
 62
   127
 10
-36.029468
 20
35.12834
 11
-36.029468
 21
37.628353
  0
LINE
  8
St
  6
CONTINUOUS
 62
   127
 10
-39.529463
 20
37.632853
 11
-39.529463
 21
39.13286
  0
LINE
  8
St
  6
CONTINUOUS
 62
   127
 10
-17.529465
 20
39.13286
 11
-39.529463
 21
39.13286
  0
LINE
  8
St
  6
CONTINUOUS
 62
   127
 10
-17.529465
 20
37.632853
 11
-17.529465
 21
39.13286
  0
LINE
  8
St
  6
CONTINUOUS
 62
   127
 10
-17.529465
 20
37.632853
 11
-39.529463
 21
37.632853
  0
LINE
  8
St
  6
DOT
 62
   127
 10
-33.779468
 20
37.632853
 11
-33.779468
 21
39.13286
  0
LINE
  8
St
  6
DOT
 62
   127
 10
-23.279475
 20
37.632853
 11
-23.279475
 21
39.13286
  0
LINE
  8
St
  6
DASHDOTX2
 62
   127
 10
-28.529468
 20
-31.871665
 11
-28.529468
 21
49.032875
  0
LINE
  8
St
  6
DASHDOTX2
 62
   127
 10
50.471632
 20
-31.871665
 11
50.471632
 21
49.032875
  0
LINE
  8
St
  6
CONTINUOUS
 62
   127
 10
60.271635
 20
44.921218
 11
59.564528
 21
45.628355
  0
LINE
  8
St
  6
CONTINUOUS
 62
   127
 10
41.378737
 20
45.628355
 11
40.67163
 21
44.921218
  0
LINE
  8
St
  6
CONTINUOUS
 62
   127
 10
46.032278
 20
44.921218
 11
45.325193
 21
45.628355
  0
LINE
  8
St
  6
CONTINUOUS
 62
   127
 10
54.971625
 20
44.921218
 11
54.264525
 21
45.628355
  0
LINE
  8
St
  6
CONTINUOUS
 62
   127
 10
46.032278
 20
44.921218
 11
46.739415
 21
45.628355
  0
LINE
  8
St
  6
CONTINUOUS
 62
   127
 10
54.971625
 20
44.921218
 11
54.264525
 21
45.628355
  0
LINE
  8
St
  6
CONTINUOUS
 62
   127
 10
54.971625
 20
44.921218
 11
55.678732
 21
45.628355
  0
LINE
  8
St
  6
CONTINUOUS
 62
   127
 10
43.221638
 20
46.128357
 11
43.221638
 21
47.548632
  0
LINE
  8
St
  6
CONTINUOUS
 62
   127
 10
42.721635
 20
45.628355
 11
41.378737
 21
45.628355
  0
LINE
  8
St
  6
CONTINUOUS
 62
   127
 10
57.721635
 20
46.128357
 11
57.721635
 21
47.548632
  0
LINE
  8
St
  6
CONTINUOUS
 62
   127
 10
58.221638
 20
45.628355
 11
59.564528
 21
45.628355
  0
LINE
  8
St
  6
CONTINUOUS
 62
   127
 10
58.221638
 20
45.628355
 11
42.721635
 21
45.628355
  0
LINE
  8
St
  6
CONTINUOUS
 62
   127
 10
41.378737
 20
37.628353
 11
40.67163
 21
38.33546
  0
LINE
  8
St
  6
CONTINUOUS
 62
   127
 10
40.67163
 20
44.921218
 11
40.67163
 21
38.33546
  0
LINE
  8
St
  6
CONTINUOUS
 62
   127
 10
60.271635
 20
44.921218
 11
60.271635
 21
38.33546
  0
LINE
  8
St
  6
CONTINUOUS
 62
   127
 10
59.564528
 20
37.628353
 11
60.271635
 21
38.33546
  0
LINE
  8
St
  6
CONTINUOUS
 62
   127
 10
41.378737
 20
37.628353
 11
59.564528
 21
37.628353
  0
LINE
  8
St
  6
CONTINUOUS
 62
   127
 10
46.032278
 20
38.33546
 11
45.325193
 21
37.628322
  0
LINE
  8
St
  6
CONTINUOUS
 62
   127
 10
54.971625
 20
38.33546
 11
54.264525
 21
37.628322
  0
LINE
  8
St
  6
CONTINUOUS
 62
   127
 10
46.032278
 20
38.33546
 11
46.739415
 21
37.628322
  0
LINE
  8
St
  6
CONTINUOUS
 62
   127
 10
54.971625
 20
38.33546
 11
54.264525
 21
37.628322
  0
LINE
  8
St
  6
CONTINUOUS
 62
   127
 10
54.971625
 20
38.33546
 11
55.678732
 21
37.628322
  0
LINE
  8
St
  6
CONTINUOUS
 62
   127
 10
46.032278
 20
44.921218
 11
46.032278
 21
38.33546
  0
LINE
  8
St
  6
CONTINUOUS
 62
   127
 10
54.971625
 20
44.921218
 11
54.971625
 21
38.33546
  0
LINE
  8
St
  6
DASHDOTX2
 62
   127
 10
50.471632
 20
53.128355
 11
50.471632
 21
37.628353
  0
LINE
  8
St
  6
CONTINUOUS
 62
   127
 10
-18.729465
 20
46.421225
 11
-19.436572
 21
47.128355
  0
LINE
  8
St
  6
CONTINUOUS
 62
   127
 10
-37.622362
 20
47.128355
 11
-38.32947
 21
46.421225
  0
LINE
  8
St
  6
CONTINUOUS
 62
   127
 10
-32.968822
 20
46.421225
 11
-33.675907
 21
47.128355
  0
LINE
  8
St
  6
CONTINUOUS
 62
   127
 10
-24.029475
 20
46.421225
 11
-24.736575
 21
47.128355
  0
LINE
  8
St
  6
CONTINUOUS
 62
   127
 10
-32.968822
 20
46.421225
 11
-32.261685
 21
47.128355
  0
LINE
  8
St
  6
CONTINUOUS
 62
   127
 10
-24.029475
 20
46.421225
 11
-24.736575
 21
47.128355
  0
LINE
  8
St
  6
CONTINUOUS
 62
   127
 10
-24.029475
 20
46.421225
 11
-23.322368
 21
47.128355
  0
LINE
  8
St
  6
CONTINUOUS
 62
   127
 10
-35.779463
 20
47.628357
 11
-35.779463
 21
49.04864
  0
LINE
  8
St
  6
CONTINUOUS
 62
   127
 10
-36.279465
 20
47.128355
 11
-37.622362
 21
47.128355
  0
LINE
  8
St
  6
CONTINUOUS
 62
   127
 10
-21.279465
 20
47.628357
 11
-21.279465
 21
49.04864
  0
LINE
  8
St
  6
CONTINUOUS
 62
   127
 10
-20.779463
 20
47.128355
 11
-19.436572
 21
47.128355
  0
LINE
  8
St
  6
CONTINUOUS
 62
   127
 10
-20.779463
 20
47.128355
 11
-36.279465
 21
47.128355
  0
LINE
  8
St
  6
CONTINUOUS
 62
   127
 10
-37.622362
 20
39.128353
 11
-38.32947
 21
39.835468
  0
LINE
  8
St
  6
CONTINUOUS
 62
   127
 10
-38.32947
 20
46.421225
 11
-38.32947
 21
39.835468
  0
LINE
  8
St
  6
CONTINUOUS
 62
   127
 10
-18.729465
 20
46.421225
 11
-18.729465
 21
39.835468
  0
LINE
  8
St
  6
CONTINUOUS
 62
   127
 10
-19.436572
 20
39.128353
 11
-18.729465
 21
39.835468
  0
LINE
  8
St
  6
CONTINUOUS
 62
   127
 10
-37.622362
 20
39.128353
 11
-19.436572
 21
39.128353
  0
LINE
  8
St
  6
CONTINUOUS
 62
   127
 10
-32.968822
 20
39.835468
 11
-33.675907
 21
39.12833
  0
LINE
  8
St
  6
CONTINUOUS
 62
   127
 10
-24.029475
 20
39.835468
 11
-24.736575
 21
39.12833
  0
LINE
  8
St
  6
CONTINUOUS
 62
   127
 10
-32.968822
 20
39.835468
 11
-32.261685
 21
39.12833
  0
LINE
  8
St
  6
CONTINUOUS
 62
   127
 10
-24.029475
 20
39.835468
 11
-24.736575
 21
39.12833
  0
LINE
  8
St
  6
CONTINUOUS
 62
   127
 10
-24.029475
 20
39.835468
 11
-23.322368
 21
39.12833
  0
LINE
  8
St
  6
CONTINUOUS
 62
   127
 10
-32.968822
 20
46.421225
 11
-32.968822
 21
39.835468
  0
LINE
  8
St
  6
CONTINUOUS
 62
   127
 10
-24.029475
 20
46.421225
 11
-24.029475
 21
39.835468
  0
LINE
  8
St
  6
DASHDOTX2
 62
   127
 10
-28.529468
 20
54.628355
 11
-28.529468
 21
39.128353
  0
LINE
  8
St
  6
CONTINUOUS
 62
   127
 10
71.97162
 20
30.128353
 11
63.97164
 21
30.128353
  0
LINE
  8
St
  6
CONTINUOUS
 62
   127
 10
36.971617
 20
30.128353
 11
28.971637
 21
30.128353
  0
LINE
  8
St
  6
CONTINUOUS
 62
   127
 10
-40.02906
 20
12.628318
 11
-41.02926
 21
13.628495
  0
LINE
  8
St
  6
CONTINUOUS
 62
   127
 10
-40.02906
 20
12.628318
 11
-47.029432
 21
12.628318
  0
LINE
  8
St
  6
CONTINUOUS
 62
   127
 10
-47.029432
 20
12.628318
 11
-46.029255
 21
13.628495
  0
LINE
  8
St
  6
CONTINUOUS
 62
   127
 10
-10.029075
 20
12.628318
 11
-11.02926
 21
13.628495
  0
LINE
  8
St
  6
CONTINUOUS
 62
   127
 10
-17.029455
 20
12.628318
 11
-10.029075
 21
12.628318
  0
LINE
  8
St
  6
CONTINUOUS
 62
   127
 10
-17.029455
 20
12.628318
 11
-16.029255
 21
13.628495
  0
LINE
  8
St
  6
DASHDOT
 62
   127
 10
-13.529242
 20
12.628318
 11
-13.529242
 21
22.1285
  0
LINE
  8
St
  6
DASHDOT
 62
   127
 10
-43.529258
 20
12.628318
 11
-43.529258
 21
22.1285
  0
LINE
  8
St
  6
DOT
 62
   127
 10
39.97164
 20
37.628375
 11
60.971655
 21
37.628375
  0
LINE
  8
St
  6
DOT
 62
   127
 10
57.471623
 20
12.628355
 11
57.471623
 21
37.628375
  0
LINE
  8
St
  6
DOT
 62
   127
 10
43.471597
 20
12.628355
 11
43.471597
 21
37.628375
  0
LINE
  8
St
  6
CONTINUOUS
 62
   127
 10
72.971632
 20
30.128353
 11
72.971632
 21
40.128357
  0
LINE
  8
St
  6
CONTINUOUS
 62
   127
 10
72.971632
 20
30.128353
 11
27.971632
 21
30.128353
  0
LINE
  8
St
  6
CONTINUOUS
 62
   127
 10
27.971632
 20
30.128353
 11
27.971632
 21
40.128357
  0
LINE
  8
St
  6
CONTINUOUS
 62
   127
 10
72.971632
 20
40.128357
 11
27.971632
 21
40.128357
  0
LINE
  8
St
  6
CONTINUOUS
 62
   127
 10
32.47164
 20
12.628355
 11
68.471632
 21
12.628355
  0
LINE
  8
St
  6
CONTINUOUS
 62
   127
 10
68.471632
 20
12.628355
 11
68.471632
 21
30.128353
  0
LINE
  8
St
  6
CONTINUOUS
 62
   127
 10
32.47164
 20
12.628355
 11
32.47164
 21
30.128353
  0
LINE
  8
St
  6
DOT
 62
   127
 10
30.221632
 20
30.128353
 11
30.221632
 21
40.128357
  0
LINE
  8
St
  6
DOT
 62
   127
 10
35.721638
 20
30.128353
 11
35.721638
 21
40.128357
  0
LINE
  8
St
  6
DOT
 62
   127
 10
65.221635
 20
30.128353
 11
65.221635
 21
40.128357
  0
LINE
  8
St
  6
DOT
 62
   127
 10
70.721625
 20
30.128353
 11
70.721625
 21
40.128357
  0
LINE
  8
St
  6
DASHDOTX2
 62
   127
 10
32.971628
 20
28.128342
 11
32.971628
 21
42.128368
  0
LINE
  8
St
  6
DASHDOTX2
 62
   127
 10
67.97163
 20
28.128342
 11
67.97163
 21
42.128368
  0
LINE
  8
St
  6
DOTX2
 62
   127
 10
37.97163
 20
12.628355
 11
37.97163
 21
30.128353
  0
LINE
  8
St
  6
DOTX2
 62
   127
 10
62.971628
 20
12.628355
 11
62.971628
 21
30.128353
  0
LINE
  8
St
  6
CONTINUOUS
 62
   127
 10
30.471645
 20
30.128353
 11
30.471645
 21
44.421245
  0
LINE
  8
St
  6
CONTINUOUS
 62
   127
 10
34.764502
 20
30.128353
 11
34.764502
 21
44.421245
  0
LINE
  8
St
  6
CONTINUOUS
 62
   127
 10
35.47161
 20
30.128353
 11
35.47161
 21
44.421245
  0
LINE
  8
St
  6
CONTINUOUS
 62
   127
 10
31.178752
 20
30.128353
 11
31.178752
 21
45.128353
  0
LINE
  8
St
  6
DASHDOT
 62
   127
 10
32.971628
 20
25.128357
 11
32.971628
 21
45.128353
  0
LINE
  8
St
  6
CONTINUOUS
 62
   127
 10
65.471647
 20
30.128353
 11
65.471647
 21
44.421245
  0
LINE
  8
St
  6
CONTINUOUS
 62
   127
 10
70.471613
 20
30.128353
 11
70.471613
 21
44.421245
  0
LINE
  8
St
  6
CONTINUOUS
 62
   127
 10
65.471647
 20
44.421245
 11
70.471613
 21
44.421245
  0
LINE
  8
St
  6
CONTINUOUS
 62
   127
 10
69.764505
 20
30.128353
 11
69.764505
 21
45.128353
  0
LINE
  8
St
  6
CONTINUOUS
 62
   127
 10
66.178755
 20
30.128353
 11
66.178755
 21
45.128353
  0
LINE
  8
St
  6
CONTINUOUS
 62
   127
 10
66.178755
 20
45.128353
 11
69.764505
 21
45.128353
  0
LINE
  8
St
  6
DASHDOT
 62
   127
 10
67.97163
 20
25.128357
 11
67.97163
 21
45.128353
  0
LINE
  8
St
  6
DOT
 62
   127
 10
-35.529465
 20
6.628348
 11
-21.52947
 21
6.628348
  0
LINE
  8
St
  6
DOT
 62
   127
 10
-35.529465
 20
6.628348
 11
-35.529465
 21
9.628348
  0
LINE
  8
St
  6
DOT
 62
   127
 10
-21.52947
 20
6.628348
 11
-21.52947
 21
9.628348
  0
LINE
  8
St
  6
DOT
 62
   127
 10
-33.529463
 20
6.628348
 11
-33.529463
 21
-44.948358
  0
LINE
  8
St
  6
DOT
 62
   127
 10
-23.529472
 20
6.628348
 11
-23.529472
 21
-44.948358
  0
LINE
  8
St
  6
DOT
 62
   127
 10
43.471635
 20
6.628348
 11
57.47163
 21
6.628348
  0
LINE
  8
St
  6
DOT
 62
   127
 10
43.471635
 20
6.628348
 11
43.471635
 21
9.628348
  0
LINE
  8
St
  6
DOT
 62
   127
 10
57.47163
 20
6.628348
 11
57.47163
 21
9.628348
  0
LINE
  8
St
  6
DOT
 62
   127
 10
45.471645
 20
6.628348
 11
45.471645
 21
-44.948358
  0
LINE
  8
St
  6
DOT
 62
   127
 10
55.471628
 20
6.628348
 11
55.471628
 21
-44.948358
  0
LINE
  8
St
  6
CONTINUOUS
 62
   127
 10
43.571602
 20
6.628348
 11
43.571602
 21
37.628353
  0
LINE
  8
St
  6
CONTINUOUS
 62
   127
 10
57.371617
 20
37.628353
 11
57.371617
 21
6.628348
  0
LINE
  8
St
  6
CONTINUOUS
 62
   127
 10
43.571602
 20
6.628348
 11
57.371617
 21
6.628348
  0
LINE
  8
St
  6
CONTINUOUS
 62
   127
 10
54.471623
 20
-41.371652
 11
46.47162
 21
-41.371652
  0
LINE
  8
St
  6
CONTINUOUS
 62
   127
 10
55.471628
 20
-40.371625
 11
45.471615
 21
-40.371625
  0
LINE
  8
St
  6
CONTINUOUS
 62
   127
 10
55.471628
 20
-40.371625
 11
54.471623
 21
-41.371652
  0
LINE
  8
St
  6
CONTINUOUS
 62
   127
 10
45.471615
 20
-40.371625
 11
46.47162
 21
-41.371652
  0
LINE
  8
St
  6
CONTINUOUS
 62
   127
 10
55.471643
 20
-16.37164
 11
45.47163
 21
-16.37164
  0
LINE
  8
St
  6
CONTINUOUS
 62
   127
 10
45.471615
 20
-40.371625
 11
45.471615
 21
6.628348
  0
LINE
  8
St
  6
CONTINUOUS
 62
   127
 10
55.471628
 20
-40.371625
 11
55.471628
 21
6.628348
  0
LINE
  8
St
  6
CONTINUOUS
 62
   127
 10
54.721635
 20
-41.12161
 11
54.721635
 21
-16.37164
  0
LINE
  8
St
  6
CONTINUOUS
 62
   127
 10
46.221608
 20
-41.12161
 11
46.221608
 21
-16.37164
  0
LINE
  8
St
  6
CONTINUOUS
 62
   127
 10
-33.529485
 20
48.032848
 11
-33.529485
 21
37.632853
  0
LINE
  8
St
  6
CONTINUOUS
 62
   127
 10
-32.779493
 20
48.78284
 11
-32.779493
 21
37.632853
  0
LINE
  8
St
  6
CONTINUOUS
 62
   127
 10
-24.529478
 20
49.032875
 11
-32.52948
 21
49.032875
  0
LINE
  8
St
  6
CONTINUOUS
 62
   127
 10
-23.529472
 20
48.032848
 11
-33.529485
 21
48.032848
  0
LINE
  8
St
  6
CONTINUOUS
 62
   127
 10
-24.279465
 20
48.78284
 11
-24.279465
 21
37.632853
  0
LINE
  8
St
  6
CONTINUOUS
 62
   127
 10
-23.529472
 20
48.032848
 11
-23.529472
 21
37.632853
  0
LINE
  8
St
  6
CONTINUOUS
 62
   127
 10
-23.529472
 20
48.032848
 11
-24.529478
 21
49.032875
  0
LINE
  8
St
  6
CONTINUOUS
 62
   127
 10
-33.529485
 20
48.032848
 11
-32.52948
 21
49.032875
  0
LINE
  8
St
  6
CONTINUOUS
 62
   127
 10
-35.429497
 20
37.628353
 11
-21.629482
 21
37.628353
  0
LINE
  8
St
  6
CONTINUOUS
 62
   127
 10
-35.429497
 20
6.628348
 11
-35.429497
 21
37.628353
  0
LINE
  8
St
  6
CONTINUOUS
 62
   127
 10
-21.629482
 20
37.628353
 11
-21.629482
 21
6.628348
  0
LINE
  8
St
  6
CONTINUOUS
 62
   127
 10
-35.429497
 20
6.628348
 11
-21.629482
 21
6.628348
  0
LINE
  8
St
  6
CONTINUOUS
 62
   127
 10
-24.529478
 20
-41.371652
 11
-32.52948
 21
-41.371652
  0
LINE
  8
St
  6
CONTINUOUS
 62
   127
 10
-23.529472
 20
-40.371625
 11
-33.529485
 21
-40.371625
  0
LINE
  8
St
  6
CONTINUOUS
 62
   127
 10
-23.529472
 20
-40.371625
 11
-24.529478
 21
-41.371652
  0
LINE
  8
St
  6
CONTINUOUS
 62
   127
 10
-33.529485
 20
-40.371625
 11
-32.52948
 21
-41.371652
  0
LINE
  8
St
  6
CONTINUOUS
 62
   127
 10
-23.529465
 20
-16.37164
 11
-33.52947
 21
-16.37164
  0
LINE
  8
St
  6
CONTINUOUS
 62
   127
 10
-33.529485
 20
-40.371625
 11
-33.529485
 21
6.628348
  0
LINE
  8
St
  6
CONTINUOUS
 62
   127
 10
-23.529472
 20
-40.371625
 11
-23.529472
 21
6.628348
  0
LINE
  8
St
  6
CONTINUOUS
 62
   127
 10
-24.279465
 20
-41.12161
 11
-24.279465
 21
-16.37164
  0
LINE
  8
St
  6
CONTINUOUS
 62
   127
 10
-32.779493
 20
-41.12161
 11
-32.779493
 21
-16.37164
  0
LINE
  8
St
  6
CONTINUOUS
 62
   127
 10
62.896643
 20
40.128357
 11
62.896643
 21
43.128365
  0
LINE
  8
St
  6
DOT
 62
   127
 10
60.971655
 20
37.628375
 11
60.971655
 21
43.128365
  0
LINE
  8
St
  6
CONTINUOUS
 62
   127
 10
38.046645
 20
40.128357
 11
38.046645
 21
43.128365
  0
LINE
  8
St
  6
CONTINUOUS
 62
   127
 10
62.896643
 20
43.128365
 11
38.046645
 21
43.128365
  0
LINE
  8
St
  6
DOT
 62
   127
 10
39.97164
 20
37.628375
 11
39.97164
 21
43.128365
  0
CIRCLE
  8
St
  6
CONTINUOUS
 62
   127
 10
-28.529468
 20
-31.871665
 40
13.999995
  0
ARC
  8
St
  6
CONTINUOUS
 62
   127
 10
-32.859715
 20
2.976737
 40
3.149353
 50
62.71606
 51
89.994507
  0
ARC
  8
St
  6
CONTINUOUS
 62
   127
 10
-28.529468
 20
-5.945943
 40
12.072068
 50
76.159304
 51
103.829709
  0
ARC
  8
St
  6
CONTINUOUS
 62
   127
 10
-24.19937
 20
2.976737
 40
3.149353
 50
89.994522
 51
117.272969
  0
ARC
  8
St
  6
CONTINUOUS
 62
   127
 10
-10.529409
 20
-3.873907
 40
2.5
 50
101.531655
 51
258.460121
  0
ARC
  8
St
  6
CONTINUOUS
 62
   127
 10
-11.529462
 20
-6.873917
 40
0.5
 50
269.997253
 51
359.998627
  0
ARC
  8
St
  6
CONTINUOUS
 62
   127
 10
-11.529462
 20
-0.873897
 40
0.5
 50
359.998627
 51
449.994507
  0
ARC
  8
St
  6
CONTINUOUS
 62
   127
 10
-46.529528
 20
-3.873907
 40
2.5
 50
281.534401
 51
438.457374
  0
ARC
  8
St
  6
CONTINUOUS
 62
   127
 10
-45.529475
 20
-6.873917
 40
0.5
 50
179.99588
 51
269.997253
  0
ARC
  8
St
  6
CONTINUOUS
 62
   127
 10
-45.529475
 20
-0.873897
 40
0.5
 50
89.994507
 51
179.99588
  0
ARC
  8
St
  6
CONTINUOUS
 62
   127
 10
-28.529468
 20
-31.859821
 40
15.249999
 50
119.435859
 51
420.558663
  0
ARC
  8
St
  6
CONTINUOUS
 62
   127
 10
-21.279457
 20
-19.014601
 40
0.5
 50
60.558663
 51
179.99588
  0
ARC
  8
St
  6
CONTINUOUS
 62
   127
 10
-35.779461
 20
-19.014601
 40
0.5
 50
359.998642
 51
479.435874
  0
CIRCLE
  8
St
  6
CONTINUOUS
 62
   127
 10
50.471632
 20
-31.871665
 40
13.999995
  0
ARC
  8
St
  6
CONTINUOUS
 62
   127
 10
46.141387
 20
2.976737
 40
3.149353
 50
62.71606
 51
89.994507
  0
ARC
  8
St
  6
CONTINUOUS
 62
   127
 10
50.471634
 20
-5.945943
 40
12.072068
 50
76.159304
 51
103.829709
  0
ARC
  8
St
  6
CONTINUOUS
 62
   127
 10
54.801732
 20
2.976737
 40
3.149353
 50
89.994522
 51
117.272969
  0
ARC
  8
St
  6
CONTINUOUS
 62
   127
 10
68.471693
 20
-3.873907
 40
2.5
 50
101.531655
 51
258.460121
  0
ARC
  8
St
  6
CONTINUOUS
 62
   127
 10
67.47164
 20
-6.873917
 40
0.5
 50
269.997253
 51
359.998627
  0
ARC
  8
St
  6
CONTINUOUS
 62
   127
 10
67.47164
 20
-0.873897
 40
0.5
 50
359.998627
 51
449.994507
  0
ARC
  8
St
  6
CONTINUOUS
 62
   127
 10
32.471574
 20
-3.873907
 40
2.5
 50
281.534401
 51
438.457374
  0
ARC
  8
St
  6
CONTINUOUS
 62
   127
 10
33.471627
 20
-6.873917
 40
0.5
 50
179.99588
 51
269.997253
  0
ARC
  8
St
  6
CONTINUOUS
 62
   127
 10
33.471627
 20
-0.873897
 40
0.5
 50
89.994507
 51
179.99588
  0
ARC
  8
St
  6
CONTINUOUS
 62
   127
 10
50.471634
 20
-31.859821
 40
15.249999
 50
119.435859
 51
420.558663
  0
ARC
  8
St
  6
CONTINUOUS
 62
   127
 10
57.721645
 20
-19.014601
 40
0.5
 50
60.558663
 51
179.99588
  0
ARC
  8
St
  6
CONTINUOUS
 62
   127
 10
43.221647
 20
-19.014601
 40
0.5
 50
359.998642
 51
479.435874
  0
ARC
  8
St
  6
CONTINUOUS
 62
   127
 10
50.471634
 20
45.628372
 40
7.5
 50
14.833936
 51
165.160571
  0
ARC
  8
St
  6
CONTINUOUS
 62
   127
 10
42.721633
 20
46.128373
 40
0.5
 50
269.997253
 51
359.998627
  0
ARC
  8
St
  6
CONTINUOUS
 62
   127
 10
58.221635
 20
46.128373
 40
0.5
 50
179.99588
 51
269.997253
  0
ARC
  8
St
  6
CONTINUOUS
 62
   127
 10
-28.529468
 20
47.128377
 40
7.5
 50
14.833936
 51
165.160571
  0
ARC
  8
St
  6
CONTINUOUS
 62
   127
 10
-36.279469
 20
47.628378
 40
0.5
 50
269.997253
 51
359.998627
  0
ARC
  8
St
  6
CONTINUOUS
 62
   127
 10
-20.779467
 20
47.628378
 40
0.5
 50
179.99588
 51
269.997253
  0
ARC
  8
St
  6
CONTINUOUS
 10
70.471829
 20
55.128372
 40
5.0
 50
0.0
 51
90.0
  0
LINE
  8
St
  6
CONTINUOUS
 62
   127
 10
75.471832
 20
45.12836
 11
75.471832
 21
55.12835
  0
ARC
  8
St
  6
CONTINUOUS
 10
70.471829
 20
45.128377
 40
5.0
 50
270.0
 51
360.0
  0
LINE
  8
St
  6
CONTINUOUS
 62
   127
 10
30.471855
 20
60.128353
 11
70.47183
 21
60.128353
  0
ARC
  8
St
  6
CONTINUOUS
 10
30.471849
 20
55.128372
 40
5.0
 50
90.0
 51
180.0
  0
LINE
  8
St
  6
CONTINUOUS
 62
   127
 10
25.471853
 20
45.12836
 11
25.471853
 21
55.12835
  0
LINE
  8
St
  6
CONTINUOUS
 62
   127
 10
30.471855
 20
40.128357
 11
70.47183
 21
40.128357
  0
ARC
  8
St
  6
CONTINUOUS
 10
30.471849
 20
45.128377
 40
5.0
 50
180.0
 51
270.0
  0
ARC
  8
St
  6
CONTINUOUS
 10
30.471834
 20
45.128369
 40
2.3
 50
180.0
 51
270.0
  0
LINE
  8
St
  6
CONTINUOUS
 62
   127
 10
28.171838
 20
45.128353
 11
28.171838
 21
55.128357
  0
ARC
  8
St
  6
CONTINUOUS
 10
30.471834
 20
55.128379
 40
2.3
 50
90.0
 51
180.0
  0
LINE
  8
St
  6
CONTINUOUS
 62
   127
 10
30.47184
 20
57.42836
 11
70.471823
 21
57.42836
  0
ARC
  8
St
  6
CONTINUOUS
 10
70.471822
 20
55.128379
 40
2.3
 50
0.0
 51
90.0
  0
LINE
  8
St
  6
CONTINUOUS
 62
   127
 10
72.771825
 20
45.128353
 11
72.771825
 21
55.128357
  0
LINE
  8
St
  6
CONTINUOUS
 62
   127
 10
30.47184
 20
42.82835
 11
70.471823
 21
42.82835
  0
ARC
  8
St
  6
CONTINUOUS
 10
70.471822
 20
45.128369
 40
2.3
 50
270.0
 51
360.0
  0
ARC
  8
St
  6
CONTINUOUS
 10
-8.529241
 20
20.128342
 40
5.0
 50
-90.0
 51
0.0
  0
LINE
  8
St
  6
CONTINUOUS
 62
   127
 10
-3.529237
 20
20.128325
 11
-3.529237
 21
30.128338
  0
ARC
  8
St
  6
CONTINUOUS
 10
-8.529241
 20
30.128359
 40
5.0
 50
0.0
 51
90.0
  0
LINE
  8
St
  6
CONTINUOUS
 62
   127
 10
-48.529252
 20
35.12834
 11
-8.52924
 21
35.12834
  0
ARC
  8
St
  6
CONTINUOUS
 10
-48.529258
 20
30.128359
 40
5.0
 50
90.0
 51
180.0
  0
LINE
  8
St
  6
CONTINUOUS
 62
   127
 10
-53.529255
 20
20.128325
 11
-53.529255
 21
30.128338
  0
LINE
  8
St
  6
CONTINUOUS
 62
   127
 10
-48.529252
 20
15.128322
 11
-8.52924
 21
15.128322
  0
ARC
  8
St
  6
CONTINUOUS
 10
-48.529258
 20
20.128342
 40
5.0
 50
180.0
 51
270.0
  0
ARC
  8
St
  6
CONTINUOUS
 10
-48.529266
 20
20.128357
 40
2.3
 50
180.0
 51
270.0
  0
LINE
  8
St
  6
CONTINUOUS
 62
   127
 10
-50.829263
 20
20.12834
 11
-50.829263
 21
30.128353
  0
ARC
  8
St
  6
CONTINUOUS
 10
-48.529266
 20
30.128374
 40
2.3
 50
90.0
 51
180.0
  0
LINE
  8
St
  6
CONTINUOUS
 62
   127
 10
-48.52926
 20
17.828338
 11
-8.529225
 21
17.828338
  0
ARC
  8
St
  6
CONTINUOUS
 10
-8.529226
 20
20.128357
 40
2.3
 50
-90.0
 51
0.0
  0
LINE
  8
St
  6
CONTINUOUS
 62
   127
 10
-6.229223
 20
20.12834
 11
-6.229223
 21
30.128353
  0
LINE
  8
St
  6
CONTINUOUS
 62
   127
 10
-48.52926
 20
32.428355
 11
-8.529225
 21
32.428355
  0
ARC
  8
St
  6
CONTINUOUS
 10
-8.529226
 20
30.128374
 40
2.3
 50
0.0
 51
90.0
  0
LINE
  8
St
  6
DASHDOT
 10
10.971292
 20
60.128353
 11
10.971292
 21
15.128338
  0
LINE
  8
St
  6
DOT
 62
   127
 10
30.47184
 20
15.12833
 11
70.471823
 21
15.12833
  0
ARC
  8
St
  6
DOT
 10
30.471825
 20
20.128334
 40
5.0
 50
180.0
 51
270.0
  0
LINE
  8
St
  6
DOT
 62
   127
 10
25.471823
 20
20.128318
 11
25.471823
 21
30.12833
  0
ARC
  8
St
  6
DOT
 10
30.471825
 20
30.128352
 40
5.0
 50
90.0
 51
180.0
  0
LINE
  8
St
  6
DOT
 62
   127
 10
70.471838
 20
35.128333
 11
30.471825
 21
35.128333
  0
ARC
  8
St
  6
DOT
 10
70.471842
 20
30.128352
 40
5.0
 50
0.0
 51
90.0
  0
LINE
  8
St
  6
DOT
 62
   127
 10
75.47184
 20
20.128318
 11
75.47184
 21
30.12833
  0
ARC
  8
St
  6
DOT
 10
70.471842
 20
20.128334
 40
5.0
 50
-90.0
 51
0.0
  0
ARC
  8
St
  6
DOT
 10
70.47185
 20
20.128349
 40
2.3
 50
270.0
 51
360.0
  0
LINE
  8
St
  6
DOT
 62
   127
 10
72.771847
 20
20.128333
 11
72.771847
 21
30.128345
  0
ARC
  8
St
  6
DOT
 10
70.47185
 20
30.128367
 40
2.3
 50
0.0
 51
90.0
  0
LINE
  8
St
  6
DOT
 62
   127
 10
70.471845
 20
17.82833
 11
30.47181
 21
17.82833
  0
ARC
  8
St
  6
DOT
 10
30.47181
 20
20.128349
 40
2.3
 50
180.0
 51
270.0
  0
LINE
  8
St
  6
DOT
 62
   127
 10
28.171808
 20
20.128333
 11
28.171808
 21
30.128345
  0
LINE
  8
St
  6
DOT
 62
   127
 10
70.471845
 20
32.428348
 11
30.47181
 21
32.428348
  0
ARC
  8
St
  6
DOT
 10
30.47181
 20
30.128367
 40
2.3
 50
90.0
 51
180.0
  0
LINE
  8
St
  6
DOT
 62
   127
 10
-8.529255
 20
40.128342
 11
-48.529238
 21
40.128342
  0
ARC
  8
St
  6
DOT
 10
-8.529241
 20
45.128347
 40
5.0
 50
-90.0
 51
0.0
  0
LINE
  8
St
  6
DOT
 62
   127
 10
-3.529237
 20
45.12833
 11
-3.529237
 21
55.128342
  0
ARC
  8
St
  6
DOT
 10
-8.529241
 20
55.128364
 40
5.0
 50
0.0
 51
90.0
  0
LINE
  8
St
  6
DOT
 62
   127
 10
-48.529252
 20
60.128345
 11
-8.52924
 21
60.128345
  0
ARC
  8
St
  6
DOT
 10
-48.529258
 20
55.128364
 40
5.0
 50
90.0
 51
180.0
  0
LINE
  8
St
  6
DOT
 62
   127
 10
-53.529255
 20
45.12833
 11
-53.529255
 21
55.128342
  0
ARC
  8
St
  6
DOT
 10
-48.529258
 20
45.128347
 40
5.0
 50
180.0
 51
270.0
  0
ARC
  8
St
  6
DOT
 10
-48.529266
 20
45.128362
 40
2.3
 50
180.0
 51
270.0
  0
LINE
  8
St
  6
DOT
 62
   127
 10
-50.829263
 20
45.128345
 11
-50.829263
 21
55.128357
  0
ARC
  8
St
  6
DOT
 10
-48.529266
 20
55.128379
 40
2.3
 50
90.0
 51
180.0
  0
LINE
  8
St
  6
DOT
 62
   127
 10
-48.52926
 20
42.828342
 11
-8.529225
 21
42.828342
  0
ARC
  8
St
  6
DOT
 10
-8.529226
 20
45.128362
 40
2.3
 50
-90.0
 51
0.0
  0
LINE
  8
St
  6
DOT
 62
   127
 10
-6.229223
 20
45.128345
 11
-6.229223
 21
55.128357
  0
LINE
  8
St
  6
DOT
 62
   127
 10
-48.52926
 20
57.42836
 11
-8.529225
 21
57.42836
  0
ARC
  8
St
  6
DOT
 10
-8.529226
 20
55.128379
 40
2.3
 50
0.0
 51
90.0
  0
LINE
  8
St
  6
DOT
 10
30.221632
 20
60.128353
 11
-8.52924
 21
60.128353
  0
LINE
  8
St
  6
DOT
 10
30.221632
 20
40.128357
 11
-8.514255
 21
40.128357
  0
LINE
  8
St
  6
DOT
 10
-8.529255
 20
15.128338
 11
30.459592
 21
15.128338
  0
LINE
  8
St
  6
DOT
 10
-8.529255
 20
35.12834
 11
30.471825
 21
35.12834
  0
ENDBLK
  0
BLOCK
  2
*GRP_0082
 70
    65
 10
0.0
 20
0.0
  0
LINE
  8
St
  6
DOT
 10
-28.529547
 20
36.72834
 11
-28.529547
 21
35.12834
  0
LINE
  8
St
  6
DOT
 10
-33.529547
 20
36.72834
 11
-33.529547
 21
35.12834
  0
LINE
  8
St
  6
DOT
 10
-23.529547
 20
36.72834
 11
-23.529547
 21
35.12834
  0
LINE
  8
St
  6
DOT
 10
-33.529547
 20
36.40834
 11
-23.529547
 21
36.40834
  0
LINE
  8
St
  6
DOT
 10
-33.529547
 20
36.08834
 11
-23.529547
 21
36.08834
  0
LINE
  8
St
  6
DOT
 10
-33.529547
 20
35.76834
 11
-23.529547
 21
35.76834
  0
LINE
  8
St
  6
DOT
 10
-33.529547
 20
35.44834
 11
-23.529547
 21
35.44834
  0
LINE
  8
St
  6
CONTINUOUS
 10
-43.529547
 20
36.72834
 11
-43.529547
 21
35.12834
  0
LINE
  8
St
  6
CONTINUOUS
 10
-39.443945
 20
35.12834
 11
-37.843945
 21
36.72834
  0
LINE
  8
St
  6
CONTINUOUS
 10
-38.73684
 20
35.12834
 11
-37.13684
 21
36.72834
  0
LINE
  8
St
  6
DOT
 10
45.471632
 20
60.128353
 11
45.471632
 21
61.728353
  0
LINE
  8
St
  6
DOT
 10
55.471632
 20
61.728353
 11
55.471632
 21
60.128353
  0
LINE
  8
St
  6
DOT
 10
50.471632
 20
61.728353
 11
50.471632
 21
60.128353
  0
LINE
  8
St
  6
DOT
 10
55.471632
 20
61.408352
 11
45.471632
 21
61.408352
  0
LINE
  8
St
  6
DOT
 10
55.471632
 20
61.088352
 11
45.471632
 21
61.088352
  0
LINE
  8
St
  6
DOT
 10
55.471632
 20
60.768353
 11
45.471632
 21
60.768353
  0
LINE
  8
St
  6
DOT
 10
55.471632
 20
60.448352
 11
45.471632
 21
60.448352
  0
LINE
  8
St
  6
CONTINUOUS
 10
65.471632
 20
60.128353
 11
65.471632
 21
61.728353
  0
LINE
  8
St
  6
CONTINUOUS
 10
59.743325
 20
60.128353
 11
61.343325
 21
61.728353
  0
LINE
  8
St
  6
CONTINUOUS
 10
60.45043
 20
60.128353
 11
62.05043
 21
61.728353
  0
LINE
  8
St
  6
CONTINUOUS
 10
28.34408
 20
60.128353
 11
29.94408
 21
61.728353
  0
LINE
  8
St
  6
CONTINUOUS
 10
29.051185
 20
60.128353
 11
30.651185
 21
61.728353
  0
LINE
  8
St
  6
CONTINUOUS
 10
65.471632
 20
60.128353
 11
21.471632
 21
60.128353
  0
LINE
  8
St
  6
CONTINUOUS
 10
-43.529547
 20
36.72834
 11
-20.96969
 21
36.72834
  0
ARC
  8
St
  6
CONTINUOUS
 10
-20.969689
 20
36.728341
 40
1.6
 50
270.0
 51
300.762025
  0
ARC
  8
St
  6
CONTINUOUS
 10
21.471634
 20
60.128354
 40
1.6
 50
90.0
 51
120.762025
  0
LINE
  8
St
  6
CONTINUOUS
 10
-20.96969
 20
36.72834
 11
21.03149
 21
61.728353
  0
LINE
  8
St
  6
CONTINUOUS
 10
65.471632
 20
61.728353
 11
21.03149
 21
61.728353
  0
LINE
  8
St
  6
CONTINUOUS
 10
-43.529547
 20
35.12834
 11
-20.529547
 21
35.12834
  0
LINE
  8
St
  6
CONTINUOUS
 10
21.471632
 20
60.128353
 11
-20.529547
 21
35.12834
  0
LINE
  8
St
  6
CONTINUOUS
 10
-12.84654
 20
39.701433
 11
-12.290017
 21
41.894667
  0
LINE
  8
St
  6
CONTINUOUS
 10
-12.238925
 20
40.063098
 11
-11.682402
 21
42.256335
  0
LINE
  8
St
  6
CONTINUOUS
 10
13.98234
 20
55.670565
 11
14.538862
 21
57.8638
  0
LINE
  8
St
  6
CONTINUOUS
 10
14.589955
 20
56.03223
 11
15.146478
 21
58.225468
  0
ENDBLK
  0
BLOCK
  2
*GRP_0083
 70
    65
 10
0.0
 20
0.0
  0
LINE
  8
ボルト／ビス
  6
CONTINUOUS
 10
-40.258823
 20
-62.497445
 11
-36.455558
 21
-67.138045
  0
LINE
  8
ボルト／ビス
  6
CONTINUOUS
 10
-40.258823
 20
-62.497445
 11
-41.03226
 21
-63.131325
  0
LINE
  8
ボルト／ビス
  6
CONTINUOUS
 10
-36.455558
 20
-67.138045
 11
-37.22899
 21
-67.77192
  0
LINE
  8
ボルト／ビス
  6
CONTINUOUS
 10
-41.03226
 20
-63.131325
 11
-37.22899
 21
-67.77192
  0
LINE
  8
ボルト／ビス
  6
CONTINUOUS
 10
-39.624942
 20
-63.27088
 11
-39.624942
 21
-63.27088
  0
ARC
  8
ボルト／ビス
  6
CONTINUOUS
 10
-39.308003
 20
-63.657591
 40
0.5
 50
39.336826
 51
129.33679
  0
LINE
  8
ボルト／ビス
  6
CONTINUOUS
 10
-38.921295
 20
-63.340657
 11
-37.019655
 21
-65.660952
  0
LINE
  8
ボルト／ビス
  6
CONTINUOUS
 10
-37.089433
 20
-66.364613
 11
-37.089433
 21
-66.364613
  0
ARC
  8
ボルト／ビス
  6
CONTINUOUS
 10
-37.406369
 20
-65.97789
 40
0.5
 50
-50.66321
 51
39.336831
  0
LINE
  8
ボルト／ビス
  6
CONTINUOUS
 10
-43.739275
 20
-65.349895
 11
-39.93601
 21
-69.990495
  0
LINE
  8
ボルト／ビス
  6
CONTINUOUS
 10
-43.739275
 20
-65.349895
 11
-43.809052
 21
-66.053555
  0
LINE
  8
ボルト／ビス
  6
CONTINUOUS
 10
-39.93601
 20
-69.990495
 11
-40.639657
 21
-69.920717
  0
LINE
  8
ボルト／ビス
  6
CONTINUOUS
 10
-43.809052
 20
-66.053555
 11
-40.639657
 21
-69.920717
  0
LINE
  8
ボルト／ビス
  6
CONTINUOUS
 10
-40.39838
 20
-63.904763
 11
-43.105395
 21
-66.123333
  0
LINE
  8
ボルト／ビス
  6
CONTINUOUS
 10
-37.862865
 20
-66.99849
 11
-40.569885
 21
-69.217062
  0
ENDBLK
  0
BLOCK
  2
*GRP_0084
 70
    65
 10
0.0
 20
0.0
  0
LINE
  8
ボルト／ビス
  6
CONTINUOUS
 10
-58.911892
 20
-39.737677
 11
-55.108627
 21
-44.378277
  0
LINE
  8
ボルト／ビス
  6
CONTINUOUS
 10
-58.911892
 20
-39.737677
 11
-59.68533
 21
-40.371558
  0
LINE
  8
ボルト／ビス
  6
CONTINUOUS
 10
-55.108627
 20
-44.378277
 11
-55.88206
 21
-45.012152
  0
LINE
  8
ボルト／ビス
  6
CONTINUOUS
 10
-59.68533
 20
-40.371558
 11
-55.88206
 21
-45.012152
  0
LINE
  8
ボルト／ビス
  6
CONTINUOUS
 10
-58.278013
 20
-40.511113
 11
-58.278013
 21
-40.511113
  0
ARC
  8
ボルト／ビス
  6
CONTINUOUS
 10
-57.961073
 20
-40.897824
 40
0.5
 50
39.336826
 51
129.33679
  0
LINE
  8
ボルト／ビス
  6
CONTINUOUS
 10
-57.574365
 20
-40.58089
 11
-55.672725
 21
-42.901185
  0
LINE
  8
ボルト／ビス
  6
CONTINUOUS
 10
-55.742502
 20
-43.604845
 11
-55.742502
 21
-43.604845
  0
ARC
  8
ボルト／ビス
  6
CONTINUOUS
 10
-56.059439
 20
-43.218122
 40
0.5
 50
-50.66321
 51
39.336831
  0
LINE
  8
ボルト／ビス
  6
CONTINUOUS
 10
-62.392345
 20
-42.590128
 11
-58.58908
 21
-47.230728
  0
LINE
  8
ボルト／ビス
  6
CONTINUOUS
 10
-62.392345
 20
-42.590128
 11
-62.462122
 21
-43.293787
  0
LINE
  8
ボルト／ビス
  6
CONTINUOUS
 10
-58.58908
 20
-47.230728
 11
-59.292727
 21
-47.16095
  0
LINE
  8
ボルト／ビス
  6
CONTINUOUS
 10
-62.462122
 20
-43.293787
 11
-59.292727
 21
-47.16095
  0
LINE
  8
ボルト／ビス
  6
CONTINUOUS
 10
-59.05145
 20
-41.144995
 11
-61.758465
 21
-43.363565
  0
LINE
  8
ボルト／ビス
  6
CONTINUOUS
 10
-56.515935
 20
-44.238723
 11
-59.222955
 21
-46.457295
  0
ENDBLK
  0
BLOCK
  2
*GRP_0085
 70
    65
 10
0.0
 20
0.0
  0
LINE
  8
ボルト／ビス
  6
CONTINUOUS
 10
-22.232697
 20
-74.771692
 11
-16.232697
 21
-74.771692
  0
LINE
  8
ボルト／ビス
  6
CONTINUOUS
 10
-22.232697
 20
-74.771692
 11
-22.232697
 21
-75.771698
  0
LINE
  8
ボルト／ビス
  6
CONTINUOUS
 10
-16.232697
 20
-74.771692
 11
-16.232697
 21
-75.77169
  0
LINE
  8
ボルト／ビス
  6
CONTINUOUS
 10
-22.232697
 20
-75.771698
 11
-16.232697
 21
-75.77169
  0
LINE
  8
ボルト／ビス
  6
CONTINUOUS
 10
-21.232693
 20
-74.771692
 11
-21.232693
 21
-74.771692
  0
ARC
  8
ボルト／ビス
  6
CONTINUOUS
 10
-20.732695
 20
-74.771689
 40
0.5
 50
90.000036
 51
180.0
  0
LINE
  8
ボルト／ビス
  6
CONTINUOUS
 10
-20.732697
 20
-74.271698
 11
-17.732697
 21
-74.27169
  0
LINE
  8
ボルト／ビス
  6
CONTINUOUS
 10
-17.232695
 20
-74.771692
 11
-17.232695
 21
-74.771692
  0
ARC
  8
ボルト／ビス
  6
CONTINUOUS
 10
-17.732695
 20
-74.771687
 40
0.5
 50
0.0
 51
90.000041
  0
LINE
  8
ボルト／ビス
  6
CONTINUOUS
 10
-22.232697
 20
-79.271695
 11
-16.232697
 21
-79.271695
  0
LINE
  8
ボルト／ビス
  6
CONTINUOUS
 10
-22.232697
 20
-79.271695
 11
-21.732695
 21
-79.771698
  0
LINE
  8
ボルト／ビス
  6
CONTINUOUS
 10
-16.232697
 20
-79.271695
 11
-16.732693
 21
-79.77169
  0
LINE
  8
ボルト／ビス
  6
CONTINUOUS
 10
-21.732695
 20
-79.771698
 11
-16.732693
 21
-79.77169
  0
LINE
  8
ボルト／ビス
  6
CONTINUOUS
 10
-21.232693
 20
-75.771698
 11
-21.232693
 21
-79.271695
  0
LINE
  8
ボルト／ビス
  6
CONTINUOUS
 10
-17.232695
 20
-75.77169
 11
-17.232695
 21
-79.271695
  0
ENDBLK
  0
BLOCK
  2
*GRP_0086
 70
    65
 10
0.0
 20
0.0
  0
LINE
  8
通り芯
  6
CONTINUOUS
 10
35.971702
 20
-73.955335
 11
35.971702
 21
-78.580202
  0
LINE
  8
通り芯
  6
CONTINUOUS
 10
34.321702
 20
-77.771702
 11
34.321702
 21
-75.7717
  0
LINE
  8
通り芯
  6
CONTINUOUS
 10
37.621702
 20
-77.771702
 11
37.621702
 21
-75.7717
  0
LINE
  8
通り芯
  6
CONTINUOUS
 10
34.321702
 20
-76.271702
 11
37.621702
 21
-76.271702
  0
LINE
  8
通り芯
  6
CONTINUOUS
 10
34.321702
 20
-76.771705
 11
37.621702
 21
-76.771705
  0
LINE
  8
通り芯
  6
CONTINUOUS
 10
34.321702
 20
-77.2717
 11
37.621702
 21
-77.2717
  0
LINE
  8
型材断面
  6
CONTINUOUS
 10
35.971702
 20
-76.27171
 11
35.971702
 21
-81.148023
  0
LINE
  8
型材断面
  6
CONTINUOUS
 10
37.621702
 20
-79.271702
 11
37.621702
 21
-77.271707
  0
LINE
  8
型材断面
  6
CONTINUOUS
 10
34.321702
 20
-79.271702
 11
34.321702
 21
-77.271707
  0
LINE
  8
型材断面
  6
CONTINUOUS
 10
34.321702
 20
-78.7717
 11
37.621702
 21
-78.7717
  0
LINE
  8
型材断面
  6
CONTINUOUS
 10
34.321702
 20
-78.271705
 11
37.621702
 21
-78.271705
  0
LINE
  8
型材断面
  6
CONTINUOUS
 10
34.321702
 20
-77.771702
 11
37.621702
 21
-77.771702
  0
LINE
  8
ボルト／ビス
  6
CONTINUOUS
 10
32.971702
 20
-79.271702
 11
38.971702
 21
-79.271702
  0
LINE
  8
ボルト／ビス
  6
CONTINUOUS
 10
32.971702
 20
-79.271702
 11
33.471705
 21
-79.771705
  0
LINE
  8
ボルト／ビス
  6
CONTINUOUS
 10
38.971702
 20
-79.271702
 11
38.471708
 21
-79.771698
  0
LINE
  8
ボルト／ビス
  6
CONTINUOUS
 10
33.471705
 20
-79.771705
 11
38.471708
 21
-79.771698
  0
LINE
  8
ボルト／ビス
  6
CONTINUOUS
 10
32.971702
 20
-74.771695
 11
38.971702
 21
-74.771695
  0
LINE
  8
ボルト／ビス
  6
CONTINUOUS
 10
32.971702
 20
-74.771695
 11
32.971702
 21
-75.7717
  0
LINE
  8
ボルト／ビス
  6
CONTINUOUS
 10
38.971702
 20
-74.771695
 11
38.971702
 21
-75.771692
  0
LINE
  8
ボルト／ビス
  6
CONTINUOUS
 10
32.971702
 20
-75.7717
 11
38.971702
 21
-75.771692
  0
LINE
  8
ボルト／ビス
  6
CONTINUOUS
 10
33.971708
 20
-74.771695
 11
33.971708
 21
-74.771695
  0
ARC
  8
ボルト／ビス
  6
CONTINUOUS
 10
34.471701
 20
-74.7717
 40
0.5
 50
90.000036
 51
180.0
  0
LINE
  8
ボルト／ビス
  6
CONTINUOUS
 10
34.471702
 20
-74.2717
 11
37.471702
 21
-74.271692
  0
LINE
  8
ボルト／ビス
  6
CONTINUOUS
 10
37.971705
 20
-74.771695
 11
37.971705
 21
-74.771695
  0
ARC
  8
ボルト／ビス
  6
CONTINUOUS
 10
37.471701
 20
-74.771698
 40
0.5
 50
0.0
 51
90.000041
  0
LINE
  8
ボルト／ビス
  6
CONTINUOUS
 10
33.971708
 20
-79.271702
 11
33.971708
 21
-75.7717
  0
LINE
  8
ボルト／ビス
  6
CONTINUOUS
 10
37.971705
 20
-79.271702
 11
37.971705
 21
-75.7717
  0
ENDBLK
  0
BLOCK
  2
*GRP_0087
 70
    65
 10
0.0
 20
0.0
  0
LINE
  8
通り芯
  6
CONTINUOUS
 10
100.271685
 20
-73.955335
 11
100.271685
 21
-78.580202
  0
LINE
  8
通り芯
  6
CONTINUOUS
 10
98.621685
 20
-77.771702
 11
98.621685
 21
-75.7717
  0
LINE
  8
通り芯
  6
CONTINUOUS
 10
101.921685
 20
-77.771702
 11
101.921685
 21
-75.7717
  0
LINE
  8
通り芯
  6
CONTINUOUS
 10
98.621685
 20
-76.271702
 11
101.921685
 21
-76.271702
  0
LINE
  8
通り芯
  6
CONTINUOUS
 10
98.621685
 20
-76.771705
 11
101.921685
 21
-76.771705
  0
LINE
  8
通り芯
  6
CONTINUOUS
 10
98.621685
 20
-77.2717
 11
101.921685
 21
-77.2717
  0
LINE
  8
型材断面
  6
CONTINUOUS
 10
100.271685
 20
-76.27171
 11
100.271685
 21
-81.148023
  0
LINE
  8
型材断面
  6
CONTINUOUS
 10
101.921685
 20
-79.271702
 11
101.921685
 21
-77.271707
  0
LINE
  8
型材断面
  6
CONTINUOUS
 10
98.621685
 20
-79.271702
 11
98.621685
 21
-77.271707
  0
LINE
  8
型材断面
  6
CONTINUOUS
 10
98.621685
 20
-78.7717
 11
101.921685
 21
-78.7717
  0
LINE
  8
型材断面
  6
CONTINUOUS
 10
98.621685
 20
-78.271705
 11
101.921685
 21
-78.271705
  0
LINE
  8
型材断面
  6
CONTINUOUS
 10
98.621685
 20
-77.771702
 11
101.921685
 21
-77.771702
  0
LINE
  8
ボルト／ビス
  6
CONTINUOUS
 10
97.271685
 20
-79.271702
 11
103.271685
 21
-79.271702
  0
LINE
  8
ボルト／ビス
  6
CONTINUOUS
 10
97.271685
 20
-79.271702
 11
97.771688
 21
-79.771705
  0
LINE
  8
ボルト／ビス
  6
CONTINUOUS
 10
103.271685
 20
-79.271702
 11
102.77169
 21
-79.771698
  0
LINE
  8
ボルト／ビス
  6
CONTINUOUS
 10
97.771688
 20
-79.771705
 11
102.77169
 21
-79.771698
  0
LINE
  8
ボルト／ビス
  6
CONTINUOUS
 10
97.271685
 20
-74.771695
 11
103.271685
 21
-74.771695
  0
LINE
  8
ボルト／ビス
  6
CONTINUOUS
 10
97.271685
 20
-74.771695
 11
97.271685
 21
-75.7717
  0
LINE
  8
ボルト／ビス
  6
CONTINUOUS
 10
103.271685
 20
-74.771695
 11
103.271685
 21
-75.771692
  0
LINE
  8
ボルト／ビス
  6
CONTINUOUS
 10
97.271685
 20
-75.7717
 11
103.271685
 21
-75.771692
  0
LINE
  8
ボルト／ビス
  6
CONTINUOUS
 10
98.27169
 20
-74.771695
 11
98.27169
 21
-74.771695
  0
ARC
  8
ボルト／ビス
  6
CONTINUOUS
 10
98.771683
 20
-74.7717
 40
0.5
 50
90.000036
 51
180.0
  0
LINE
  8
ボルト／ビス
  6
CONTINUOUS
 10
98.771685
 20
-74.2717
 11
101.771685
 21
-74.271692
  0
LINE
  8
ボルト／ビス
  6
CONTINUOUS
 10
102.271688
 20
-74.771695
 11
102.271688
 21
-74.771695
  0
ARC
  8
ボルト／ビス
  6
CONTINUOUS
 10
101.771683
 20
-74.771698
 40
0.5
 50
0.0
 51
90.000041
  0
LINE
  8
ボルト／ビス
  6
CONTINUOUS
 10
98.27169
 20
-79.271702
 11
98.27169
 21
-75.7717
  0
LINE
  8
ボルト／ビス
  6
CONTINUOUS
 10
102.271688
 20
-79.271702
 11
102.271688
 21
-75.7717
  0
ENDBLK
  0
BLOCK
  2
*GRP_0088
 70
    65
 10
0.0
 20
0.0
  0
ARC
  8
型材断面
  6
CONTINUOUS
 62
    47
 10
32.471633
 20
-3.871661
 40
2.2
 50
270.0
 51
450.0
  0
ARC
  8
型材断面
  6
CONTINUOUS
 62
    47
 10
58.771633
 20
-18.427331
 40
0.3
 50
180.0
 51
238.310451
  0
ARC
  8
型材断面
  6
CONTINUOUS
 62
    47
 10
42.171633
 20
-18.427331
 40
0.3
 50
301.689549
 51
360.0
  0
LINE
  8
型材断面
  6
CONTINUOUS
 62
    47
 10
72.471645
 20
-2.871655
 11
71.324798
 21
-2.871655
  0
LINE
  8
型材断面
  6
CONTINUOUS
 62
    47
 10
72.471645
 20
-16.371655
 11
72.471645
 21
-4.371655
  0
LINE
  8
型材断面
  6
CONTINUOUS
 62
    47
 10
71.324798
 20
-2.871655
 11
72.471645
 21
-4.371655
  0
LINE
  8
型材断面
  6
CONTINUOUS
 62
    47
 10
29.618498
 20
-2.871655
 11
28.47165
 21
-2.871655
  0
LINE
  8
型材断面
  6
CONTINUOUS
 62
    47
 10
29.618498
 20
-2.871655
 11
28.47165
 21
-4.371655
  0
LINE
  8
型材断面
  6
CONTINUOUS
 62
    47
 10
67.19505
 20
-1.722205
 11
68.471647
 21
-1.722205
  0
LINE
  8
型材断面
  6
CONTINUOUS
 62
    47
 10
67.19505
 20
-6.02116
 11
68.471647
 21
-6.02116
  0
ARC
  8
型材断面
  6
CONTINUOUS
 62
    47
 10
68.471637
 20
-3.871662
 40
2.5
 50
120.706651
 51
239.29391
  0
LINE
  8
型材断面
  6
CONTINUOUS
 62
    47
 10
37.47165
 20
-16.371655
 11
42.471645
 21
-16.371655
  0
LINE
  8
型材断面
  6
CONTINUOUS
 62
    47
 10
42.471645
 20
-18.42736
 11
42.471645
 21
-16.371655
  0
LINE
  8
型材断面
  6
CONTINUOUS
 62
    47
 10
63.471645
 20
-16.371655
 11
58.47165
 21
-16.371655
  0
LINE
  8
型材断面
  6
CONTINUOUS
 62
    47
 10
58.47165
 20
-18.42736
 11
58.47165
 21
-16.371655
  0
LINE
  8
型材断面
  6
CONTINUOUS
 62
    47
 10
68.471647
 20
-27.048557
 11
68.471647
 21
-18.876108
  0
LINE
  8
型材断面
  6
CONTINUOUS
 62
    47
 10
62.803995
 20
-18.876108
 11
68.471647
 21
-18.876108
  0
LINE
  8
型材断面
  6
CONTINUOUS
 62
    47
 10
62.803995
 20
-18.876108
 11
61.808648
 21
-19.925005
  0
ARC
  8
型材断面
  6
CONTINUOUS
 62
    47
 10
50.471633
 20
-31.871661
 40
15.5
 50
49.974578
 51
58.310451
  0
ARC
  8
型材断面
  6
CONTINUOUS
 62
    47
 10
61.083236
 20
-19.236634
 40
1.0
 50
229.974578
 51
316.500153
  0
LINE
  8
型材断面
  6
CONTINUOUS
 62
    47
 10
66.380145
 20
-27.60901
 11
68.471647
 21
-27.048557
  0
ARC
  8
型材断面
  6
CONTINUOUS
 62
    47
 10
66.638931
 20
-28.574924
 40
1.0
 50
105.000058
 51
191.525393
  0
LINE
  8
型材断面
  6
CONTINUOUS
 62
    47
 10
32.471647
 20
-27.048557
 11
32.471647
 21
-18.876108
  0
LINE
  8
型材断面
  6
CONTINUOUS
 62
    47
 10
38.1393
 20
-18.876108
 11
32.471647
 21
-18.876108
  0
LINE
  8
型材断面
  6
CONTINUOUS
 62
    47
 10
38.1393
 20
-18.876108
 11
39.1347
 21
-19.925005
  0
ARC
  8
型材断面
  6
CONTINUOUS
 62
    47
 10
39.860036
 20
-19.236634
 40
1.0
 50
223.499847
 51
310.025422
  0
LINE
  8
型材断面
  6
CONTINUOUS
 62
    47
 10
34.563195
 20
-27.60901
 11
32.471647
 21
-27.048557
  0
ARC
  8
型材断面
  6
CONTINUOUS
 62
    47
 10
34.30434
 20
-28.574924
 40
1.0
 50
348.474607
 51
434.999942
  0
ARC
  8
型材断面
  6
CONTINUOUS
 62
    47
 10
50.471633
 20
-31.871661
 40
15.5
 50
168.474603
 51
371.525393
  0
ARC
  8
型材断面
  6
CONTINUOUS
 62
    47
 10
50.471633
 20
-31.871661
 40
15.5
 50
121.689549
 51
130.025407
  0
LINE
  8
型材断面
  6
CONTINUOUS
 62
    47
 10
37.47165
 20
-16.371655
 11
33.9717
 21
-12.871705
  0
LINE
  8
型材断面
  6
CONTINUOUS
 62
    47
 10
33.9717
 20
-12.871705
 11
32.471647
 21
-12.871705
  0
LINE
  8
型材断面
  6
CONTINUOUS
 62
    47
 10
32.471647
 20
-6.071658
 11
32.471647
 21
-12.871705
  0
LINE
  8
型材断面
  6
CONTINUOUS
 62
    47
 10
63.471645
 20
-16.371655
 11
66.971595
 21
-12.871705
  0
LINE
  8
型材断面
  6
CONTINUOUS
 62
    47
 10
66.971595
 20
-12.871705
 11
68.471647
 21
-12.871705
  0
LINE
  8
型材断面
  6
CONTINUOUS
 62
    47
 10
68.471647
 20
-6.02116
 11
68.471647
 21
-12.871705
  0
LINE
  8
型材断面
  6
CONTINUOUS
 62
    47
 10
28.47165
 20
-4.371655
 11
28.47165
 21
-16.371655
  0
ARC
  8
型材断面
  6
CONTINUOUS
 62
    47
 10
50.471636
 20
-31.871659
 40
17.499998
 50
169.917098
 51
267.543714
  0
LINE
  8
型材断面
  6
CONTINUOUS
 62
    47
 10
33.24195
 20
-28.807907
 11
30.971647
 21
-28.19956
  0
ARC
  8
型材断面
  6
CONTINUOUS
 62
    47
 10
104.221694
 20
20.878348
 40
0.75
 50
180.0
 51
270.0
  0
LINE
  8
型材断面
  6
CONTINUOUS
 62
    47
 10
104.221695
 20
20.12834
 11
104.221695
 21
20.12834
  0
ARC
  8
型材断面
  6
CONTINUOUS
 62
    47
 10
104.221694
 20
20.878348
 40
0.75
 50
270.0
 51
360.0
  0
LINE
  8
型材断面
  6
CONTINUOUS
 62
    47
 10
103.471695
 20
20.87834
 11
103.471695
 21
26.12834
  0
LINE
  8
型材断面
  6
CONTINUOUS
 62
    47
 10
104.971695
 20
20.87834
 11
104.971695
 21
28.128342
  0
LINE
  8
型材断面
  6
CONTINUOUS
 62
    47
 10
84.471645
 20
61.128342
 11
98.471647
 21
61.128342
  0
LINE
  8
型材断面
  6
CONTINUOUS
 62
    47
 10
84.471645
 20
61.128342
 11
84.471645
 21
59.12834
  0
ARC
  8
型材断面
  6
CONTINUOUS
 62
    47
 10
104.221694
 20
-27.621652
 40
0.75
 50
90.0
 51
180.0
  0
LINE
  8
型材断面
  6
CONTINUOUS
 62
    47
 10
104.221695
 20
-26.871655
 11
104.221695
 21
-26.871655
  0
ARC
  8
型材断面
  6
CONTINUOUS
 62
    47
 10
104.221694
 20
-27.621652
 40
0.75
 50
0.0
 51
90.0
  0
LINE
  8
型材断面
  6
CONTINUOUS
 62
    47
 10
28.47165
 20
-2.871655
 11
28.47165
 21
3.62834
  0
LINE
  8
型材断面
  6
CONTINUOUS
 62
    47
 10
28.47165
 20
3.62834
 11
32.471647
 21
3.62834
  0
LINE
  8
型材断面
  6
CONTINUOUS
 62
    47
 10
32.471647
 20
-1.671655
 11
32.471647
 21
3.62834
  0
LINE
  8
型材断面
  6
CONTINUOUS
 62
    47
 10
68.471647
 20
-1.722205
 11
68.471647
 21
3.62834
  0
LINE
  8
型材断面
  6
CONTINUOUS
 62
    47
 10
68.471647
 20
3.62834
 11
72.471645
 21
3.62834
  0
LINE
  8
型材断面
  6
CONTINUOUS
 62
    47
 10
72.471645
 20
-2.871655
 11
72.471645
 21
3.62834
  0
LINE
  8
型材断面
  6
CONTINUOUS
 62
    47
 10
103.471695
 20
-46.27171
 11
104.971695
 21
-46.27171
  0
LINE
  8
型材断面
  6
CONTINUOUS
 62
    47
 10
102.471697
 20
-43.771705
 11
103.471695
 21
-44.77171
  0
LINE
  8
型材断面
  6
CONTINUOUS
 62
    47
 10
103.471695
 20
-46.27171
 11
103.471695
 21
-44.77171
  0
LINE
  8
型材断面
  6
CONTINUOUS
 62
    47
 10
104.971695
 20
-27.621655
 11
104.971695
 21
-40.971707
  0
LINE
  8
型材断面
  6
CONTINUOUS
 62
    47
 10
104.971695
 20
-41.571707
 11
104.971695
 21
-46.27171
  0
LINE
  8
型材断面
  6
CONTINUOUS
 62
    47
 10
104.671695
 20
-41.271707
 11
104.971695
 21
-40.971707
  0
LINE
  8
型材断面
  6
CONTINUOUS
 62
    47
 10
104.671695
 20
-41.271707
 11
104.971695
 21
-41.571707
  0
LINE
  8
型材断面
  6
CONTINUOUS
 62
    47
 10
102.471697
 20
-43.771705
 11
102.471697
 21
-37.771705
  0
LINE
  8
型材断面
  6
CONTINUOUS
 62
    47
 10
103.471695
 20
-27.621655
 11
103.471695
 21
-35.77171
  0
LINE
  8
型材断面
  6
CONTINUOUS
 62
    47
 10
2.97015
 20
-54.371658
 11
7.47015
 21
-54.371658
  0
LINE
  8
型材断面
  6
CONTINUOUS
 62
    47
 10
49.721647
 20
-49.355605
 11
49.721647
 21
-54.371658
  0
LINE
  8
型材断面
  6
CONTINUOUS
 62
    47
 10
21.971647
 20
-54.371658
 11
49.721647
 21
-54.371658
  0
LINE
  8
型材断面
  6
CONTINUOUS
 62
    47
 10
51.221647
 20
-49.355605
 11
51.221647
 21
-54.371658
  0
LINE
  8
型材断面
  6
CONTINUOUS
 62
    47
 10
0.970147
 20
-56.37166
 11
0.970147
 21
-53.91916
  0
LINE
  8
型材断面
  6
CONTINUOUS
 62
    47
 10
0.970147
 20
-41.37166
 11
0.970147
 21
-44.771658
  0
LINE
  8
型材断面
  6
CONTINUOUS
 62
    47
 10
1.570147
 20
-45.371658
 11
0.970147
 21
-44.771658
  0
LINE
  8
型材断面
  6
CONTINUOUS
 62
    47
 10
1.570147
 20
-45.371658
 11
2.97015
 21
-45.371658
  0
LINE
  8
型材断面
  6
CONTINUOUS
 62
    47
 10
2.97015
 20
-42.87166
 11
2.97015
 21
-45.371658
  0
LINE
  8
型材断面
  6
CONTINUOUS
 62
    47
 10
1.570147
 20
-53.37166
 11
2.97015
 21
-53.37166
  0
LINE
  8
型材断面
  6
CONTINUOUS
 62
    47
 10
2.97015
 20
-54.42421
 11
2.97015
 21
-53.37166
  0
LINE
  8
型材断面
  6
CONTINUOUS
 62
    47
 10
1.570147
 20
-53.37166
 11
0.970147
 21
-53.97166
  0
LINE
  8
型材断面
  6
CONTINUOUS
 62
    47
 10
2.97015
 20
-42.87166
 11
7.47015
 21
-42.87166
  0
LINE
  8
型材断面
  6
CONTINUOUS
 62
    47
 10
7.47015
 20
-54.371658
 11
7.47015
 21
-42.87166
  0
ARC
  8
型材断面
  6
CONTINUOUS
 62
    47
 10
50.471636
 20
-31.871659
 40
17.499998
 50
272.456286
 51
370.0829
  0
LINE
  8
型材断面
  6
CONTINUOUS
 62
    47
 10
67.701397
 20
-28.807907
 11
69.971647
 21
-28.19956
  0
LINE
  8
型材断面
  6
CONTINUOUS
 62
    47
 10
69.971647
 20
-28.19956
 11
69.971647
 21
-18.371658
  0
LINE
  8
型材断面
  6
CONTINUOUS
 62
    47
 10
95.67165
 20
26.12834
 11
95.67165
 21
-35.77171
  0
LINE
  8
型材断面
  6
CONTINUOUS
 62
    47
 10
95.67165
 20
-37.771705
 11
95.67165
 21
-54.371658
  0
LINE
  8
型材断面
  6
CONTINUOUS
 62
    47
 10
98.471647
 20
59.628342
 11
95.67165
 21
59.628342
  0
LINE
  8
型材断面
  6
CONTINUOUS
 62
    47
 10
95.67165
 20
28.128342
 11
95.67165
 21
59.628342
  0
LINE
  8
型材断面
  6
CONTINUOUS
 62
    47
 10
98.471647
 20
61.128342
 11
98.471647
 21
59.628342
  0
LINE
  8
型材断面
  6
CONTINUOUS
 62
    47
 10
104.971695
 20
28.128342
 11
95.67165
 21
28.128342
  0
LINE
  8
型材断面
  6
CONTINUOUS
 62
    47
 10
103.471695
 20
26.12834
 11
95.67165
 21
26.12834
  0
LINE
  8
型材断面
  6
CONTINUOUS
 62
    47
 10
103.471695
 20
-35.77171
 11
95.67165
 21
-35.77171
  0
LINE
  8
型材断面
  6
CONTINUOUS
 62
    47
 10
102.471697
 20
-37.771705
 11
95.67165
 21
-37.771705
  0
LINE
  8
型材断面
  6
CONTINUOUS
 62
    47
 10
72.471645
 20
-16.371655
 11
93.671647
 21
-16.371655
  0
LINE
  8
型材断面
  6
CONTINUOUS
 62
    47
 10
51.221647
 20
-54.371658
 11
93.671647
 21
-54.371658
  0
LINE
  8
型材断面
  6
CONTINUOUS
 62
    47
 10
84.471645
 20
59.12834
 11
93.671647
 21
59.12834
  0
LINE
  8
型材断面
  6
CONTINUOUS
 62
    47
 10
93.671647
 20
-16.371655
 11
93.671647
 21
59.12834
  0
LINE
  8
型材断面
  6
CONTINUOUS
 62
    47
 10
30.971647
 20
-28.19956
 11
30.971647
 21
-18.371658
  0
LINE
  8
型材断面
  6
CONTINUOUS
 62
    47
 10
28.47165
 20
-16.371655
 11
17.471647
 21
-16.371655
  0
LINE
  8
型材断面
  6
CONTINUOUS
 62
    47
 10
17.471647
 20
-16.371655
 11
17.471647
 21
-17.871655
  0
LINE
  8
型材断面
  6
CONTINUOUS
 62
    47
 10
17.471647
 20
-17.871655
 11
20.471647
 21
-17.871655
  0
LINE
  8
型材断面
  6
CONTINUOUS
 62
    47
 10
20.471647
 20
-54.371658
 11
20.471647
 21
-17.871655
  0
LINE
  8
型材断面
  6
CONTINUOUS
 62
    47
 10
0.970147
 20
-41.37166
 11
8.97015
 21
-41.37166
  0
LINE
  8
型材断面
  6
CONTINUOUS
 62
    47
 10
89.67165
 20
-56.07166
 11
89.37165
 21
-56.37166
  0
LINE
  8
型材断面
  6
CONTINUOUS
 62
    47
 10
89.67165
 20
-56.07166
 11
89.97165
 21
-56.37166
  0
LINE
  8
型材断面
  6
CONTINUOUS
 62
    47
 10
89.97165
 20
-56.37166
 11
104.971695
 21
-56.37166
  0
LINE
  8
型材断面
  6
CONTINUOUS
 62
    47
 10
95.67165
 20
-54.371658
 11
103.971697
 21
-54.371658
  0
LINE
  8
型材断面
  6
CONTINUOUS
 62
    47
 10
104.971695
 20
-55.371655
 11
104.971695
 21
-56.37166
  0
LINE
  8
型材断面
  6
CONTINUOUS
 62
    47
 10
103.971697
 20
-54.371658
 11
104.971695
 21
-55.371655
  0
LINE
  8
型材断面
  6
CONTINUOUS
 62
    47
 10
21.971647
 20
-23.80861
 11
21.971647
 21
-54.371658
  0
ARC
  8
型材断面
  6
CONTINUOUS
 62
    47
 10
22.471644
 20
-23.808574
 40
0.5
 50
66.421821
 51
180.0
  0
LINE
  8
型材断面
  6
CONTINUOUS
 62
    47
 10
27.4086
 20
-18.371658
 11
30.971647
 21
-18.371658
  0
ARC
  8
型材断面
  6
CONTINUOUS
 62
    47
 10
27.408576
 20
-18.871642
 40
0.5
 50
90.0
 51
203.578178
  0
ARC
  8
型材断面
  6
CONTINUOUS
 62
    47
 10
24.056476
 20
-22.620042
 40
0.5
 50
14.998835
 51
92.160733
  0
LINE
  8
型材断面
  6
CONTINUOUS
 62
    47
 10
24.539445
 20
-22.490657
 11
24.67155
 21
-22.983708
  0
ARC
  8
型材断面
  6
CONTINUOUS
 62
    47
 10
23.971644
 20
-20.371642
 40
3.25
 50
246.421822
 51
274.52439
  0
ARC
  8
型材断面
  6
CONTINUOUS
 62
    47
 10
24.188574
 20
-23.113072
 40
0.5
 50
-85.47561
 51
14.998682
  0
ARC
  8
型材断面
  6
CONTINUOUS
 62
    47
 10
23.971644
 20
-20.371642
 40
1.75
 50
357.839267
 51
632.160733
  0
ARC
  8
型材断面
  6
CONTINUOUS
 62
    47
 10
26.220044
 20
-20.456474
 40
0.5
 50
177.839266
 51
255.001165
  0
LINE
  8
型材断面
  6
CONTINUOUS
 62
    47
 10
26.090647
 20
-20.939455
 11
26.583698
 21
-21.07156
  0
ARC
  8
型材断面
  6
CONTINUOUS
 62
    47
 10
23.971644
 20
-20.371642
 40
3.25
 50
355.47561
 51
383.578179
  0
ARC
  8
型材断面
  6
CONTINUOUS
 62
    47
 10
26.713075
 20
-20.588571
 40
0.5
 50
255.001318
 51
355.47561
  0
ARC
  8
型材断面
  6
CONTINUOUS
 62
    47
 10
91.201518
 20
-22.021486
 40
0.5
 50
132.839267
 51
210.001165
  0
LINE
  8
型材断面
  6
CONTINUOUS
 62
    47
 10
90.768495
 20
-22.271508
 11
91.02375
 21
-22.713558
  0
ARC
  8
型材断面
  6
CONTINUOUS
 62
    47
 10
91.456736
 20
-22.463518
 40
0.5
 50
210.001318
 51
310.47561
  0
ARC
  8
型材断面
  6
CONTINUOUS
 62
    47
 10
89.671644
 20
-20.371642
 40
1.75
 50
312.839267
 51
587.160733
  0
ARC
  8
型材断面
  6
CONTINUOUS
 62
    47
 10
88.14177
 20
-22.021486
 40
0.5
 50
-30.001165
 51
47.160734
  0
LINE
  8
型材断面
  6
CONTINUOUS
 62
    47
 10
88.574798
 20
-22.271508
 11
88.31955
 21
-22.713558
  0
ARC
  8
型材断面
  6
CONTINUOUS
 62
    47
 10
87.886552
 20
-22.463518
 40
0.5
 50
229.52439
 51
329.998682
  0
LINE
  8
型材断面
  6
CONTINUOUS
 62
    47
 10
93.671647
 20
-54.371658
 11
93.671647
 21
-20.37166
  0
ARC
  8
型材断面
  6
CONTINUOUS
 62
    47
 10
89.671644
 20
-20.371642
 40
3.25
 50
310.47561
 51
360.0
  0
LINE
  8
型材断面
  6
CONTINUOUS
 62
    47
 10
92.921647
 20
-20.37166
 11
93.671647
 21
-20.37166
  0
LINE
  8
型材断面
  6
CONTINUOUS
 62
    47
 10
69.971647
 20
-18.371658
 11
86.2347
 21
-18.371658
  0
ARC
  8
型材断面
  6
CONTINUOUS
 62
    47
 10
89.671644
 20
-20.371642
 40
3.25
 50
156.421822
 51
229.52439
  0
ARC
  8
型材断面
  6
CONTINUOUS
 62
    47
 10
86.234712
 20
-18.871642
 40
0.5
 50
-23.578179
 51
90.0
  0
LINE
  8
型材断面
  6
CONTINUOUS
 62
    47
 10
14.970195
 20
-56.07166
 11
14.670195
 21
-56.37166
  0
LINE
  8
型材断面
  6
CONTINUOUS
 62
    47
 10
14.970195
 20
-56.07166
 11
15.270195
 21
-56.37166
  0
LINE
  8
型材断面
  6
CONTINUOUS
 62
    47
 10
0.970147
 20
-56.37166
 11
14.670195
 21
-56.37166
  0
LINE
  8
型材断面
  6
CONTINUOUS
 62
    47
 10
8.97015
 20
-41.37166
 11
8.97015
 21
-54.371658
  0
LINE
  8
型材断面
  6
CONTINUOUS
 62
    47
 10
20.471647
 20
-54.371658
 11
8.97015
 21
-54.371658
  0
LINE
  8
型材断面
  6
CONTINUOUS
 62
    47
 10
35.471647
 20
-56.07166
 11
35.171647
 21
-56.37166
  0
LINE
  8
型材断面
  6
CONTINUOUS
 62
    47
 10
35.471647
 20
-56.07166
 11
35.771647
 21
-56.37166
  0
LINE
  8
型材断面
  6
CONTINUOUS
 62
    47
 10
83.471647
 20
-56.07166
 11
83.171647
 21
-56.37166
  0
LINE
  8
型材断面
  6
CONTINUOUS
 62
    47
 10
83.471647
 20
-56.07166
 11
83.771647
 21
-56.37166
  0
LINE
  8
型材断面
  6
CONTINUOUS
 62
    47
 10
83.771647
 20
-56.37166
 11
89.37165
 21
-56.37166
  0
LINE
  8
型材断面
  6
CONTINUOUS
 62
    47
 10
15.270195
 20
-56.37166
 11
35.171647
 21
-56.37166
  0
LINE
  8
型材断面
  6
CONTINUOUS
 62
    47
 10
35.771647
 20
-56.37166
 11
83.171647
 21
-56.37166
  0
ENDBLK
  0
BLOCK
  2
*GRP_0089
 70
    65
 10
0.0
 20
0.0
  0
LINE
  8
補助線
  6
BYBLOCK
 62
     0
 10
50.471632
 20
-30.371665
 11
50.471632
 21
-33.371665
  0
LINE
  8
補助線
  6
BYBLOCK
 62
     0
 10
51.971632
 20
-31.871665
 11
48.971632
 21
-31.871665
  0
ENDBLK
  0
BLOCK
  2
*GRP_0090
 70
    65
 10
0.0
 20
0.0
  0
LINE
  8
補助線
  6
BYBLOCK
 62
     0
 10
-28.529468
 20
-30.371665
 11
-28.529468
 21
-33.371665
  0
LINE
  8
補助線
  6
BYBLOCK
 62
     0
 10
-27.029468
 20
-31.871665
 11
-30.029468
 21
-31.871665
  0
ENDBLK
  0
ENDSEC
  0
SECTION
  2
ENTITIES
  0
POLYLINE
  8
通り芯
  6
CONTINUOUS
 66
     1
 70
     1
  0
VERTEX
  8
通り芯
 10
-210.0
 20
-148.5
  0
VERTEX
  8
通り芯
 10
210.0
 20
-148.5
  0
VERTEX
  8
通り芯
 10
210.0
 20
148.5
  0
VERTEX
  8
通り芯
 10
-210.0
 20
148.5
  0
SEQEND
  0
INSERT
  2
*GRP_0002
  8
通り芯
  6
CONTINUOUS
 10
0.0
 20
0.0
  0
LINE
  8
通り芯
  6
CONTINUOUS
 10
-63.684162
 20
-38.647502
 11
-61.905265
 21
-37.189585
  0
LINE
  8
通り芯
  6
CONTINUOUS
 10
-33.212503
 20
-75.827902
 11
-31.43359
 21
-74.369973
  0
LINE
  8
通り芯
  6
CONTINUOUS
 10
-33.212503
 20
-75.827902
 11
-63.684162
 21
-38.647502
  0
LINE
  8
通り芯
  6
CONTINUOUS
 10
-31.43359
 20
-74.369973
 11
-61.905265
 21
-37.189585
  0
LINE
  8
通り芯
  6
CONTINUOUS
 10
-29.53094
 20
-77.771695
 11
-29.53094
 21
-75.771695
  0
LINE
  8
通り芯
  6
CONTINUOUS
 10
-8.03094
 20
-75.771695
 11
-29.53094
 21
-75.771695
  0
LINE
  8
通り芯
  6
CONTINUOUS
 10
-8.03094
 20
-77.771695
 11
-29.53094
 21
-77.771695
  0
LINE
  8
通り芯
  6
CONTINUOUS
 10
-8.03094
 20
-75.771695
 11
-8.03094
 21
-77.771695
  0
INSERT
  2
*GRP_0003
  8
通り芯
  6
CONTINUOUS
 10
0.0
 20
0.0
  0
INSERT
  2
*GRP_0004
  8
通り芯
  6
CONTINUOUS
 10
0.0
 20
0.0
  0
LINE
  8
通り芯
  6
CONTINUOUS
 10
-52.132243
 20
-49.114257
 11
-52.45322
 21
-52.351085
  0
LINE
  8
通り芯
  6
CONTINUOUS
 10
-51.684025
 20
-49.661155
 11
-52.005002
 21
-52.897985
  0
LINE
  8
通り芯
  6
CONTINUOUS
 10
-35.609338
 20
-69.274882
 11
-35.930318
 21
-72.511725
  0
LINE
  8
通り芯
  6
CONTINUOUS
 10
-35.16112
 20
-69.82178
 11
-35.4821
 21
-73.058625
  0
LINE
  8
通り芯
  6
CONTINUOUS
 10
-12.462968
 20
-75.771695
 11
-10.462965
 21
-77.771695
  0
LINE
  8
通り芯
  6
CONTINUOUS
 10
-11.755862
 20
-75.771695
 11
-9.75586
 21
-77.771695
  0
LINE
  8
通り芯
  6
CONTINUOUS
 10
-27.620643
 20
-75.771695
 11
-25.62064
 21
-77.771695
  0
LINE
  8
通り芯
  6
CONTINUOUS
 10
-26.913537
 20
-75.771695
 11
-24.913535
 21
-77.771695
  0
INSERT
  2
*GRP_0005
  8
通り芯
  6
CONTINUOUS
 10
0.0
 20
0.0
  0
INSERT
  2
*GRP_0006
  8
通り芯
  6
CONTINUOUS
 10
0.0
 20
0.0
  0
INSERT
  2
*GRP_0001
  8
型材断面
  6
CONTINUOUS
 10
0.0
 20
0.0
  0
POLYLINE
  8
型材断面
  6
CONTINUOUS
 66
     1
  0
VERTEX
  8
型材断面
 10
-144.287543
 20
93.137767
  0
VERTEX
  8
型材断面
 10
-146.0767
 20
86.574715
  0
VERTEX
  8
型材断面
 10
-144.287543
 20
86.574715
  0
SEQEND
  0
POLYLINE
  8
型材断面
  6
CONTINUOUS
 66
     1
  0
VERTEX
  8
型材断面
 10
-144.287543
 20
90.46852
  0
VERTEX
  8
型材断面
 10
-146.0767
 20
83.905467
  0
VERTEX
  8
型材断面
 10
-144.287543
 20
83.905467
  0
SEQEND
  0
LINE
  8
型材断面
  6
DOT
 10
-18.029472
 20
3.87398
 11
-18.029472
 21
5.87398
  0
LINE
  8
型材断面
  6
DOT
 10
-39.029472
 20
3.87398
 11
-39.029472
 21
5.87398
  0
LINE
  8
型材断面
  6
DOT
 10
-39.029472
 20
4.37398
 11
-18.029472
 21
4.37398
  0
LINE
  8
型材断面
  6
DOT
 10
-39.029472
 20
4.87398
 11
-18.029472
 21
4.87398
  0
LINE
  8
型材断面
  6
DOT
 10
-39.029472
 20
5.37398
 11
-18.029472
 21
5.37398
  0
INSERT
  2
*GRP_0007
  8
型材断面
  6
CONTINUOUS
 62
    47
 10
0.0
 20
0.0
  0
INSERT
  2
*GRP_0008
  8
型材断面
  6
CONTINUOUS
 62
    47
 10
0.0
 20
0.0
  0
INSERT
  2
*GRP_0009
  8
型材断面
  6
CONTINUOUS
 62
    47
 10
0.0
 20
0.0
  0
LINE
  8
型材断面
  6
DOT
 10
39.970517
 20
4.628325
 11
60.970517
 21
4.628325
  0
LINE
  8
型材断面
  6
DOT
 10
39.970517
 20
5.128325
 11
60.970517
 21
5.128325
  0
LINE
  8
型材断面
  6
DOT
 10
39.970517
 20
5.628325
 11
60.970517
 21
5.628325
  0
LINE
  8
型材断面
  6
DOT
 10
60.970517
 20
4.128325
 11
60.970517
 21
6.128325
  0
LINE
  8
型材断面
  6
DOT
 10
39.970517
 20
4.128325
 11
39.970517
 21
6.128325
  0
INSERT
  2
*GRP_0010
  8
型材断面
  6
CONTINUOUS
 10
0.0
 20
0.0
  0
INSERT
  2
*GRP_0011
  8
型材断面
  6
CONTINUOUS
 10
0.0
 20
0.0
  0
INSERT
  2
*GRP_0012
  8
型材断面
  6
DOT
 10
0.0
 20
0.0
  0
LINE
  8
型材断面
  6
DOT
 10
93.671647
 20
-56.37166
 11
93.671647
 21
-54.371658
  0
LINE
  8
型材断面
  6
DOT
 10
85.671645
 20
-56.37166
 11
85.671645
 21
-54.371658
  0
LINE
  8
型材断面
  6
DOT
 10
93.671647
 20
-55.971663
 11
85.671645
 21
-55.971663
  0
LINE
  8
型材断面
  6
DOT
 10
93.671647
 20
-55.571658
 11
85.671645
 21
-55.571658
  0
LINE
  8
型材断面
  6
DOT
 10
93.671647
 20
-55.17166
 11
85.671645
 21
-55.17166
  0
LINE
  8
型材断面
  6
DOT
 10
93.671647
 20
-54.771655
 11
85.671645
 21
-54.771655
  0
LINE
  8
型材断面
  6
DOT
 10
93.671647
 20
-16.746648
 11
85.671652
 21
-16.746655
  0
LINE
  8
型材断面
  6
DOT
 10
93.671647
 20
-17.121655
 11
85.671652
 21
-17.121655
  0
LINE
  8
型材断面
  6
DOT
 10
93.671647
 20
-17.496648
 11
85.671652
 21
-17.496655
  0
LINE
  8
型材断面
  6
DOT
 10
93.671647
 20
-17.87665
 11
85.671652
 21
-17.876657
  0
LINE
  8
型材断面
  6
DOT
 10
93.671647
 20
-18.256645
 11
85.671652
 21
-18.256653
  0
LINE
  8
型材断面
  6
DOT
 10
93.671647
 20
-16.371655
 11
93.671625
 21
-20.371652
  0
LINE
  8
型材断面
  6
DOT
 10
85.671652
 20
-16.371655
 11
85.671652
 21
-18.371658
  0
POLYLINE
  8
型材断面
  6
DOT
 66
     1
  0
VERTEX
  8
型材断面
 10
93.671647
 20
-18.636647
  0
VERTEX
  8
型材断面
 10
89.90034
 20
-18.636655
  0
VERTEX
  8
型材断面
 10
89.900317
 20
-18.636655
  0
SEQEND
  0
POLYLINE
  8
型材断面
  6
DOT
 66
     1
  0
VERTEX
  8
型材断面
 10
89.443013
 20
-18.636655
  0
VERTEX
  8
型材断面
 10
89.44299
 20
-18.636655
  0
VERTEX
  8
型材断面
 10
86.676067
 20
-18.636655
  0
SEQEND
  0
LINE
  8
型材断面
  6
DOT
 10
93.671647
 20
-19.01665
 11
90.77913
 21
-19.01665
  0
LINE
  8
型材断面
  6
DOT
 10
88.564192
 20
-19.016658
 11
86.713245
 21
-19.016658
  0
LINE
  8
型材断面
  6
DOT
 10
93.671647
 20
-19.396645
 11
91.124895
 21
-19.396645
  0
LINE
  8
型材断面
  6
DOT
 10
88.218435
 20
-19.396652
 11
86.57136
 21
-19.396652
  0
LINE
  8
型材断面
  6
DOT
 10
93.671647
 20
-20.15665
 11
91.40841
 21
-20.15665
  0
LINE
  8
型材断面
  6
DOT
 10
87.93492
 20
-20.156657
 11
86.428785
 21
-20.156657
  0
LINE
  8
型材断面
  6
DOT
 10
93.671647
 20
-19.776648
 11
91.317412
 21
-19.776648
  0
LINE
  8
型材断面
  6
DOT
 10
88.025917
 20
-19.776655
 11
86.476598
 21
-19.776655
  0
LINE
  8
型材断面
  6
DOT
 10
86.42586
 20
-20.536653
 11
87.92946
 21
-20.536653
  0
LINE
  8
型材断面
  6
DOT
 10
91.41387
 20
-20.536645
 11
92.917477
 21
-20.536645
  0
LINE
  8
型材断面
  6
DOT
 10
86.467687
 20
-20.916655
 11
88.008698
 21
-20.916655
  0
LINE
  8
型材断面
  6
DOT
 10
91.33464
 20
-20.916648
 11
92.875642
 21
-20.916648
  0
LINE
  8
型材断面
  6
DOT
 10
86.556083
 20
-21.296658
 11
88.186117
 21
-21.296658
  0
LINE
  8
型材断面
  6
DOT
 10
91.15722
 20
-21.29665
 11
92.787255
 21
-21.29665
  0
LINE
  8
型材断面
  6
DOT
 10
87.162038
 20
-22.436658
 11
88.479435
 21
-22.436658
  0
LINE
  8
型材断面
  6
DOT
 10
90.863895
 20
-22.43665
 11
92.1813
 21
-22.43665
  0
LINE
  8
型材断面
  6
DOT
 10
86.892592
 20
-22.056655
 11
88.579702
 21
-22.056655
  0
LINE
  8
型材断面
  6
DOT
 10
90.763628
 20
-22.056647
 11
92.450745
 21
-22.056647
  0
LINE
  8
型材断面
  6
DOT
 10
88.473165
 20
-21.676652
 11
86.695177
 21
-21.676652
  0
LINE
  8
型材断面
  6
DOT
 10
92.648152
 20
-21.676645
 11
90.870173
 21
-21.676645
  0
INSERT
  2
*GRP_0013
  8
型材断面
  6
CONTINUOUS
 62
    47
 10
0.0
 20
0.0
  0
LINE
  8
ガラス
  6
CONTINUOUS
 10
-85.02948
 20
3.62828
 11
-102.829485
 21
3.62828
  0
LINE
  8
ガラス
  6
CONTINUOUS
 10
-97.829482
 20
9.62828
 11
-91.829482
 21
9.62828
  0
LINE
  8
ガラス
  6
CONTINUOUS
 10
-91.829482
 20
9.62828
 11
-97.829482
 21
3.62828
  0
LINE
  8
ガラス
  6
CONTINUOUS
 10
-97.829482
 20
9.62828
 11
-91.829482
 21
3.62828
  0
LINE
  8
ガラス
  6
CONTINUOUS
 10
-102.329485
 20
70.623345
 11
-102.329485
 21
3.62828
  0
LINE
  8
ガラス
  6
CONTINUOUS
 10
-102.829485
 20
70.623345
 11
-102.829485
 21
3.62828
  0
LINE
  8
ガラス
  6
CONTINUOUS
 10
-97.829485
 20
70.623345
 11
-97.829485
 21
3.62828
  0
LINE
  8
ガラス
  6
CONTINUOUS
 10
-98.329485
 20
70.623345
 11
-98.329485
 21
3.62828
  0
LINE
  8
ガラス
  6
CONTINUOUS
 10
-91.829485
 20
70.623345
 11
-91.829485
 21
3.62828
  0
LINE
  8
ガラス
  6
CONTINUOUS
 10
-91.329485
 20
70.623345
 11
-91.329485
 21
3.62828
  0
LINE
  8
ガラス
  6
CONTINUOUS
 10
-85.529485
 20
70.623345
 11
-85.529485
 21
3.62828
  0
LINE
  8
ガラス
  6
CONTINUOUS
 10
-85.029485
 20
70.623345
 11
-85.029485
 21
3.62828
  0
INSERT
  2
*GRP_0014
  8
ガラス
  6
CONTINUOUS
 10
0.0
 20
0.0
  0
INSERT
  2
*GRP_0015
  8
ガラス
  6
CONTINUOUS
 10
0.0
 20
0.0
  0
INSERT
  2
*GRP_0016
  8
ガラス
  6
CONTINUOUS
 10
0.0
 20
0.0
  0
INSERT
  2
*GRP_0017
  8
ガラス
  6
CONTINUOUS
 10
0.0
 20
0.0
  0
INSERT
  2
*GRP_0018
  8
ガラス
  6
CONTINUOUS
 10
0.0
 20
0.0
  0
INSERT
  2
*GRP_0019
  8
ガラス
  6
CONTINUOUS
 10
0.0
 20
0.0
  0
INSERT
  2
*GRP_0020
  8
ガラス
  6
CONTINUOUS
 10
0.0
 20
0.0
  0
INSERT
  2
*GRP_0021
  8
ガラス
  6
CONTINUOUS
 10
0.0
 20
0.0
  0
INSERT
  2
*GRP_0022
  8
ガラス
  6
CONTINUOUS
 10
0.0
 20
0.0
  0
INSERT
  2
*GRP_0023
  8
ゴム等
  6
CONTINUOUS
 10
0.0
 20
0.0
  0
INSERT
  2
*GRP_0024
  8
ゴム等
  6
CONTINUOUS
 10
0.0
 20
0.0
  0
INSERT
  2
*GRP_0025
  8
ゴム等
  6
CONTINUOUS
 10
0.0
 20
0.0
  0
INSERT
  2
*GRP_0026
  8
ゴム等
  6
CONTINUOUS
 10
0.0
 20
0.0
  0
INSERT
  2
*GRP_0027
  8
ゴム等
  6
DOT
 10
0.0
 20
0.0
  0
INSERT
  2
*GRP_0028
  8
ゴム等
  6
DOT
 10
0.0
 20
0.0
  0
INSERT
  2
*GRP_0029
  8
ゴム等
  6
CONTINUOUS
 10
0.0
 20
0.0
  0
INSERT
  2
*GRP_0030
  8
ゴム等
  6
CONTINUOUS
 10
0.0
 20
0.0
  0
INSERT
  2
*GRP_0031
  8
ボルト／ビス
  6
CONTINUOUS
 10
0.0
 20
0.0
  0
INSERT
  2
*GRP_0032
  8
ボルト／ビス
  6
CONTINUOUS
 10
0.0
 20
0.0
  0
INSERT
  2
*GRP_0033
  8
ボルト／ビス
  6
CONTINUOUS
 10
0.0
 20
0.0
  0
INSERT
  2
*GRP_0034
  8
ボルト／ビス
  6
CONTINUOUS
 10
0.0
 20
0.0
  0
INSERT
  2
*GRP_0035
  8
ボルト／ビス
  6
CONTINUOUS
 62
    64
 10
0.0
 20
0.0
  0
INSERT
  2
*GRP_0036
  8
ボルト／ビス
  6
CONTINUOUS
 62
    64
 10
0.0
 20
0.0
  0
INSERT
  2
*GRP_0037
  8
ボルト／ビス
  6
CONTINUOUS
 62
    64
 10
0.0
 20
0.0
  0
INSERT
  2
*GRP_0038
  8
ボルト／ビス
  6
CONTINUOUS
 62
    64
 10
0.0
 20
0.0
  0
INSERT
  2
*GRP_0039
  8
ボルト／ビス
  6
CONTINUOUS
 10
0.0
 20
0.0
  0
INSERT
  2
*GRP_0040
  8
ボルト／ビス
  6
CONTINUOUS
 10
0.0
 20
0.0
  0
TEXT
  7
TextStyle03
  8
文字
  6
CONTINUOUS
 10
-92.7
 20
109.575
  1
※フラットタイプ取り付けは
 40
4.0
 72
     5
 11
-34.7
 21
109.575
  0
TEXT
  7
TextStyle03
  8
文字
  6
CONTINUOUS
 10
-92.7
 20
105.075
  1
　勾配取り付け。
 40
4.0
 72
     5
 11
-57.2
 21
105.075
  0
TEXT
  7
TextStyle03
  8
文字
  6
CONTINUOUS
 10
60.15
 20
107.25
  1
ＮＳコード：ＮＳＦ
 40
5.0
 72
     5
 11
110.15
 21
107.25
  0
TEXT
  7
TextStyle03
  8
文字
  6
CONTINUOUS
 10
60.7
 20
126.575
  1
シリーズ：ＴＦＦ
 40
5.0
 72
     5
 11
105.075
 21
126.575
  0
TEXT
  7
TextStyle03
  8
文字
  6
CONTINUOUS
 10
60.7
 20
120.95
  1
　　　　　（上下可動）
 40
5.0
 72
     5
 11
121.95
 21
120.95
  0
TEXT
  7
TextStyle03
  8
文字
  6
CONTINUOUS
 10
60.7
 20
115.325
  1
図面名　：下枠断面詳細図Ａ
 40
5.0
 72
     5
 11
133.2
 21
115.325
  0
TEXT
  7
TextStyle03
  8
文字
  6
CONTINUOUS
 10
-144.25
 20
23.825
  1
ドーム呼称寸法
 40
4.0
 50
90.0
 72
     5
 11
-144.25
 21
54.825
  0
TEXT
  7
TextStyle03
  8
文字
  6
CONTINUOUS
 10
-50.675
 20
-84.075
  1
TK-1112
 40
4.0
 50
90.0
 72
     5
 11
-50.675
 21
-68.575
  0
TEXT
  7
TextStyle03
  8
文字
  6
CONTINUOUS
 10
-58.075
 20
-68.425
  1
TKR-1401
 40
4.0
 50
90.0
 72
     5
 11
-58.075
 21
-50.675
  0
TEXT
  7
TextStyle03
  8
文字
  6
CONTINUOUS
 10
-2.325
 20
-117.5
  1
TKR-1401
 40
4.0
 50
90.0
 72
     5
 11
-2.325
 21
-99.75
  0
TEXT
  7
TextStyle03
  8
文字
  6
CONTINUOUS
 10
-56.375
 20
-1.825
  1
TK-1104S
 40
4.0
 50
90.0
 72
     5
 11
-56.375
 21
15.925
  0
TEXT
  7
TextStyle03
  8
文字
  6
CONTINUOUS
 10
-59.225
 20
25.95
  1
TK-1166
 40
4.0
 50
90.0
 72
     5
 11
-59.225
 21
41.45
  0
TEXT
  7
TextStyle03
  8
文字
  6
CONTINUOUS
 10
91.225
 20
-131.3
  1
M4リベット
 40
4.0
 50
90.0
 72
     5
 11
91.225
 21
-109.3
  0
TEXT
  7
TextStyle03
  8
文字
  6
CONTINUOUS
 10
95.725
 20
-131.3
  1
(コーナー)
 40
4.0
 50
90.0
 72
     5
 11
95.725
 21
-109.05
  0
TEXT
  7
TextStyle03
  8
文字
  6
CONTINUOUS
 10
121.1
 20
23.05
  1
アンカー　St-3.2t
 40
4.0
 50
90.0
 72
     5
 11
121.1
 21
61.05
  0
TEXT
  7
TextStyle03
  8
文字
  6
CONTINUOUS
 10
25.9
 20
-73.775
  1
TKR-1301
 40
4.0
 50
90.0
 72
     5
 11
25.9
 21
-56.025
  0
TEXT
  7
TextStyle03
  8
文字
  6
CONTINUOUS
 10
11.1
 20
-36.4
  1
TKR-1201
 40
4.0
 50
90.0
 72
     5
 11
11.1
 21
-18.65
  0
TEXT
  7
TextStyle03
  8
文字
  6
CONTINUOUS
 10
19.725
 20
107.05
  1
バランスステー
 40
3.0
 50
90.0
 72
     5
 11
19.725
 21
130.3
  0
TEXT
  7
TextStyle03
  8
文字
  6
CONTINUOUS
 10
2.025
 20
55.6
  1
出荷固定金物
 40
4.0
 50
90.0
 72
     5
 11
2.025
 21
82.1
  0
INSERT
  2
*GRP_0041
  8
寸法
  6
CONTINUOUS
 10
0.0
 20
0.0
  0
INSERT
  2
*GRP_0042
  8
寸法
  6
CONTINUOUS
 10
0.0
 20
0.0
  0
INSERT
  2
*GRP_0043
  8
寸法
  6
CONTINUOUS
 10
0.0
 20
0.0
  0
INSERT
  2
*GRP_0044
  8
寸法
  6
CONTINUOUS
 10
0.0
 20
0.0
  0
INSERT
  2
*GRP_0045
  8
寸法
  6
CONTINUOUS
 10
0.0
 20
0.0
  0
INSERT
  2
*DIM_0046
  8
寸法
  6
CONTINUOUS
 10
0.0
 20
0.0
  0
INSERT
  2
*DIM_0047
  8
寸法
  6
CONTINUOUS
 10
0.0
 20
0.0
  0
INSERT
  2
*DIM_0048
  8
寸法
  6
CONTINUOUS
 10
0.0
 20
0.0
  0
INSERT
  2
*DIM_0049
  8
寸法
  6
CONTINUOUS
 10
0.0
 20
0.0
  0
INSERT
  2
*GRP_0050
  8
寸法
  6
CONTINUOUS
 10
0.0
 20
0.0
  0
INSERT
  2
*GRP_0051
  8
寸法
  6
CONTINUOUS
 10
0.0
 20
0.0
  0
INSERT
  2
*GRP_0052
  8
寸法
  6
CONTINUOUS
 10
0.0
 20
0.0
  0
INSERT
  2
*GRP_0053
  8
寸法
  6
CONTINUOUS
 10
0.0
 20
0.0
  0
INSERT
  2
*GRP_0054
  8
寸法
  6
CONTINUOUS
 10
0.0
 20
0.0
  0
INSERT
  2
*GRP_0055
  8
寸法
  6
CONTINUOUS
 10
0.0
 20
0.0
  0
INSERT
  2
*GRP_0056
  8
寸法
  6
CONTINUOUS
 10
0.0
 20
0.0
  0
INSERT
  2
*DIM_0057
  8
寸法
  6
CONTINUOUS
 10
0.0
 20
0.0
  0
INSERT
  2
*DIM_0058
  8
寸法
  6
CONTINUOUS
 10
0.0
 20
0.0
  0
INSERT
  2
*DIM_0059
  8
寸法
  6
CONTINUOUS
 10
0.0
 20
0.0
  0
INSERT
  2
*DIM_0060
  8
寸法
  6
CONTINUOUS
 10
0.0
 20
0.0
  0
INSERT
  2
*DIM_0061
  8
寸法
  6
CONTINUOUS
 10
0.0
 20
0.0
  0
INSERT
  2
*DIM_0062
  8
寸法
  6
CONTINUOUS
 10
0.0
 20
0.0
  0
INSERT
  2
*DIM_0063
  8
寸法
  6
CONTINUOUS
 10
0.0
 20
0.0
  0
INSERT
  2
*DIM_0064
  8
寸法
  6
CONTINUOUS
 10
0.0
 20
0.0
  0
INSERT
  2
*DIM_0065
  8
寸法
  6
CONTINUOUS
 10
0.0
 20
0.0
  0
INSERT
  2
*DIM_0066
  8
寸法
  6
CONTINUOUS
 10
0.0
 20
0.0
  0
INSERT
  2
*DIM_0067
  8
寸法
  6
CONTINUOUS
 10
0.0
 20
0.0
  0
INSERT
  2
*DIM_0068
  8
寸法
  6
CONTINUOUS
 10
0.0
 20
0.0
  0
INSERT
  2
*DIM_0069
  8
寸法
  6
CONTINUOUS
 10
0.0
 20
0.0
  0
INSERT
  2
*DIM_0070
  8
寸法
  6
CONTINUOUS
 10
0.0
 20
0.0
  0
INSERT
  2
*DIM_0071
  8
寸法
  6
CONTINUOUS
 10
0.0
 20
0.0
  0
INSERT
  2
*DIM_0072
  8
寸法
  6
CONTINUOUS
 10
0.0
 20
0.0
  0
INSERT
  2
*DIM_0073
  8
寸法
  6
CONTINUOUS
 10
0.0
 20
0.0
  0
INSERT
  2
*DIM_0074
  8
寸法
  6
CONTINUOUS
 10
0.0
 20
0.0
  0
INSERT
  2
*HAT_0006
  8
ﾊｯﾁﾝｸﾞ
 10
0.0
 20
0.0
  0
INSERT
  2
*GRP_0075
  8
別途部材
  6
CONTINUOUS
 10
0.0
 20
0.0
  0
INSERT
  2
*GRP_0076
  8
別途部材
  6
DOT
 10
0.0
 20
0.0
  0
INSERT
  2
*GRP_0077
  8
曲げ物
  6
CONTINUOUS
 10
0.0
 20
0.0
  0
INSERT
  2
*GRP_0078
  8
鉄骨等
  6
CONTINUOUS
 10
0.0
 20
0.0
  0
INSERT
  2
*GRP_0079
  8
St
  6
CONTINUOUS
 10
0.0
 20
0.0
  0
INSERT
  2
*GRP_0080
  8
St
  6
CONTINUOUS
 10
0.0
 20
0.0
  0
INSERT
  2
*GRP_0081
  8
St
  6
CONTINUOUS
 10
0.0
 20
0.0
  0
LINE
  8
St
  6
DOT
 10
-45.52947
 20
35.12834
 11
-45.52947
 21
104.482473
  0
LINE
  8
St
  6
DOT
 10
-11.529465
 20
35.12834
 11
-11.529465
 21
104.482473
  0
LINE
  8
St
  6
DOT
 10
33.47163
 20
60.128353
 11
33.47163
 21
104.482473
  0
LINE
  8
St
  6
DOT
 10
67.471635
 20
60.128353
 11
67.471635
 21
104.482473
  0
INSERT
  2
*GRP_0082
  8
St
  6
CONTINUOUS
 10
0.0
 20
0.0
  0
LINE
  8
その他部品等
  6
CONTINUOUS
 62
    47
 10
-144.287543
 20
3.62828
 11
-144.287543
 21
93.137767
  0
LINE
  8
その他部品等
  6
CONTINUOUS
 10
-113.6295
 20
23.62826
 11
-102.829485
 21
23.62826
  0
LINE
  8
その他部品等
  6
CONTINUOUS
 10
-113.6295
 20
15.628257
 11
-102.829485
 21
15.628257
  0
LINE
  8
その他部品等
  6
CONTINUOUS
 10
-102.829485
 20
10.177947
 11
-114.8295
 21
10.177947
  0
LINE
  8
その他部品等
  6
CONTINUOUS
 10
-114.8295
 20
10.177947
 11
-102.829485
 21
15.628257
  0
ENDSEC
  0
EOF
