  0
SECTION
  2
HEADER
  9
$EXTMIN
 10
-210.0
 20
-148.5
  9
$EXTMAX
 10
210.0
 20
148.5
  9
$PDMODE
 70
    32
  9
$PDSIZE
 40
1.5
  9
$LTSCALE
 40
10.0
  0
ENDSEC
  0
SECTION
  2
TABLES
  0
TABLE
  2
LTYPE
 70
    15
  0
LTYPE
  2
CONTINUOUS
 70
    64
  3
実線
 72
    65
 73
     0
 40
0.0
  0
LTYPE
  2
DASHED
 70
    64
  3
破線A
 72
    65
 73
     2
 40
0.6
 49
0.4
 49
-0.2
  0
LTYPE
  2
DASHEDX2
 70
    64
  3
破線B
 72
    65
 73
     2
 40
1.3
 49
0.9
 49
-0.4
  0
LTYPE
  2
DASHDOT
 70
    64
  3
１点鎖線A
 72
    65
 73
     4
 40
0.5375
 49
0.375
 49
-0.05
 49
0.0625
 49
-0.05
  0
LTYPE
  2
DASHDOTX2
 70
    64
  3
１点鎖線B
 72
    65
 73
     4
 40
1.075
 49
0.75
 49
-0.1
 49
0.125
 49
-0.1
  0
LTYPE
  2
DIVIDE2
 70
    64
  3
２点鎖線A
 72
    65
 73
     6
 40
0.5125
 49
0.3
 49
-0.0375
 49
0.05
 49
-0.0375
 49
0.05
 49
-0.0375
  0
LTYPE
  2
DIVIDE
 70
    64
  3
２点鎖線B
 72
    65
 73
     6
 40
1.05
 49
0.55
 49
-0.1
 49
0.1
 49
-0.1
 49
0.1
 49
-0.1
  0
LTYPE
  2
DOT
 70
    64
  3
点線A
 72
    65
 73
     2
 40
0.1125
 49
0.0625
 49
-0.05
  0
LTYPE
  2
DOTX2
 70
    64
  3
点線B
 72
    65
 73
     2
 40
0.275
 49
0.15
 49
-0.125
  0
LTYPE
  2
CONTINUOUS
 70
    64
  3
実線
 72
    65
 73
     0
 40
0.0
  0
LTYPE
  2
CONTINUOUS
 70
    64
  3
実線
 72
    65
 73
     0
 40
0.0
  0
LTYPE
  2
CONTINUOUS
 70
    64
  3
実線
 72
    65
 73
     0
 40
0.0
  0
LTYPE
  2
CONTINUOUS
 70
    64
  3
実線
 72
    65
 73
     0
 40
0.0
  0
LTYPE
  2
CONTINUOUS
 70
    64
  3
実線
 72
    65
 73
     0
 40
0.0
  0
LTYPE
  2
CONTINUOUS
 70
    64
  3
実線
 72
    65
 73
     0
 40
0.0
  0
ENDTAB
  0
TABLE
  2
LAYER
 70
    34
  0
LAYER
  2
通り芯
 70
     0
 62
    15
  6
CONTINUOUS
  0
LAYER
  2
補助線
 70
     0
 62
    16
  6
DOT
  0
LAYER
  2
躯体
 70
     0
 62
    31
  6
CONTINUOUS
  0
LAYER
  2
型材
 70
     0
 62
    32
  6
CONTINUOUS
  0
LAYER
  2
型材断面
 70
     0
 62
    47
  6
CONTINUOUS
  0
LAYER
  2
ガラス
 70
     0
 62
    48
  6
CONTINUOUS
  0
LAYER
  2
ゴム等
 70
     0
 62
    63
  6
CONTINUOUS
  0
LAYER
  2
ボルト／ビス
 70
     0
 62
    64
  6
CONTINUOUS
  0
LAYER
  2
文字
 70
     0
 62
    79
  6
CONTINUOUS
  0
LAYER
  2
寸法
 70
     0
 62
    80
  6
CONTINUOUS
  0
LAYER
  2
ﾊｯﾁﾝｸﾞ
 70
     0
 62
    95
  6
CONTINUOUS
  0
LAYER
  2
別途部材
 70
     0
 62
    96
  6
CONTINUOUS
  0
LAYER
  2
曲げ物
 70
     0
 62
   111
  6
CONTINUOUS
  0
LAYER
  2
鉄骨等
 70
     0
 62
   112
  6
CONTINUOUS
  0
LAYER
  2
St
 70
     0
 62
   127
  6
CONTINUOUS
  0
LAYER
  2
その他部品等
 70
     0
 62
   128
  6
CONTINUOUS
  0
LAYER
  2
ｶﾞｽｹｯﾄ
 70
     0
 62
   143
  6
CONTINUOUS
  0
LAYER
  2
ｽｹｯﾁ
 70
     0
 62
    14
  6
CONTINUOUS
  0
LAYER
  2
0
 70
     0
 62
    17
  6
CONTINUOUS
  0
LAYER
  2
1
 70
     0
 62
    30
  6
CONTINUOUS
  0
LAYER
  2
4
 70
     0
 62
    33
  6
CONTINUOUS
  0
LAYER
  2
ﾚｲﾔ3
 70
     0
 62
    46
  6
CONTINUOUS
  0
LAYER
  2
外形線
 70
     0
 62
    49
  6
CONTINUOUS
  0
LAYER
  2
部品
 70
     0
 62
    14
  6
CONTINUOUS
  0
LAYER
  2
サッシ芯
 70
     0
 62
    17
  6
DASHDOTX2
  0
LAYER
  2
寸法線
 70
     0
 62
    62
  6
CONTINUOUS
  0
LAYER
  2
姿図外形線
 70
     0
 62
    65
  6
CONTINUOUS
  0
LAYER
  2
姿補助線
 70
     0
 62
    30
  6
CONTINUOUS
  0
LAYER
  2
透視線
 70
     0
 62
    78
  6
DOT
  0
LAYER
  2
用紙
 70
     0
 62
    81
  6
CONTINUOUS
  0
LAYER
  2
実線図枠
 70
     0
 62
    94
  6
CONTINUOUS
  0
LAYER
  2
補助図枠
 70
     0
 62
    97
  6
CONTINUOUS
  0
LAYER
  2
建具記号
 70
     0
 62
   110
  6
CONTINUOUS
  0
LAYER
  2
補助文字
 70
     0
 62
   113
  6
CONTINUOUS
  0
ENDTAB
  0
TABLE
  2
STYLE
 70
    10
  0
STYLE
  2
STANDARD
 70
     0
 40
1.0
 41
1.0
 42
1.0
 50
0.0
 71
     0
  3
TXT
  4
BIGFONT
  0
STYLE
  2
TATE
 70
     4
 40
1.0
 41
1.0
 42
1.0
 50
0.0
 71
     0
  3
TXT
  4
BIGFONT
  0
STYLE
  2
TextStyle03
 70
     0
 40
1.0
 41
1.0
 42
1.0
 50
0.0
 71
     0
  3
MONOTXT
  4
BIGFONT
  0
STYLE
  2
TextStyle04
 70
     0
 40
1.0
 41
1.0
 42
1.0
 50
0.0
 71
     0
  3
MONOTXT
  4
BIGFONT
  0
STYLE
  2
TextStyle05
 70
     0
 40
1.0
 41
1.0
 42
1.0
 50
0.0
 71
     0
  3
MONOTXT
  4
BIGFONT
  0
STYLE
  2
TextStyle06
 70
     0
 40
1.0
 41
1.0
 42
1.0
 50
0.0
 71
     0
  3
MONOTXT
  4
BIGFONT
  0
STYLE
  2
TextStyle07
 70
     0
 40
1.0
 41
1.0
 42
1.0
 50
0.0
 71
     0
  3
MONOTXT
  4
BIGFONT
  0
STYLE
  2
TextStyle08
 70
     0
 40
1.0
 41
1.0
 42
1.0
 50
0.0
 71
     0
  3
MONOTXT
  4
BIGFONT
  0
STYLE
  2
TextStyle09
 70
     0
 40
1.0
 41
1.0
 42
1.0
 50
0.0
 71
     0
  3
MONOTXT
  4
BIGFONT
  0
STYLE
  2
TextStyle10
 70
     0
 40
1.0
 41
1.0
 42
1.0
 50
0.0
 71
     0
  3
MONOTXT
  4
BIGFONT
  0
ENDTAB
  0
ENDSEC
  0
SECTION
  2
BLOCKS
  0
BLOCK
  2
*GRP_0001
 70
    65
 10
0.0
 20
0.0
  0
LINE
  8
型材断面
  6
CONTINUOUS
 10
195.0
 20
133.5
 11
195.0
 21
-133.5
  0
LINE
  8
型材断面
  6
CONTINUOUS
 10
195.0
 20
-133.5
 11
-185.0
 21
-133.5
  0
LINE
  8
型材断面
  6
CONTINUOUS
 10
-185.0
 20
-133.5
 11
-185.0
 21
133.5
  0
LINE
  8
型材断面
  6
CONTINUOUS
 10
195.0
 20
133.5
 11
-185.0
 21
133.5
  0
LINE
  8
型材断面
  6
CONTINUOUS
 10
145.0
 20
-133.5
 11
145.0
 21
-118.5
  0
LINE
  8
型材断面
  6
CONTINUOUS
 10
195.0
 20
-118.5
 11
145.0
 21
-118.5
  0
ENDBLK
  0
BLOCK
  2
*DIM_0002
 70
    65
 10
0.0
 20
0.0
  0
LINE
  8
寸法
  6
BYBLOCK
 62
     0
 10
-28.66511
 20
9.76892
 11
-28.66511
 21
4.711185
  0
LINE
  8
寸法
  6
BYBLOCK
 62
     0
 10
4.668225
 20
9.76892
 11
4.668225
 21
4.711185
  0
LINE
  8
寸法
  6
BYBLOCK
 62
     0
 10
-28.66511
 20
4.711185
 11
4.668225
 21
4.711185
  0
POINT
  8
寸法
 62
     0
 10
-28.66511
 20
4.711185
  0
POINT
  8
寸法
 62
     0
 10
4.668225
 20
4.711185
  0
TEXT
  7
TextStyle03
  8
寸法
  6
CONTINUOUS
 62
     0
 10
-15.28125
 20
5.075
  1
1000
 40
3.0
 72
     5
 11
-8.71875
 21
5.075
  0
ENDBLK
  0
BLOCK
  2
*DIM_0003
 70
    65
 10
0.0
 20
0.0
  0
LINE
  8
寸法
  6
BYBLOCK
 62
     0
 10
22.33489
 20
56.732382
 11
32.059173
 21
56.732382
  0
LINE
  8
寸法
  6
BYBLOCK
 62
     0
 10
24.96502
 20
53.032382
 11
32.059173
 21
53.032382
  0
LINE
  8
寸法
  6
BYBLOCK
 62
     0
 10
32.059173
 20
56.732382
 11
32.059173
 21
53.032382
  0
POINT
  8
寸法
 62
     0
 10
32.059173
 20
56.732382
  0
POINT
  8
寸法
 62
     0
 10
32.059173
 20
53.032382
  0
TEXT
  7
TextStyle03
  8
寸法
  6
CONTINUOUS
 62
     0
 10
31.75
 20
57.7125
  1
111
 40
3.0
 50
90.0
 72
     5
 11
31.75
 21
62.5875
  0
ENDBLK
  0
BLOCK
  2
*DIM_0004
 70
    65
 10
0.0
 20
0.0
  0
LINE
  8
寸法
  6
BYBLOCK
 62
     0
 10
22.33489
 20
13.399048
 11
32.059173
 21
13.399045
  0
LINE
  8
寸法
  6
BYBLOCK
 62
     0
 10
24.96502
 20
17.099048
 11
32.059173
 21
17.099045
  0
LINE
  8
寸法
  6
BYBLOCK
 62
     0
 10
32.059173
 20
13.399045
 11
32.059173
 21
17.099045
  0
POINT
  8
寸法
 62
     0
 10
32.059173
 20
13.399045
  0
POINT
  8
寸法
 62
     0
 10
32.059173
 20
17.099045
  0
TEXT
  7
TextStyle03
  8
寸法
  6
CONTINUOUS
 62
     0
 10
31.725
 20
7.5375
  1
111
 40
3.0
 50
90.0
 72
     5
 11
31.725
 21
12.4125
  0
ENDBLK
  0
BLOCK
  2
*DIM_0005
 70
    65
 10
0.0
 20
0.0
  0
LINE
  8
寸法
  6
BYBLOCK
 62
     0
 10
-48.331778
 20
23.399048
 11
-77.276943
 21
23.399048
  0
LINE
  8
寸法
  6
BYBLOCK
 62
     0
 10
-48.331778
 20
46.732382
 11
-77.276943
 21
46.732382
  0
LINE
  8
寸法
  6
BYBLOCK
 62
     0
 10
-77.276943
 20
23.399048
 11
-77.276943
 21
46.732382
  0
POINT
  8
寸法
 62
     0
 10
-77.276943
 20
23.399048
  0
POINT
  8
寸法
 62
     0
 10
-77.276943
 20
46.732382
  0
TEXT
  7
TextStyle03
  8
寸法
  6
CONTINUOUS
 62
     0
 10
-77.75
 20
32.6125
  1
700
 40
3.0
 50
90.0
 72
     5
 11
-77.75
 21
37.4875
  0
ENDBLK
  0
BLOCK
  2
*DIM_0006
 70
    65
 10
0.0
 20
0.0
  0
LINE
  8
寸法
  6
BYBLOCK
 62
     0
 10
-35.331775
 20
59.73238
 11
-35.331775
 21
88.66
  0
LINE
  8
寸法
  6
BYBLOCK
 62
     0
 10
-11.998442
 20
59.73238
 11
-11.998442
 21
88.66
  0
LINE
  8
寸法
  6
BYBLOCK
 62
     0
 10
-35.331775
 20
88.66
 11
-11.998442
 21
88.66
  0
POINT
  8
寸法
 62
     0
 10
-35.331775
 20
88.66
  0
POINT
  8
寸法
 62
     0
 10
-11.998442
 20
88.66
  0
TEXT
  7
TextStyle03
  8
寸法
  6
CONTINUOUS
 62
     0
 10
-26.1125
 20
89.05
  1
700
 40
3.0
 72
     5
 11
-21.2375
 21
89.05
  0
ENDBLK
  0
BLOCK
  2
*DIM_0007
 70
    65
 10
0.0
 20
0.0
  0
LINE
  8
寸法
  6
BYBLOCK
 62
     0
 10
11.33489
 20
59.73238
 11
11.33489
 21
88.66
  0
LINE
  8
寸法
  6
BYBLOCK
 62
     0
 10
-11.998442
 20
88.66
 11
11.33489
 21
88.66
  0
POINT
  8
寸法
 62
     0
 10
11.33489
 20
88.66
  0
TEXT
  7
TextStyle03
  8
寸法
  6
CONTINUOUS
 62
     0
 10
-2.7875
 20
89.05
  1
700
 40
3.0
 72
     5
 11
2.0875
 21
89.05
  0
ENDBLK
  0
BLOCK
  2
*GRP_0008
 70
    65
 10
0.0
 20
0.0
  0
LINE
  8
補助線
  6
BYBLOCK
 62
    64
 10
-41.940542
 20
-84.00816
 11
-42.056337
 21
-84.12803
  0
LINE
  8
補助線
  6
BYBLOCK
 62
    64
 10
-42.058378
 20
-84.010195
 11
-41.938505
 21
-84.125993
  0
LINE
  8
補助線
  6
BYBLOCK
 62
    64
 10
-34.228467
 20
-76.024802
 11
-34.344268
 21
-76.144672
  0
LINE
  8
補助線
  6
BYBLOCK
 62
    64
 10
-34.346303
 20
-76.026837
 11
-34.226433
 21
-76.142635
  0
LINE
  8
補助線
  6
BYBLOCK
 62
    64
 10
-26.632195
 20
-68.161315
 11
-26.516398
 21
-68.041445
  0
LINE
  8
補助線
  6
BYBLOCK
 62
    64
 10
-26.634232
 20
-68.04348
 11
-26.51436
 21
-68.159278
  0
LINE
  8
型材断面
  6
CONTINUOUS
 10
-42.829382
 20
-83.728852
 11
-42.817162
 21
-84.435852
  0
LINE
  8
型材断面
  6
CONTINUOUS
 10
-42.817162
 20
-84.435852
 11
-42.33768
 21
-84.89904
  0
LINE
  8
型材断面
  6
CONTINUOUS
 10
-42.33768
 20
-84.89904
 11
-41.63068
 21
-84.88682
  0
LINE
  8
型材断面
  6
CONTINUOUS
 10
-26.942055
 20
-67.282655
 11
-26.235052
 21
-67.270438
  0
LINE
  8
型材断面
  6
CONTINUOUS
 10
-26.235052
 20
-67.270438
 11
-25.75557
 21
-67.733622
  0
LINE
  8
型材断面
  6
CONTINUOUS
 10
-25.75557
 20
-67.733622
 11
-25.74335
 21
-68.440625
  0
LINE
  8
型材断面
  6
CONTINUOUS
 10
-42.829382
 20
-83.728852
 11
-26.942055
 21
-67.282655
  0
LINE
  8
型材断面
  6
CONTINUOUS
 10
-41.63068
 20
-84.88682
 11
-25.74335
 21
-68.440625
  0
CIRCLE
  8
ボルト／ビス
  6
CONTINUOUS
 10
-41.99844
 20
-84.068095
 40
0.250185
  0
CIRCLE
  8
ボルト／ビス
  6
CONTINUOUS
 10
-41.99844
 20
-84.068095
 40
0.301025
  0
LINE
  8
ボルト／ビス
  6
CONTINUOUS
 62
    64
 10
-42.238945
 20
-84.137015
 11
-42.178377
 21
-83.894272
  0
LINE
  8
ボルト／ビス
  6
CONTINUOUS
 62
    64
 10
-41.937872
 20
-83.82535
 11
-42.178377
 21
-83.894272
  0
LINE
  8
ボルト／ビス
  6
CONTINUOUS
 62
    64
 10
-42.059008
 20
-84.31084
 11
-41.818502
 21
-84.241918
  0
LINE
  8
ボルト／ビス
  6
CONTINUOUS
 62
    64
 10
-41.757932
 20
-83.999175
 11
-41.818502
 21
-84.241918
  0
LINE
  8
ボルト／ビス
  6
CONTINUOUS
 62
    64
 10
-42.238945
 20
-84.137015
 11
-42.059008
 21
-84.31084
  0
LINE
  8
ボルト／ビス
  6
CONTINUOUS
 62
    64
 10
-41.937872
 20
-83.82535
 11
-41.757932
 21
-83.999175
  0
CIRCLE
  8
ボルト／ビス
  6
CONTINUOUS
 62
    64
 10
-41.99844
 20
-84.068095
 40
0.216668
  0
CIRCLE
  8
ボルト／ビス
  6
CONTINUOUS
 10
-34.286367
 20
-76.084738
 40
0.250185
  0
CIRCLE
  8
ボルト／ビス
  6
CONTINUOUS
 10
-34.286367
 20
-76.084738
 40
0.301025
  0
LINE
  8
ボルト／ビス
  6
CONTINUOUS
 62
    64
 10
-34.526872
 20
-76.153655
 11
-34.466308
 21
-75.910912
  0
LINE
  8
ボルト／ビス
  6
CONTINUOUS
 62
    64
 10
-34.2258
 20
-75.841993
 11
-34.466308
 21
-75.910912
  0
LINE
  8
ボルト／ビス
  6
CONTINUOUS
 62
    64
 10
-34.346935
 20
-76.327483
 11
-34.10643
 21
-76.25856
  0
LINE
  8
ボルト／ビス
  6
CONTINUOUS
 62
    64
 10
-34.04586
 20
-76.015817
 11
-34.10643
 21
-76.25856
  0
LINE
  8
ボルト／ビス
  6
CONTINUOUS
 62
    64
 10
-34.526872
 20
-76.153655
 11
-34.346935
 21
-76.327483
  0
LINE
  8
ボルト／ビス
  6
CONTINUOUS
 62
    64
 10
-34.2258
 20
-75.841993
 11
-34.04586
 21
-76.015817
  0
CIRCLE
  8
ボルト／ビス
  6
CONTINUOUS
 62
    64
 10
-34.286367
 20
-76.084738
 40
0.216668
  0
CIRCLE
  8
ボルト／ビス
  6
CONTINUOUS
 10
-26.574295
 20
-68.10138
 40
0.250185
  0
CIRCLE
  8
ボルト／ビス
  6
CONTINUOUS
 10
-26.574295
 20
-68.10138
 40
0.301025
  0
LINE
  8
ボルト／ビス
  6
CONTINUOUS
 62
    64
 10
-26.513728
 20
-67.858635
 11
-26.754233
 21
-67.927557
  0
LINE
  8
ボルト／ビス
  6
CONTINUOUS
 62
    64
 10
-26.814803
 20
-68.1703
 11
-26.754233
 21
-67.927557
  0
LINE
  8
ボルト／ビス
  6
CONTINUOUS
 62
    64
 10
-26.33379
 20
-68.032457
 11
-26.394358
 21
-68.275202
  0
LINE
  8
ボルト／ビス
  6
CONTINUOUS
 62
    64
 10
-26.634862
 20
-68.344122
 11
-26.394358
 21
-68.275202
  0
LINE
  8
ボルト／ビス
  6
CONTINUOUS
 62
    64
 10
-26.513728
 20
-67.858635
 11
-26.33379
 21
-68.032457
  0
LINE
  8
ボルト／ビス
  6
CONTINUOUS
 62
    64
 10
-26.814803
 20
-68.1703
 11
-26.634862
 21
-68.344122
  0
CIRCLE
  8
ボルト／ビス
  6
CONTINUOUS
 62
    64
 10
-26.574295
 20
-68.10138
 40
0.216668
  0
ENDBLK
  0
BLOCK
  2
*GRP_0009
 70
    65
 10
0.0
 20
0.0
  0
LINE
  8
補助線
  6
BYBLOCK
 62
    64
 10
-26.632193
 20
-84.00816
 11
-26.516398
 21
-84.12803
  0
LINE
  8
補助線
  6
BYBLOCK
 62
    64
 10
-26.514358
 20
-84.010195
 11
-26.63423
 21
-84.125993
  0
LINE
  8
補助線
  6
BYBLOCK
 62
    64
 10
-34.344268
 20
-76.024802
 11
-34.228467
 21
-76.144672
  0
LINE
  8
補助線
  6
BYBLOCK
 62
    64
 10
-34.226433
 20
-76.026837
 11
-34.346303
 21
-76.142635
  0
LINE
  8
補助線
  6
BYBLOCK
 62
    64
 10
-41.94054
 20
-68.161315
 11
-42.056337
 21
-68.041445
  0
LINE
  8
補助線
  6
BYBLOCK
 62
    64
 10
-41.938502
 20
-68.04348
 11
-42.058375
 21
-68.159278
  0
LINE
  8
型材断面
  6
CONTINUOUS
 10
-25.743353
 20
-83.728852
 11
-25.755573
 21
-84.435852
  0
LINE
  8
型材断面
  6
CONTINUOUS
 10
-25.755573
 20
-84.435852
 11
-26.235055
 21
-84.89904
  0
LINE
  8
型材断面
  6
CONTINUOUS
 10
-26.235055
 20
-84.89904
 11
-26.942055
 21
-84.88682
  0
LINE
  8
型材断面
  6
CONTINUOUS
 10
-41.63068
 20
-67.282655
 11
-42.337683
 21
-67.270438
  0
LINE
  8
型材断面
  6
CONTINUOUS
 10
-42.337683
 20
-67.270438
 11
-42.817165
 21
-67.733622
  0
LINE
  8
型材断面
  6
CONTINUOUS
 10
-42.817165
 20
-67.733622
 11
-42.829385
 21
-68.440625
  0
LINE
  8
型材断面
  6
CONTINUOUS
 10
-25.743353
 20
-83.728852
 11
-41.63068
 21
-67.282655
  0
LINE
  8
型材断面
  6
CONTINUOUS
 10
-26.942055
 20
-84.88682
 11
-42.829385
 21
-68.440625
  0
CIRCLE
  8
ボルト／ビス
  6
CONTINUOUS
 10
-26.574295
 20
-84.068095
 40
0.250185
  0
CIRCLE
  8
ボルト／ビス
  6
CONTINUOUS
 10
-26.574295
 20
-84.068095
 40
0.301025
  0
LINE
  8
ボルト／ビス
  6
CONTINUOUS
 62
    64
 10
-26.33379
 20
-84.137015
 11
-26.394358
 21
-83.894272
  0
LINE
  8
ボルト／ビス
  6
CONTINUOUS
 62
    64
 10
-26.634862
 20
-83.82535
 11
-26.394358
 21
-83.894272
  0
LINE
  8
ボルト／ビス
  6
CONTINUOUS
 62
    64
 10
-26.513728
 20
-84.31084
 11
-26.754233
 21
-84.241918
  0
LINE
  8
ボルト／ビス
  6
CONTINUOUS
 62
    64
 10
-26.814803
 20
-83.999175
 11
-26.754233
 21
-84.241918
  0
LINE
  8
ボルト／ビス
  6
CONTINUOUS
 62
    64
 10
-26.33379
 20
-84.137015
 11
-26.513728
 21
-84.31084
  0
LINE
  8
ボルト／ビス
  6
CONTINUOUS
 62
    64
 10
-26.634862
 20
-83.82535
 11
-26.814803
 21
-83.999175
  0
CIRCLE
  8
ボルト／ビス
  6
CONTINUOUS
 62
    64
 10
-26.574295
 20
-84.068095
 40
0.216668
  0
CIRCLE
  8
ボルト／ビス
  6
CONTINUOUS
 10
-34.286367
 20
-76.084738
 40
0.250185
  0
CIRCLE
  8
ボルト／ビス
  6
CONTINUOUS
 10
-34.286367
 20
-76.084738
 40
0.301025
  0
LINE
  8
ボルト／ビス
  6
CONTINUOUS
 62
    64
 10
-34.045863
 20
-76.153655
 11
-34.106427
 21
-75.910912
  0
LINE
  8
ボルト／ビス
  6
CONTINUOUS
 62
    64
 10
-34.346935
 20
-75.841993
 11
-34.106427
 21
-75.910912
  0
LINE
  8
ボルト／ビス
  6
CONTINUOUS
 62
    64
 10
-34.2258
 20
-76.327483
 11
-34.466305
 21
-76.25856
  0
LINE
  8
ボルト／ビス
  6
CONTINUOUS
 62
    64
 10
-34.526875
 20
-76.015817
 11
-34.466305
 21
-76.25856
  0
LINE
  8
ボルト／ビス
  6
CONTINUOUS
 62
    64
 10
-34.045863
 20
-76.153655
 11
-34.2258
 21
-76.327483
  0
LINE
  8
ボルト／ビス
  6
CONTINUOUS
 62
    64
 10
-34.346935
 20
-75.841993
 11
-34.526875
 21
-76.015817
  0
CIRCLE
  8
ボルト／ビス
  6
CONTINUOUS
 62
    64
 10
-34.286367
 20
-76.084738
 40
0.216668
  0
CIRCLE
  8
ボルト／ビス
  6
CONTINUOUS
 10
-41.99844
 20
-68.10138
 40
0.250185
  0
CIRCLE
  8
ボルト／ビス
  6
CONTINUOUS
 10
-41.99844
 20
-68.10138
 40
0.301025
  0
LINE
  8
ボルト／ビス
  6
CONTINUOUS
 62
    64
 10
-42.059008
 20
-67.858635
 11
-41.818502
 21
-67.927557
  0
LINE
  8
ボルト／ビス
  6
CONTINUOUS
 62
    64
 10
-41.757932
 20
-68.1703
 11
-41.818502
 21
-67.927557
  0
LINE
  8
ボルト／ビス
  6
CONTINUOUS
 62
    64
 10
-42.238945
 20
-68.032457
 11
-42.178377
 21
-68.275202
  0
LINE
  8
ボルト／ビス
  6
CONTINUOUS
 62
    64
 10
-41.937872
 20
-68.344122
 11
-42.178377
 21
-68.275202
  0
LINE
  8
ボルト／ビス
  6
CONTINUOUS
 62
    64
 10
-42.059008
 20
-67.858635
 11
-42.238945
 21
-68.032457
  0
LINE
  8
ボルト／ビス
  6
CONTINUOUS
 62
    64
 10
-41.757932
 20
-68.1703
 11
-41.937872
 21
-68.344122
  0
CIRCLE
  8
ボルト／ビス
  6
CONTINUOUS
 62
    64
 10
-41.99844
 20
-68.10138
 40
0.216668
  0
ENDBLK
  0
BLOCK
  2
*GRP_0010
 70
    65
 10
0.0
 20
0.0
  0
LINE
  8
補助線
  6
BYBLOCK
 62
    64
 10
17.943663
 20
-84.00816
 11
18.059457
 21
-84.12803
  0
LINE
  8
補助線
  6
BYBLOCK
 62
    64
 10
18.061498
 20
-84.010195
 11
17.941625
 21
-84.125993
  0
LINE
  8
補助線
  6
BYBLOCK
 62
    64
 10
10.231588
 20
-76.024802
 11
10.347387
 21
-76.144672
  0
LINE
  8
補助線
  6
BYBLOCK
 62
    64
 10
10.349423
 20
-76.026837
 11
10.229552
 21
-76.142635
  0
LINE
  8
補助線
  6
BYBLOCK
 62
    64
 10
2.635315
 20
-68.161315
 11
2.519518
 21
-68.041445
  0
LINE
  8
補助線
  6
BYBLOCK
 62
    64
 10
2.637353
 20
-68.04348
 11
2.51748
 21
-68.159278
  0
LINE
  8
型材断面
  6
CONTINUOUS
 10
18.832503
 20
-83.728852
 11
18.820283
 21
-84.435852
  0
LINE
  8
型材断面
  6
CONTINUOUS
 10
18.820283
 20
-84.435852
 11
18.3408
 21
-84.89904
  0
LINE
  8
型材断面
  6
CONTINUOUS
 10
18.3408
 20
-84.89904
 11
17.6338
 21
-84.88682
  0
LINE
  8
型材断面
  6
CONTINUOUS
 10
2.945175
 20
-67.282655
 11
2.238172
 21
-67.270438
  0
LINE
  8
型材断面
  6
CONTINUOUS
 10
2.238172
 20
-67.270438
 11
1.75869
 21
-67.733622
  0
LINE
  8
型材断面
  6
CONTINUOUS
 10
1.75869
 20
-67.733622
 11
1.74647
 21
-68.440625
  0
LINE
  8
型材断面
  6
CONTINUOUS
 10
18.832503
 20
-83.728852
 11
2.945175
 21
-67.282655
  0
LINE
  8
型材断面
  6
CONTINUOUS
 10
17.6338
 20
-84.88682
 11
1.74647
 21
-68.440625
  0
CIRCLE
  8
ボルト／ビス
  6
CONTINUOUS
 10
18.00156
 20
-84.068095
 40
0.250185
  0
CIRCLE
  8
ボルト／ビス
  6
CONTINUOUS
 10
18.00156
 20
-84.068095
 40
0.301025
  0
LINE
  8
ボルト／ビス
  6
CONTINUOUS
 62
    64
 10
18.242065
 20
-84.137015
 11
18.181497
 21
-83.894272
  0
LINE
  8
ボルト／ビス
  6
CONTINUOUS
 62
    64
 10
17.940992
 20
-83.82535
 11
18.181497
 21
-83.894272
  0
LINE
  8
ボルト／ビス
  6
CONTINUOUS
 62
    64
 10
18.062127
 20
-84.31084
 11
17.821623
 21
-84.241918
  0
LINE
  8
ボルト／ビス
  6
CONTINUOUS
 62
    64
 10
17.761053
 20
-83.999175
 11
17.821623
 21
-84.241918
  0
LINE
  8
ボルト／ビス
  6
CONTINUOUS
 62
    64
 10
18.242065
 20
-84.137015
 11
18.062127
 21
-84.31084
  0
LINE
  8
ボルト／ビス
  6
CONTINUOUS
 62
    64
 10
17.940992
 20
-83.82535
 11
17.761053
 21
-83.999175
  0
CIRCLE
  8
ボルト／ビス
  6
CONTINUOUS
 62
    64
 10
18.00156
 20
-84.068095
 40
0.216668
  0
CIRCLE
  8
ボルト／ビス
  6
CONTINUOUS
 10
10.289487
 20
-76.084738
 40
0.250185
  0
CIRCLE
  8
ボルト／ビス
  6
CONTINUOUS
 10
10.289487
 20
-76.084738
 40
0.301025
  0
LINE
  8
ボルト／ビス
  6
CONTINUOUS
 62
    64
 10
10.529992
 20
-76.153655
 11
10.469427
 21
-75.910912
  0
LINE
  8
ボルト／ビス
  6
CONTINUOUS
 62
    64
 10
10.22892
 20
-75.841993
 11
10.469427
 21
-75.910912
  0
LINE
  8
ボルト／ビス
  6
CONTINUOUS
 62
    64
 10
10.350055
 20
-76.327483
 11
10.10955
 21
-76.25856
  0
LINE
  8
ボルト／ビス
  6
CONTINUOUS
 62
    64
 10
10.04898
 20
-76.015817
 11
10.10955
 21
-76.25856
  0
LINE
  8
ボルト／ビス
  6
CONTINUOUS
 62
    64
 10
10.529992
 20
-76.153655
 11
10.350055
 21
-76.327483
  0
LINE
  8
ボルト／ビス
  6
CONTINUOUS
 62
    64
 10
10.22892
 20
-75.841993
 11
10.04898
 21
-76.015817
  0
CIRCLE
  8
ボルト／ビス
  6
CONTINUOUS
 62
    64
 10
10.289487
 20
-76.084738
 40
0.216668
  0
CIRCLE
  8
ボルト／ビス
  6
CONTINUOUS
 10
2.577415
 20
-68.10138
 40
0.250185
  0
CIRCLE
  8
ボルト／ビス
  6
CONTINUOUS
 10
2.577415
 20
-68.10138
 40
0.301025
  0
LINE
  8
ボルト／ビス
  6
CONTINUOUS
 62
    64
 10
2.516848
 20
-67.858635
 11
2.757352
 21
-67.927557
  0
LINE
  8
ボルト／ビス
  6
CONTINUOUS
 62
    64
 10
2.817922
 20
-68.1703
 11
2.757352
 21
-67.927557
  0
LINE
  8
ボルト／ビス
  6
CONTINUOUS
 62
    64
 10
2.33691
 20
-68.032457
 11
2.397478
 21
-68.275202
  0
LINE
  8
ボルト／ビス
  6
CONTINUOUS
 62
    64
 10
2.637982
 20
-68.344122
 11
2.397478
 21
-68.275202
  0
LINE
  8
ボルト／ビス
  6
CONTINUOUS
 62
    64
 10
2.516848
 20
-67.858635
 11
2.33691
 21
-68.032457
  0
LINE
  8
ボルト／ビス
  6
CONTINUOUS
 62
    64
 10
2.817922
 20
-68.1703
 11
2.637982
 21
-68.344122
  0
CIRCLE
  8
ボルト／ビス
  6
CONTINUOUS
 62
    64
 10
2.577415
 20
-68.10138
 40
0.216668
  0
ENDBLK
  0
BLOCK
  2
*GRP_0011
 70
    65
 10
0.0
 20
0.0
  0
LINE
  8
補助線
  6
BYBLOCK
 62
    64
 10
2.635312
 20
-84.00816
 11
2.519518
 21
-84.12803
  0
LINE
  8
補助線
  6
BYBLOCK
 62
    64
 10
2.517477
 20
-84.010195
 11
2.63735
 21
-84.125993
  0
LINE
  8
補助線
  6
BYBLOCK
 62
    64
 10
10.347387
 20
-76.024802
 11
10.231588
 21
-76.144672
  0
LINE
  8
補助線
  6
BYBLOCK
 62
    64
 10
10.229552
 20
-76.026837
 11
10.349423
 21
-76.142635
  0
LINE
  8
補助線
  6
BYBLOCK
 62
    64
 10
17.94366
 20
-68.161315
 11
18.059457
 21
-68.041445
  0
LINE
  8
補助線
  6
BYBLOCK
 62
    64
 10
17.941623
 20
-68.04348
 11
18.061495
 21
-68.159278
  0
LINE
  8
型材断面
  6
CONTINUOUS
 10
1.746472
 20
-83.728852
 11
1.758692
 21
-84.435852
  0
LINE
  8
型材断面
  6
CONTINUOUS
 10
1.758692
 20
-84.435852
 11
2.238175
 21
-84.89904
  0
LINE
  8
型材断面
  6
CONTINUOUS
 10
2.238175
 20
-84.89904
 11
2.945175
 21
-84.88682
  0
LINE
  8
型材断面
  6
CONTINUOUS
 10
17.6338
 20
-67.282655
 11
18.340803
 21
-67.270438
  0
LINE
  8
型材断面
  6
CONTINUOUS
 10
18.340803
 20
-67.270438
 11
18.820285
 21
-67.733622
  0
LINE
  8
型材断面
  6
CONTINUOUS
 10
18.820285
 20
-67.733622
 11
18.832505
 21
-68.440625
  0
LINE
  8
型材断面
  6
CONTINUOUS
 10
1.746472
 20
-83.728852
 11
17.6338
 21
-67.282655
  0
LINE
  8
型材断面
  6
CONTINUOUS
 10
2.945175
 20
-84.88682
 11
18.832505
 21
-68.440625
  0
CIRCLE
  8
ボルト／ビス
  6
CONTINUOUS
 10
2.577415
 20
-84.068095
 40
0.250185
  0
CIRCLE
  8
ボルト／ビス
  6
CONTINUOUS
 10
2.577415
 20
-84.068095
 40
0.301025
  0
LINE
  8
ボルト／ビス
  6
CONTINUOUS
 62
    64
 10
2.33691
 20
-84.137015
 11
2.397478
 21
-83.894272
  0
LINE
  8
ボルト／ビス
  6
CONTINUOUS
 62
    64
 10
2.637982
 20
-83.82535
 11
2.397478
 21
-83.894272
  0
LINE
  8
ボルト／ビス
  6
CONTINUOUS
 62
    64
 10
2.516848
 20
-84.31084
 11
2.757352
 21
-84.241918
  0
LINE
  8
ボルト／ビス
  6
CONTINUOUS
 62
    64
 10
2.817922
 20
-83.999175
 11
2.757352
 21
-84.241918
  0
LINE
  8
ボルト／ビス
  6
CONTINUOUS
 62
    64
 10
2.33691
 20
-84.137015
 11
2.516848
 21
-84.31084
  0
LINE
  8
ボルト／ビス
  6
CONTINUOUS
 62
    64
 10
2.637982
 20
-83.82535
 11
2.817922
 21
-83.999175
  0
CIRCLE
  8
ボルト／ビス
  6
CONTINUOUS
 62
    64
 10
2.577415
 20
-84.068095
 40
0.216668
  0
CIRCLE
  8
ボルト／ビス
  6
CONTINUOUS
 10
10.289487
 20
-76.084738
 40
0.250185
  0
CIRCLE
  8
ボルト／ビス
  6
CONTINUOUS
 10
10.289487
 20
-76.084738
 40
0.301025
  0
LINE
  8
ボルト／ビス
  6
CONTINUOUS
 62
    64
 10
10.048983
 20
-76.153655
 11
10.109548
 21
-75.910912
  0
LINE
  8
ボルト／ビス
  6
CONTINUOUS
 62
    64
 10
10.350055
 20
-75.841993
 11
10.109548
 21
-75.910912
  0
LINE
  8
ボルト／ビス
  6
CONTINUOUS
 62
    64
 10
10.22892
 20
-76.327483
 11
10.469425
 21
-76.25856
  0
LINE
  8
ボルト／ビス
  6
CONTINUOUS
 62
    64
 10
10.529995
 20
-76.015817
 11
10.469425
 21
-76.25856
  0
LINE
  8
ボルト／ビス
  6
CONTINUOUS
 62
    64
 10
10.048983
 20
-76.153655
 11
10.22892
 21
-76.327483
  0
LINE
  8
ボルト／ビス
  6
CONTINUOUS
 62
    64
 10
10.350055
 20
-75.841993
 11
10.529995
 21
-76.015817
  0
CIRCLE
  8
ボルト／ビス
  6
CONTINUOUS
 62
    64
 10
10.289487
 20
-76.084738
 40
0.216668
  0
CIRCLE
  8
ボルト／ビス
  6
CONTINUOUS
 10
18.00156
 20
-68.10138
 40
0.250185
  0
CIRCLE
  8
ボルト／ビス
  6
CONTINUOUS
 10
18.00156
 20
-68.10138
 40
0.301025
  0
LINE
  8
ボルト／ビス
  6
CONTINUOUS
 62
    64
 10
18.062127
 20
-67.858635
 11
17.821623
 21
-67.927557
  0
LINE
  8
ボルト／ビス
  6
CONTINUOUS
 62
    64
 10
17.761053
 20
-68.1703
 11
17.821623
 21
-67.927557
  0
LINE
  8
ボルト／ビス
  6
CONTINUOUS
 62
    64
 10
18.242065
 20
-68.032457
 11
18.181497
 21
-68.275202
  0
LINE
  8
ボルト／ビス
  6
CONTINUOUS
 62
    64
 10
17.940992
 20
-68.344122
 11
18.181497
 21
-68.275202
  0
LINE
  8
ボルト／ビス
  6
CONTINUOUS
 62
    64
 10
18.062127
 20
-67.858635
 11
18.242065
 21
-68.032457
  0
LINE
  8
ボルト／ビス
  6
CONTINUOUS
 62
    64
 10
17.761053
 20
-68.1703
 11
17.940992
 21
-68.344122
  0
CIRCLE
  8
ボルト／ビス
  6
CONTINUOUS
 62
    64
 10
18.00156
 20
-68.10138
 40
0.216668
  0
ENDBLK
  0
BLOCK
  2
*DIM_0012
 70
    65
 10
0.0
 20
0.0
  0
LINE
  8
寸法
  6
BYBLOCK
 62
     0
 10
-45.331778
 20
-25.41413
 11
-45.331778
 21
-22.024302
  0
LINE
  8
寸法
  6
BYBLOCK
 62
     0
 10
21.33489
 20
-22.024302
 11
-45.331778
 21
-22.024302
  0
POINT
  8
寸法
 62
     0
 10
21.33489
 20
-22.024302
  0
POINT
  8
寸法
 62
     0
 10
-45.331778
 20
-22.024302
  0
TEXT
  7
TextStyle03
  8
寸法
  6
CONTINUOUS
 62
     0
 10
-23.74375
 20
-21.65
  1
呼称寸法　2000
 40
3.0
 72
     5
 11
-0.30625
 21
-21.65
  0
ENDBLK
  0
BLOCK
  2
*DIM_0013
 70
    65
 10
0.0
 20
0.0
  0
LINE
  8
寸法
  6
CONTINUOUS
 10
-45.331778
 20
-22.024302
 11
-48.09511
 21
-22.024302
  0
POINT
  8
寸法
 10
-45.331778
 20
-22.024302
  0
POINT
  8
寸法
 10
-48.09511
 20
-22.024302
  0
TEXT
  7
TextStyle03
  8
寸法
  6
CONTINUOUS
 10
-52.70625
 20
-21.125
  1
82.9
 40
3.0
 72
     5
 11
-46.14375
 21
-21.125
  0
ENDBLK
  0
BLOCK
  2
*DIM_0014
 70
    65
 10
0.0
 20
0.0
  0
LINE
  8
寸法
  6
CONTINUOUS
 10
24.098225
 20
-22.024302
 11
21.33489
 21
-22.024302
  0
POINT
  8
寸法
 10
24.098225
 20
-22.024302
  0
POINT
  8
寸法
 10
21.33489
 20
-22.024302
  0
TEXT
  7
TextStyle03
  8
寸法
  6
CONTINUOUS
 10
22.41875
 20
-21.175
  1
82.9
 40
3.0
 72
     5
 11
28.98125
 21
-21.175
  0
ENDBLK
  0
BLOCK
  2
*DIM_0015
 70
    65
 10
0.0
 20
0.0
  0
LINE
  8
寸法
  6
CONTINUOUS
 10
55.35454
 20
59.495565
 11
55.35454
 21
56.73238
  0
POINT
  8
寸法
 10
55.35454
 20
59.495565
  0
POINT
  8
寸法
 10
55.35454
 20
56.73238
  0
TEXT
  7
TextStyle03
  8
寸法
  6
CONTINUOUS
 10
56.75
 20
60.54375
  1
82.9
 40
3.0
 50
90.0
 72
     5
 11
56.75
 21
67.10625
  0
ENDBLK
  0
BLOCK
  2
*DIM_0016
 70
    65
 10
0.0
 20
0.0
  0
LINE
  8
寸法
  6
CONTINUOUS
 10
55.35454
 20
13.399048
 11
55.35454
 21
10.63586
  0
POINT
  8
寸法
 10
55.35454
 20
13.399048
  0
POINT
  8
寸法
 10
55.35454
 20
10.63586
  0
TEXT
  7
TextStyle03
  8
寸法
  6
CONTINUOUS
 10
56.75
 20
2.99375
  1
82.9
 40
3.0
 50
90.0
 72
     5
 11
56.75
 21
9.55625
  0
ENDBLK
  0
BLOCK
  2
*DIM_0017
 70
    65
 10
0.0
 20
0.0
  0
LINE
  8
寸法
  6
CONTINUOUS
 10
55.35454
 20
56.73238
 11
55.35454
 21
13.399048
  0
POINT
  8
寸法
 10
55.35454
 20
56.73238
  0
POINT
  8
寸法
 10
55.35454
 20
13.399048
  0
TEXT
  7
TextStyle03
  8
寸法
  6
CONTINUOUS
 10
54.975
 20
24.175
  1
呼称寸法=1300
 40
3.0
 50
90.0
 72
     5
 11
54.975
 21
45.925
  0
ENDBLK
  0
BLOCK
  2
*DIM_0018
 70
    65
 10
0.0
 20
0.0
  0
LINE
  8
寸法
  6
CONTINUOUS
 10
116.421445
 20
-40.231
 11
83.688112
 21
-40.231
  0
POINT
  8
寸法
 10
116.421445
 20
-40.231
  0
POINT
  8
寸法
 10
83.688112
 20
-40.231
  0
TEXT
  7
TextStyle03
  8
寸法
  6
CONTINUOUS
 10
97.6125
 20
-39.9
  1
982
 40
3.0
 72
     5
 11
102.4875
 21
-39.9
  0
ENDBLK
  0
BLOCK
  2
*DIM_0019
 70
    65
 10
0.0
 20
0.0
  0
LINE
  8
寸法
  6
BYBLOCK
 62
     0
 10
40.511713
 20
-78.49138
 11
40.511713
 21
-65.158047
  0
POINT
  8
寸法
 62
     0
 10
40.511713
 20
-78.49138
  0
POINT
  8
寸法
 62
     0
 10
40.511713
 20
-65.158047
  0
TEXT
  7
TextStyle03
  8
寸法
  6
CONTINUOUS
 62
     0
 10
39.55
 20
-63.26875
  1
上昇328以上
 40
3.0
 50
90.0
 72
     5
 11
39.55
 21
-45.08125
  0
ENDBLK
  0
BLOCK
  2
*DIM_0020
 70
    65
 10
0.0
 20
0.0
  0
LINE
  8
寸法
  6
BYBLOCK
 62
     0
 10
110.251605
 20
65.733497
 11
96.918273
 21
65.733497
  0
POINT
  8
寸法
 62
     0
 10
110.251605
 20
65.733497
  0
POINT
  8
寸法
 62
     0
 10
96.918273
 20
65.733497
  0
TEXT
  7
TextStyle03
  8
寸法
  6
CONTINUOUS
 62
     0
 10
75.58125
 20
64.55
  1
上昇328以上
 40
3.0
 72
     5
 11
93.76875
 21
64.55
  0
ENDBLK
  0
BLOCK
  2
*DIM_0021
 70
    65
 10
0.0
 20
0.0
  0
LINE
  8
寸法
  6
CONTINUOUS
 10
121.421445
 20
-49.867045
 11
130.753468
 21
-49.867045
  0
LINE
  8
寸法
  6
CONTINUOUS
 10
121.421445
 20
-93.20038
 11
130.753468
 21
-93.20038
  0
LINE
  8
寸法
  6
CONTINUOUS
 10
130.753468
 20
-49.867045
 11
130.753468
 21
-93.20038
  0
POINT
  8
寸法
 10
130.753468
 20
-49.867045
  0
POINT
  8
寸法
 10
130.753468
 20
-93.20038
  0
TEXT
  7
TextStyle03
  8
寸法
  6
CONTINUOUS
 10
130.375
 20
-74.83125
  1
1300
 40
3.0
 50
90.0
 72
     5
 11
130.375
 21
-68.26875
  0
ENDBLK
  0
BLOCK
  2
*DIM_0022
 70
    65
 10
0.0
 20
0.0
  0
LINE
  8
寸法
  6
CONTINUOUS
 10
28.010403
 20
-78.49138
 11
40.511713
 21
-78.49138
  0
LINE
  8
寸法
  6
CONTINUOUS
 10
29.098228
 20
-86.607932
 11
40.511713
 21
-86.607932
  0
LINE
  8
寸法
  6
CONTINUOUS
 10
40.511713
 20
-78.49138
 11
40.511713
 21
-86.607932
  0
POINT
  8
寸法
 10
40.511713
 20
-78.49138
  0
POINT
  8
寸法
 10
40.511713
 20
-86.607932
  0
TEXT
  7
TextStyle03
  8
寸法
  6
CONTINUOUS
 10
43.55
 20
-86.675
  1
243.5
 40
3.0
 50
90.0
 72
     5
 11
43.55
 21
-78.425
  0
ENDBLK
  0
BLOCK
  2
*DIM_0023
 70
    65
 10
0.0
 20
0.0
  0
LINE
  8
寸法
  6
CONTINUOUS
 10
110.251605
 20
61.73238
 11
110.251605
 21
65.733497
  0
LINE
  8
寸法
  6
CONTINUOUS
 10
118.368158
 20
61.73238
 11
118.368158
 21
65.733497
  0
LINE
  8
寸法
  6
CONTINUOUS
 10
110.251605
 20
65.733497
 11
118.368158
 21
65.733497
  0
POINT
  8
寸法
 10
110.251605
 20
65.733497
  0
POINT
  8
寸法
 10
118.368158
 20
65.733497
  0
TEXT
  7
TextStyle03
  8
寸法
  6
CONTINUOUS
 10
110.2
 20
66.075
  1
243.5
 40
3.0
 72
     5
 11
118.45
 21
66.075
  0
ENDBLK
  0
ENDSEC
  0
SECTION
  2
ENTITIES
  0
POLYLINE
  8
通り芯
  6
CONTINUOUS
 66
     1
 70
     1
  0
VERTEX
  8
通り芯
 10
-210.0
 20
-148.5
  0
VERTEX
  8
通り芯
 10
210.0
 20
-148.5
  0
VERTEX
  8
通り芯
 10
210.0
 20
148.5
  0
VERTEX
  8
通り芯
 10
-210.0
 20
148.5
  0
SEQEND
  0
INSERT
  2
*GRP_0001
  8
型材断面
  6
CONTINUOUS
 10
0.0
 20
0.0
  0
LINE
  8
型材断面
  6
DASHDOT
 10
21.33489
 20
-87.251428
 11
21.33489
 21
56.73238
  0
LINE
  8
型材断面
  6
DASHDOT
 10
-11.998442
 20
-87.251428
 11
-11.998442
 21
56.73238
  0
LINE
  8
型材断面
  6
DASHDOT
 10
-45.331778
 20
-87.251428
 11
-45.331778
 21
56.73238
  0
LINE
  8
型材断面
  6
DASHDOT
 10
119.011652
 20
56.73238
 11
-45.331778
 21
56.73238
  0
LINE
  8
型材断面
  6
DASHDOT
 10
119.011652
 20
35.065715
 11
-45.331778
 21
35.065715
  0
LINE
  8
型材断面
  6
DASHDOT
 10
119.011652
 20
13.399048
 11
-45.331778
 21
13.399048
  0
POLYLINE
  8
型材断面
  6
CONTINUOUS
 66
     1
 70
     1
  0
VERTEX
  8
型材断面
 10
-2.516932
 20
66.508305
  0
VERTEX
  8
型材断面
 10
-21.288862
 20
66.508305
  0
VERTEX
  8
型材断面
 10
-21.288862
 20
71.245147
  0
VERTEX
  8
型材断面
 10
-2.516932
 20
71.245147
  0
SEQEND
  0
POLYLINE
  8
型材断面
  6
CONTINUOUS
 66
     1
 70
     1
  0
VERTEX
  8
型材断面
 10
-2.516932
 20
3.623125
  0
VERTEX
  8
型材断面
 10
-21.288862
 20
3.623125
  0
VERTEX
  8
型材断面
 10
-21.288862
 20
-1.113717
  0
VERTEX
  8
型材断面
 10
-2.516932
 20
-1.113717
  0
SEQEND
  0
LINE
  8
型材断面
  6
CONTINUOUS
 10
-86.183985
 20
94.709852
 11
-85.58793
 21
92.119345
  0
LINE
  8
型材断面
  6
CONTINUOUS
 10
-86.183985
 20
94.709852
 11
-86.780043
 21
92.119345
  0
LINE
  8
型材断面
  6
CONTINUOUS
 10
-86.780043
 20
92.119345
 11
-85.58793
 21
92.119345
  0
LINE
  8
型材断面
  6
CONTINUOUS
 10
-92.206573
 20
88.840452
 11
-45.964795
 21
88.840452
  0
LINE
  8
型材断面
  6
CONTINUOUS
 10
-86.183985
 20
101.239727
 11
-87.679615
 21
98.64922
  0
LINE
  8
型材断面
  6
CONTINUOUS
 10
-86.183985
 20
101.239727
 11
-84.688355
 21
98.64922
  0
LINE
  8
型材断面
  6
CONTINUOUS
 10
-84.688355
 20
98.64922
 11
-87.679615
 21
98.64922
  0
LINE
  8
型材断面
  6
CONTINUOUS
 10
-92.206573
 20
97.710625
 11
-45.964795
 21
97.710625
  0
LINE
  8
型材断面
  6
CONTINUOUS
 10
-92.206573
 20
83.05242
 11
-45.964795
 21
83.05242
  0
LINE
  8
型材断面
  6
CONTINUOUS
 10
-92.206573
 20
77.264387
 11
-45.964795
 21
77.264387
  0
INSERT
  2
*GRP_0008
  8
型材断面
  6
CONTINUOUS
 10
0.0
 20
0.0
  0
INSERT
  2
*GRP_0009
  8
型材断面
  6
CONTINUOUS
 10
0.0
 20
0.0
  0
INSERT
  2
*GRP_0010
  8
型材断面
  6
CONTINUOUS
 10
0.0
 20
0.0
  0
INSERT
  2
*GRP_0011
  8
型材断面
  6
CONTINUOUS
 10
0.0
 20
0.0
  0
LINE
  8
型材断面
  6
CONTINUOUS
 10
-48.09511
 20
10.63586
 11
24.098225
 21
10.63586
  0
LINE
  8
型材断面
  6
CONTINUOUS
 10
24.098225
 20
59.495565
 11
-48.09511
 21
59.495565
  0
LINE
  8
型材断面
  6
CONTINUOUS
 10
-48.09511
 20
35.065712
 11
-50.685617
 21
36.561342
  0
LINE
  8
型材断面
  6
CONTINUOUS
 10
-48.09511
 20
35.065712
 11
-50.685617
 21
33.570082
  0
LINE
  8
型材断面
  6
CONTINUOUS
 10
-50.685617
 20
33.570082
 11
-50.685617
 21
36.561342
  0
LINE
  8
型材断面
  6
CONTINUOUS
 10
-48.095107
 20
53.03238
 11
-50.685617
 21
52.436327
  0
LINE
  8
型材断面
  6
CONTINUOUS
 10
-48.095107
 20
53.03238
 11
-50.685615
 21
53.62844
  0
LINE
  8
型材断面
  6
CONTINUOUS
 10
-50.685615
 20
53.62844
 11
-50.685617
 21
52.436327
  0
LINE
  8
型材断面
  6
CONTINUOUS
 10
-48.095107
 20
17.099045
 11
-50.685617
 21
17.695097
  0
LINE
  8
型材断面
  6
CONTINUOUS
 10
-48.095107
 20
17.099045
 11
-50.685615
 21
16.502985
  0
LINE
  8
型材断面
  6
CONTINUOUS
 10
-50.685615
 20
16.502985
 11
-50.685617
 21
17.695097
  0
LINE
  8
型材断面
  6
CONTINUOUS
 10
-28.66511
 20
59.495565
 11
-30.16074
 21
62.086073
  0
LINE
  8
型材断面
  6
CONTINUOUS
 10
-28.66511
 20
59.495565
 11
-27.16948
 21
62.086073
  0
LINE
  8
型材断面
  6
CONTINUOUS
 10
-27.16948
 20
62.086073
 11
-30.16074
 21
62.086073
  0
LINE
  8
型材断面
  6
CONTINUOUS
 10
4.668225
 20
59.495565
 11
6.163855
 21
62.086073
  0
LINE
  8
型材断面
  6
CONTINUOUS
 10
4.668225
 20
59.495565
 11
3.172595
 21
62.086073
  0
LINE
  8
型材断面
  6
CONTINUOUS
 10
3.172595
 20
62.086073
 11
6.163855
 21
62.086073
  0
LINE
  8
型材断面
  6
CONTINUOUS
 10
24.098225
 20
35.065715
 11
26.688732
 21
36.561345
  0
LINE
  8
型材断面
  6
CONTINUOUS
 10
24.098225
 20
35.065715
 11
26.688732
 21
33.570085
  0
LINE
  8
型材断面
  6
CONTINUOUS
 10
26.688732
 20
33.570085
 11
26.688732
 21
36.561345
  0
LINE
  8
型材断面
  6
CONTINUOUS
 10
24.098222
 20
53.032382
 11
26.688732
 21
52.43633
  0
LINE
  8
型材断面
  6
CONTINUOUS
 10
24.098222
 20
53.032382
 11
26.68873
 21
53.628442
  0
LINE
  8
型材断面
  6
CONTINUOUS
 10
26.68873
 20
53.628442
 11
26.688732
 21
52.43633
  0
LINE
  8
型材断面
  6
CONTINUOUS
 10
24.098222
 20
17.099048
 11
26.688732
 21
17.6951
  0
LINE
  8
型材断面
  6
CONTINUOUS
 10
24.098222
 20
17.099048
 11
26.68873
 21
16.502988
  0
LINE
  8
型材断面
  6
CONTINUOUS
 10
26.68873
 20
16.502988
 11
26.688732
 21
17.6951
  0
LINE
  8
型材断面
  6
CONTINUOUS
 10
-28.66511
 20
10.63586
 11
-30.16074
 21
8.045353
  0
LINE
  8
型材断面
  6
CONTINUOUS
 10
-28.66511
 20
10.63586
 11
-27.16948
 21
8.045353
  0
LINE
  8
型材断面
  6
CONTINUOUS
 10
-27.16948
 20
8.045353
 11
-30.16074
 21
8.045353
  0
LINE
  8
型材断面
  6
CONTINUOUS
 10
4.668225
 20
10.63586
 11
6.163855
 21
8.045353
  0
LINE
  8
型材断面
  6
CONTINUOUS
 10
4.668225
 20
10.63586
 11
3.172595
 21
8.045353
  0
LINE
  8
型材断面
  6
CONTINUOUS
 10
3.172595
 20
8.045353
 11
6.163855
 21
8.045353
  0
LINE
  8
型材断面
  6
CONTINUOUS
 10
-10.748442
 20
14.89905
 11
-13.248442
 21
14.89905
  0
LINE
  8
型材断面
  6
CONTINUOUS
 10
-10.748442
 20
14.89905
 11
-10.748442
 21
55.23238
  0
LINE
  8
型材断面
  6
CONTINUOUS
 10
-10.748442
 20
55.23238
 11
-13.248442
 21
55.23238
  0
LINE
  8
型材断面
  6
CONTINUOUS
 10
-13.248442
 20
14.89905
 11
-13.248442
 21
55.23238
  0
LINE
  8
型材断面
  6
CONTINUOUS
 10
24.098228
 20
10.63586
 11
24.098228
 21
59.495565
  0
LINE
  8
型材断面
  6
CONTINUOUS
 10
22.932547
 20
11.565692
 11
23.168247
 21
11.801392
  0
LINE
  8
型材断面
  6
CONTINUOUS
 10
20.432545
 20
14.065692
 11
20.668245
 21
14.301392
  0
LINE
  8
型材断面
  6
CONTINUOUS
 10
20.668245
 20
14.301392
 11
23.168247
 21
11.801392
  0
LINE
  8
型材断面
  6
CONTINUOUS
 10
23.168217
 20
35.065715
 11
23.168247
 21
11.801392
  0
LINE
  8
型材断面
  6
CONTINUOUS
 10
20.432545
 20
14.065692
 11
22.932547
 21
11.565692
  0
LINE
  8
型材断面
  6
CONTINUOUS
 10
24.09808
 20
10.63586
 11
23.050395
 21
11.68354
  0
LINE
  8
型材断面
  6
CONTINUOUS
 10
20.668217
 20
34.649048
 11
23.168217
 21
34.649048
  0
LINE
  8
型材断面
  6
CONTINUOUS
 10
20.668217
 20
35.482382
 11
23.168217
 21
35.482382
  0
LINE
  8
型材断面
  6
CONTINUOUS
 10
20.668217
 20
34.649048
 11
20.668245
 21
14.301392
  0
LINE
  8
型材断面
  6
CONTINUOUS
 10
22.932547
 20
58.565738
 11
23.168247
 21
58.330038
  0
LINE
  8
型材断面
  6
CONTINUOUS
 10
20.432545
 20
56.065738
 11
20.668245
 21
55.830038
  0
LINE
  8
型材断面
  6
CONTINUOUS
 10
20.432545
 20
56.065738
 11
22.932547
 21
58.565738
  0
LINE
  8
型材断面
  6
CONTINUOUS
 10
24.09808
 20
59.49557
 11
23.050395
 21
58.44789
  0
LINE
  8
型材断面
  6
CONTINUOUS
 10
20.668245
 20
55.830038
 11
23.168247
 21
58.330038
  0
LINE
  8
型材断面
  6
CONTINUOUS
 10
23.168217
 20
35.065715
 11
23.168247
 21
58.330038
  0
LINE
  8
型材断面
  6
CONTINUOUS
 10
20.668217
 20
35.482382
 11
20.668245
 21
55.830038
  0
LINE
  8
型材断面
  6
CONTINUOUS
 10
-11.998442
 20
58.56571
 11
22.932547
 21
58.565738
  0
LINE
  8
型材断面
  6
CONTINUOUS
 10
-11.998442
 20
11.565885
 11
22.932382
 21
11.565857
  0
LINE
  8
型材断面
  6
CONTINUOUS
 10
5.084893
 20
11.565872
 11
5.084893
 21
14.065705
  0
LINE
  8
型材断面
  6
CONTINUOUS
 10
4.251557
 20
11.565872
 11
4.251557
 21
14.065705
  0
LINE
  8
型材断面
  6
CONTINUOUS
 10
5.084893
 20
58.565558
 11
5.084893
 21
56.065725
  0
LINE
  8
型材断面
  6
CONTINUOUS
 10
4.251557
 20
58.565558
 11
4.251557
 21
56.065725
  0
LINE
  8
型材断面
  6
CONTINUOUS
 10
-11.998442
 20
56.065712
 11
4.251557
 21
56.065725
  0
LINE
  8
型材断面
  6
CONTINUOUS
 10
5.084893
 20
56.065725
 11
20.432545
 21
56.065738
  0
LINE
  8
型材断面
  6
CONTINUOUS
 10
-11.998442
 20
14.065718
 11
4.251557
 21
14.065705
  0
LINE
  8
型材断面
  6
CONTINUOUS
 10
5.084893
 20
14.065705
 11
20.432545
 21
14.065692
  0
LINE
  8
型材断面
  6
CONTINUOUS
 10
-48.095112
 20
10.63586
 11
-48.095112
 21
59.495565
  0
LINE
  8
型材断面
  6
CONTINUOUS
 10
-46.929432
 20
11.565692
 11
-47.165132
 21
11.801392
  0
LINE
  8
型材断面
  6
CONTINUOUS
 10
-44.42943
 20
14.065692
 11
-44.66513
 21
14.301392
  0
LINE
  8
型材断面
  6
CONTINUOUS
 10
-44.66513
 20
14.301392
 11
-47.165132
 21
11.801392
  0
LINE
  8
型材断面
  6
CONTINUOUS
 10
-47.165103
 20
35.065715
 11
-47.165132
 21
11.801392
  0
LINE
  8
型材断面
  6
CONTINUOUS
 10
-44.42943
 20
14.065692
 11
-46.929432
 21
11.565692
  0
LINE
  8
型材断面
  6
CONTINUOUS
 10
-48.094965
 20
10.63586
 11
-47.04728
 21
11.68354
  0
LINE
  8
型材断面
  6
CONTINUOUS
 10
-44.665103
 20
34.649048
 11
-47.165103
 21
34.649048
  0
LINE
  8
型材断面
  6
CONTINUOUS
 10
-44.665103
 20
35.482382
 11
-47.165103
 21
35.482382
  0
LINE
  8
型材断面
  6
CONTINUOUS
 10
-44.665103
 20
34.649048
 11
-44.66513
 21
14.301392
  0
LINE
  8
型材断面
  6
CONTINUOUS
 10
-46.929432
 20
58.565738
 11
-47.165132
 21
58.330038
  0
LINE
  8
型材断面
  6
CONTINUOUS
 10
-44.42943
 20
56.065738
 11
-44.66513
 21
55.830038
  0
LINE
  8
型材断面
  6
CONTINUOUS
 10
-44.42943
 20
56.065738
 11
-46.929432
 21
58.565738
  0
LINE
  8
型材断面
  6
CONTINUOUS
 10
-48.094965
 20
59.49557
 11
-47.04728
 21
58.44789
  0
LINE
  8
型材断面
  6
CONTINUOUS
 10
-44.66513
 20
55.830038
 11
-47.165132
 21
58.330038
  0
LINE
  8
型材断面
  6
CONTINUOUS
 10
-47.165103
 20
35.065715
 11
-47.165132
 21
58.330038
  0
LINE
  8
型材断面
  6
CONTINUOUS
 10
-44.665103
 20
35.482382
 11
-44.66513
 21
55.830038
  0
LINE
  8
型材断面
  6
CONTINUOUS
 10
-29.081778
 20
11.565872
 11
-29.081778
 21
14.065705
  0
LINE
  8
型材断面
  6
CONTINUOUS
 10
-28.248442
 20
11.565872
 11
-28.248442
 21
14.065705
  0
LINE
  8
型材断面
  6
CONTINUOUS
 10
-29.081778
 20
58.565558
 11
-29.081778
 21
56.065725
  0
LINE
  8
型材断面
  6
CONTINUOUS
 10
-28.248442
 20
58.565558
 11
-28.248442
 21
56.065725
  0
LINE
  8
型材断面
  6
CONTINUOUS
 10
-29.081778
 20
56.065725
 11
-44.42943
 21
56.065738
  0
LINE
  8
型材断面
  6
CONTINUOUS
 10
-29.081778
 20
14.065705
 11
-44.42943
 21
14.065692
  0
LINE
  8
型材断面
  6
CONTINUOUS
 10
-11.998442
 20
14.065718
 11
-28.248442
 21
14.065705
  0
LINE
  8
型材断面
  6
CONTINUOUS
 10
-11.998442
 20
56.065712
 11
-28.248442
 21
56.065725
  0
LINE
  8
型材断面
  6
CONTINUOUS
 10
22.932547
 20
58.565738
 11
-46.929432
 21
58.565738
  0
LINE
  8
型材断面
  6
CONTINUOUS
 10
-11.998442
 20
58.56571
 11
-46.929432
 21
58.565738
  0
LINE
  8
型材断面
  6
CONTINUOUS
 10
-11.998442
 20
11.565883
 11
-46.92927
 21
11.565855
  0
LINE
  8
型材断面
  6
CONTINUOUS
 10
23.598228
 20
-86.607932
 11
23.598228
 21
-86.944597
  0
LINE
  8
型材断面
  6
CONTINUOUS
 10
23.90156
 20
-82.511383
 11
24.098228
 21
-82.70805
  0
LINE
  8
型材断面
  6
CONTINUOUS
 10
24.098228
 20
-82.70805
 11
24.098228
 21
-86.607932
  0
LINE
  8
型材断面
  6
CONTINUOUS
 10
24.098228
 20
-86.607932
 11
-11.998442
 21
-86.607932
  0
LINE
  8
型材断面
  6
CONTINUOUS
 10
23.598228
 20
-86.944597
 11
-11.998442
 21
-86.944597
  0
LINE
  8
型材断面
  6
CONTINUOUS
 62
    47
 10
23.901603
 20
-82.511427
 11
-11.998442
 21
-82.511427
  0
LINE
  8
型材断面
  6
CONTINUOUS
 10
24.098228
 20
-82.70805
 11
-11.998442
 21
-82.70805
  0
LINE
  8
型材断面
  6
CONTINUOUS
 10
-47.595112
 20
-86.607932
 11
-47.595112
 21
-86.944597
  0
LINE
  8
型材断面
  6
CONTINUOUS
 10
-47.898445
 20
-82.511383
 11
-48.095112
 21
-82.70805
  0
LINE
  8
型材断面
  6
CONTINUOUS
 10
-48.095112
 20
-82.70805
 11
-48.095112
 21
-86.607932
  0
LINE
  8
型材断面
  6
CONTINUOUS
 10
-48.095112
 20
-86.607932
 11
-11.998442
 21
-86.607932
  0
LINE
  8
型材断面
  6
CONTINUOUS
 10
-47.595112
 20
-86.944597
 11
-11.998442
 21
-86.944597
  0
LINE
  8
型材断面
  6
CONTINUOUS
 62
    47
 10
-47.898488
 20
-82.511427
 11
-11.998442
 21
-82.511427
  0
LINE
  8
型材断面
  6
CONTINUOUS
 10
-48.095112
 20
-82.70805
 11
-11.998442
 21
-82.70805
  0
LINE
  8
型材断面
  6
CONTINUOUS
 10
118.368158
 20
58.995567
 11
118.704823
 21
58.995567
  0
LINE
  8
型材断面
  6
CONTINUOUS
 10
114.271608
 20
59.2989
 11
114.468275
 21
59.495567
  0
LINE
  8
型材断面
  6
CONTINUOUS
 10
114.468275
 20
59.495567
 11
118.368158
 21
59.495567
  0
LINE
  8
型材断面
  6
CONTINUOUS
 62
    47
 10
114.271652
 20
59.298942
 11
114.271652
 21
35.065715
  0
LINE
  8
型材断面
  6
CONTINUOUS
 10
114.468275
 20
59.495567
 11
114.468275
 21
35.065715
  0
LINE
  8
型材断面
  6
CONTINUOUS
 10
118.368158
 20
59.495567
 11
118.368158
 21
35.065715
  0
LINE
  8
型材断面
  6
CONTINUOUS
 10
118.704823
 20
58.995567
 11
118.704823
 21
35.065715
  0
LINE
  8
型材断面
  6
CONTINUOUS
 10
118.368158
 20
11.135863
 11
118.704823
 21
11.135863
  0
LINE
  8
型材断面
  6
CONTINUOUS
 10
114.271608
 20
10.83253
 11
114.468275
 21
10.635863
  0
LINE
  8
型材断面
  6
CONTINUOUS
 10
114.468275
 20
10.635863
 11
118.368158
 21
10.635863
  0
LINE
  8
型材断面
  6
CONTINUOUS
 62
    47
 10
114.271652
 20
10.832488
 11
114.271652
 21
35.065715
  0
LINE
  8
型材断面
  6
CONTINUOUS
 10
114.468275
 20
10.635863
 11
114.468275
 21
35.065715
  0
LINE
  8
型材断面
  6
CONTINUOUS
 10
118.368158
 20
10.635863
 11
118.368158
 21
35.065715
  0
LINE
  8
型材断面
  6
CONTINUOUS
 10
118.704823
 20
11.135863
 11
118.704823
 21
35.065715
  0
TEXT
  7
TextStyle03
  8
文字
  6
CONTINUOUS
 10
-20.25
 20
67.2
  1
可動装置側
 40
3.0
 72
     5
 11
-3.75
 21
67.2
  0
TEXT
  7
TextStyle03
  8
文字
  6
CONTINUOUS
 10
-20.25
 20
-0.075
  1
可動装置側
 40
3.0
 72
     5
 11
-3.75
 21
-0.075
  0
TEXT
  7
TextStyle03
  8
文字
  6
CONTINUOUS
 10
-83.45
 20
93.325
  1
はケーシング位置を示す
 40
3.0
 72
     5
 11
-46.7
 21
93.325
  0
TEXT
  7
TextStyle03
  8
文字
  6
CONTINUOUS
 10
-83.45
 20
89.95
  1
４ヶ所中1ヶ所に設定
 40
3.0
 72
     5
 11
-51.7625
 21
89.95
  0
TEXT
  7
TextStyle03
  8
文字
  6
CONTINUOUS
 10
-83.45
 20
98.85
  1
は排水穴位置を示す
 40
3.0
 72
     5
 11
-53.45
 21
98.85
  0
TEXT
  7
TextStyle03
  8
文字
  6
CONTINUOUS
 10
-87.175
 20
83.975
  1
アンカー数量　１０ヶ所
 40
3.0
 72
     5
 11
-50.425
 21
83.975
  0
TEXT
  7
TextStyle03
  8
文字
  6
CONTINUOUS
 10
-82.95
 20
23.975
  1
アンカーピッチ
 40
3.0
 50
90.0
 72
     5
 11
-82.95
 21
47.225
  0
TEXT
  7
TextStyle03
  8
文字
  6
CONTINUOUS
 10
-87.175
 20
78.2
  1
アームユニット数　４ヶ所
 40
3.0
 72
     5
 11
-47.05
 21
78.2
  0
LINE
  8
文字
  6
CONTINUOUS
 10
24.098225
 20
-80.158047
 11
24.098225
 21
-22.024302
  0
LINE
  8
文字
  6
CONTINUOUS
 10
-48.09511
 20
-80.158047
 11
-48.09511
 21
-22.024302
  0
LINE
  8
文字
  6
CONTINUOUS
 10
40.511713
 20
-65.158047
 11
26.80756
 21
-65.158047
  0
LINE
  8
文字
  6
CONTINUOUS
 10
112.463918
 20
59.495565
 11
55.35454
 21
59.495565
  0
LINE
  8
文字
  6
CONTINUOUS
 10
112.463918
 20
10.63586
 11
55.35454
 21
10.63586
  0
LINE
  8
文字
  6
CONTINUOUS
 10
96.918273
 20
65.733497
 11
96.918273
 21
60.820725
  0
LINE
  8
文字
  6
CONTINUOUS
 10
116.421445
 20
-40.231
 11
116.421445
 21
-48.949
  0
LINE
  8
文字
  6
CONTINUOUS
 10
83.688112
 20
-40.231
 11
83.688112
 21
-48.949
  0
TEXT
  7
TextStyle03
  8
文字
  6
CONTINUOUS
 10
97.9
 20
-86.75
  1
網入り6.8t
 40
3.0
 72
     5
 11
114.5875
 21
-86.75
  0
TEXT
  7
TextStyle03
  8
文字
  6
CONTINUOUS
 10
104.575
 20
-91.425
  1
×２枚
 40
3.0
 72
     5
 11
114.325
 21
-91.425
  0
TEXT
  7
TextStyle03
  8
文字
  6
CONTINUOUS
 10
61.375
 20
125.25
  1
シリーズ：ＴＦＦＬ
 40
5.0
 72
     5
 11
111.375
 21
125.25
  0
TEXT
  7
TextStyle03
  8
文字
  6
CONTINUOUS
 10
61.375
 20
119.625
  1
　　　　　（上下可動）1300×2000タイプ
 40
5.0
 72
     5
 11
167.625
 21
119.625
  0
TEXT
  7
TextStyle03
  8
文字
  6
CONTINUOUS
 10
61.375
 20
114.0
  1
図面名　：外観姿図
 40
5.0
 72
     5
 11
111.375
 21
114.0
  0
TEXT
  7
TextStyle03
  8
文字
  6
CONTINUOUS
 10
61.375
 20
108.375
  1
　　　　　　
 40
5.0
 72
     5
 11
94.5
 21
108.375
  0
TEXT
  7
TextStyle03
  8
文字
  6
CONTINUOUS
 10
61.525
 20
104.525
  1
ＮＳコード：ＮＳＦＬ
 40
5.0
 72
     5
 11
117.15
 21
104.525
  0
INSERT
  2
*DIM_0002
  8
寸法
  6
CONTINUOUS
 10
0.0
 20
0.0
  0
INSERT
  2
*DIM_0003
  8
寸法
  6
CONTINUOUS
 10
0.0
 20
0.0
  0
INSERT
  2
*DIM_0004
  8
寸法
  6
CONTINUOUS
 10
0.0
 20
0.0
  0
INSERT
  2
*DIM_0005
  8
寸法
  6
CONTINUOUS
 10
0.0
 20
0.0
  0
INSERT
  2
*DIM_0006
  8
寸法
  6
CONTINUOUS
 10
0.0
 20
0.0
  0
INSERT
  2
*DIM_0007
  8
寸法
  6
CONTINUOUS
 10
0.0
 20
0.0
  0
INSERT
  2
*DIM_0012
  8
寸法
  6
CONTINUOUS
 10
0.0
 20
0.0
  0
INSERT
  2
*DIM_0013
  8
寸法
  6
CONTINUOUS
 10
0.0
 20
0.0
  0
INSERT
  2
*DIM_0014
  8
寸法
  6
CONTINUOUS
 10
0.0
 20
0.0
  0
INSERT
  2
*DIM_0015
  8
寸法
  6
CONTINUOUS
 10
0.0
 20
0.0
  0
INSERT
  2
*DIM_0016
  8
寸法
  6
CONTINUOUS
 10
0.0
 20
0.0
  0
INSERT
  2
*DIM_0017
  8
寸法
  6
CONTINUOUS
 10
0.0
 20
0.0
  0
INSERT
  2
*DIM_0018
  8
寸法
  6
CONTINUOUS
 10
0.0
 20
0.0
  0
INSERT
  2
*DIM_0019
  8
寸法
  6
CONTINUOUS
 10
0.0
 20
0.0
  0
INSERT
  2
*DIM_0020
  8
寸法
  6
CONTINUOUS
 10
0.0
 20
0.0
  0
INSERT
  2
*DIM_0021
  8
寸法
  6
CONTINUOUS
 10
0.0
 20
0.0
  0
INSERT
  2
*DIM_0022
  8
寸法
  6
CONTINUOUS
 10
0.0
 20
0.0
  0
INSERT
  2
*DIM_0023
  8
寸法
  6
CONTINUOUS
 10
0.0
 20
0.0
  0
LINE
  8
別途部材
  6
CONTINUOUS
 62
    47
 10
-47.165113
 20
-78.59138
 11
-47.165113
 21
-78.658047
  0
ARC
  8
別途部材
  6
CONTINUOUS
 62
    47
 10
-47.06511
 20
-78.591382
 40
0.1
 50
90.0
 51
180.0
  0
LINE
  8
別途部材
  6
CONTINUOUS
 62
    47
 10
-47.00859
 20
-78.658047
 11
-47.00859
 21
-80.158047
  0
LINE
  8
別途部材
  6
CONTINUOUS
 62
    47
 10
-47.065113
 20
-78.49138
 11
-11.998442
 21
-78.49138
  0
LINE
  8
別途部材
  6
CONTINUOUS
 62
    47
 10
-47.165113
 20
-78.658047
 11
-11.998442
 21
-78.658047
  0
LINE
  8
別途部材
  6
CONTINUOUS
 62
    47
 10
-47.00859
 20
-80.158047
 11
-11.998442
 21
-80.158047
  0
LINE
  8
別途部材
  6
CONTINUOUS
 62
    47
 10
-48.09511
 20
-81.30805
 11
-11.998442
 21
-81.30805
  0
LINE
  8
別途部材
  6
CONTINUOUS
 62
    47
 10
-48.09511
 20
-82.474715
 11
-11.998442
 21
-82.474715
  0
LINE
  8
別途部材
  6
CONTINUOUS
 62
    47
 10
23.168227
 20
-78.59138
 11
23.168227
 21
-78.658047
  0
ARC
  8
別途部材
  6
CONTINUOUS
 62
    47
 10
23.068225
 20
-78.591382
 40
0.1
 50
0.0
 51
90.0
  0
LINE
  8
別途部材
  6
CONTINUOUS
 62
    47
 10
23.011705
 20
-78.658047
 11
23.011705
 21
-80.158047
  0
LINE
  8
別途部材
  6
CONTINUOUS
 62
    47
 10
23.068227
 20
-78.49138
 11
-11.998442
 21
-78.49138
  0
LINE
  8
別途部材
  6
CONTINUOUS
 62
    47
 10
23.168227
 20
-78.658047
 11
-11.998442
 21
-78.658047
  0
LINE
  8
別途部材
  6
CONTINUOUS
 62
    47
 10
23.011705
 20
-80.158047
 11
-11.998442
 21
-80.158047
  0
LINE
  8
別途部材
  6
CONTINUOUS
 62
    47
 10
24.098225
 20
-81.30805
 11
-11.998442
 21
-81.30805
  0
LINE
  8
別途部材
  6
CONTINUOUS
 62
    47
 10
24.098225
 20
-82.474715
 11
-11.998442
 21
-82.474715
  0
LINE
  8
別途部材
  6
DOT
 62
    47
 10
-47.165113
 20
-65.258047
 11
-47.165113
 21
-65.324715
  0
ARC
  8
別途部材
  6
DOT
 62
    47
 10
-47.06511
 20
-65.258048
 40
0.1
 50
90.0
 51
180.0
  0
LINE
  8
別途部材
  6
DOT
 62
    47
 10
-47.00859
 20
-65.324715
 11
-47.00859
 21
-66.824715
  0
LINE
  8
別途部材
  6
DOT
 62
    47
 10
-47.065113
 20
-65.158047
 11
-11.998442
 21
-65.158047
  0
LINE
  8
別途部材
  6
DOT
 62
    47
 10
-47.165113
 20
-65.324715
 11
-11.998442
 21
-65.324715
  0
LINE
  8
別途部材
  6
DOT
 62
    47
 10
-47.00859
 20
-66.824715
 11
-11.998442
 21
-66.824715
  0
LINE
  8
別途部材
  6
DOT
 62
    47
 10
-48.09511
 20
-67.974718
 11
-11.998442
 21
-67.974718
  0
LINE
  8
別途部材
  6
DOT
 62
    47
 10
-48.09511
 20
-69.141382
 11
-11.998442
 21
-69.141382
  0
LINE
  8
別途部材
  6
DOT
 62
    47
 10
23.168227
 20
-65.258047
 11
23.168227
 21
-65.324715
  0
ARC
  8
別途部材
  6
DOT
 62
    47
 10
23.068225
 20
-65.258048
 40
0.1
 50
0.0
 51
90.0
  0
LINE
  8
別途部材
  6
DOT
 62
    47
 10
23.011705
 20
-65.324715
 11
23.011705
 21
-66.824715
  0
LINE
  8
別途部材
  6
DOT
 62
    47
 10
23.068227
 20
-65.158047
 11
-11.998442
 21
-65.158047
  0
LINE
  8
別途部材
  6
DOT
 62
    47
 10
23.168227
 20
-65.324715
 11
-11.998442
 21
-65.324715
  0
LINE
  8
別途部材
  6
DOT
 62
    47
 10
23.011705
 20
-66.824715
 11
-11.998442
 21
-66.824715
  0
LINE
  8
別途部材
  6
DOT
 62
    47
 10
24.098225
 20
-67.974718
 11
-11.998442
 21
-67.974718
  0
LINE
  8
別途部材
  6
DOT
 62
    47
 10
24.098225
 20
-69.141382
 11
-11.998442
 21
-69.141382
  0
LINE
  8
別途部材
  6
CONTINUOUS
 62
    47
 10
110.351605
 20
58.565568
 11
110.418273
 21
58.565568
  0
ARC
  8
別途部材
  6
CONTINUOUS
 62
    47
 10
110.351606
 20
58.465567
 40
0.1
 50
90.0
 51
180.0
  0
LINE
  8
別途部材
  6
CONTINUOUS
 62
    47
 10
110.418273
 20
58.409045
 11
111.918273
 21
58.409045
  0
LINE
  8
別途部材
  6
CONTINUOUS
 62
    47
 10
110.351605
 20
11.565857
 11
110.418273
 21
11.565857
  0
ARC
  8
別途部材
  6
CONTINUOUS
 62
    47
 10
110.351606
 20
11.665857
 40
0.1
 50
180.0
 51
270.0
  0
LINE
  8
別途部材
  6
CONTINUOUS
 62
    47
 10
110.418273
 20
11.72238
 11
111.918273
 21
11.72238
  0
LINE
  8
別途部材
  6
CONTINUOUS
 62
    47
 10
110.418273
 20
11.565857
 11
110.418273
 21
35.198768
  0
LINE
  8
別途部材
  6
CONTINUOUS
 62
    47
 10
110.251605
 20
11.665857
 11
110.251605
 21
35.198768
  0
LINE
  8
別途部材
  6
CONTINUOUS
 62
    47
 10
111.918273
 20
11.72238
 11
111.918273
 21
35.198768
  0
LINE
  8
別途部材
  6
CONTINUOUS
 62
    47
 10
113.068275
 20
10.63586
 11
113.068275
 21
35.198768
  0
LINE
  8
別途部材
  6
CONTINUOUS
 62
    47
 10
114.23494
 20
10.63586
 11
114.23494
 21
35.198768
  0
LINE
  8
別途部材
  6
CONTINUOUS
 62
    47
 10
114.23494
 20
59.495565
 11
114.23494
 21
35.198768
  0
LINE
  8
別途部材
  6
CONTINUOUS
 62
    47
 10
113.068275
 20
59.495565
 11
113.068275
 21
35.198768
  0
LINE
  8
別途部材
  6
CONTINUOUS
 62
    47
 10
111.918273
 20
58.409045
 11
111.918273
 21
35.198768
  0
LINE
  8
別途部材
  6
CONTINUOUS
 62
    47
 10
110.418273
 20
58.565568
 11
110.418273
 21
35.198768
  0
LINE
  8
別途部材
  6
CONTINUOUS
 62
    47
 10
110.251605
 20
58.465567
 11
110.251605
 21
35.198768
  0
LINE
  8
別途部材
  6
DOT
 62
    47
 10
97.018273
 20
58.565568
 11
97.08494
 21
58.565568
  0
ARC
  8
別途部材
  6
DOT
 62
    47
 10
97.018271
 20
58.465567
 40
0.1
 50
90.0
 51
180.0
  0
LINE
  8
別途部材
  6
DOT
 62
    47
 10
97.08494
 20
58.409045
 11
98.58494
 21
58.409045
  0
LINE
  8
別途部材
  6
DOT
 62
    47
 10
97.018273
 20
11.565857
 11
97.08494
 21
11.565857
  0
ARC
  8
別途部材
  6
DOT
 62
    47
 10
97.018271
 20
11.665857
 40
0.1
 50
180.0
 51
270.0
  0
LINE
  8
別途部材
  6
DOT
 62
    47
 10
97.08494
 20
11.72238
 11
98.58494
 21
11.72238
  0
LINE
  8
別途部材
  6
DOT
 62
    47
 10
99.734943
 20
10.63586
 11
99.734943
 21
35.198768
  0
LINE
  8
別途部材
  6
DOT
 62
    47
 10
96.918273
 20
11.665857
 11
96.918273
 21
35.198768
  0
LINE
  8
別途部材
  6
DOT
 62
    47
 10
98.58494
 20
11.72238
 11
98.58494
 21
35.198768
  0
LINE
  8
別途部材
  6
DOT
 62
    47
 10
100.901607
 20
10.63586
 11
100.901607
 21
35.198768
  0
LINE
  8
別途部材
  6
DOT
 62
    47
 10
97.08494
 20
11.565857
 11
97.08494
 21
35.198768
  0
LINE
  8
別途部材
  6
DOT
 62
    47
 10
100.901607
 20
59.495565
 11
100.901607
 21
35.198768
  0
LINE
  8
別途部材
  6
DOT
 62
    47
 10
99.734943
 20
59.495565
 11
99.734943
 21
35.198768
  0
LINE
  8
別途部材
  6
DOT
 62
    47
 10
98.58494
 20
58.409045
 11
98.58494
 21
35.198768
  0
LINE
  8
別途部材
  6
DOT
 62
    47
 10
96.918273
 20
58.465567
 11
96.918273
 21
35.198768
  0
LINE
  8
別途部材
  6
DOT
 62
    47
 10
97.08494
 20
58.565568
 11
97.08494
 21
35.198768
  0
LINE
  8
別途部材
  6
CONTINUOUS
 10
83.688112
 20
-49.867045
 11
83.688112
 21
-93.20038
  0
LINE
  8
曲げ物
  6
CONTINUOUS
 10
7.772437
 20
37.022003
 11
4.077125
 21
33.32669
  0
LINE
  8
曲げ物
  6
CONTINUOUS
 10
7.068967
 20
35.485893
 11
5.613237
 21
34.030163
  0
LINE
  8
曲げ物
  6
CONTINUOUS
 10
6.236327
 20
36.318533
 11
4.780597
 21
34.862803
  0
LINE
  8
曲げ物
  6
CONTINUOUS
 10
-25.730152
 20
37.022003
 11
-29.425465
 21
33.32669
  0
LINE
  8
曲げ物
  6
CONTINUOUS
 10
-26.433623
 20
35.485893
 11
-27.889353
 21
34.030163
  0
LINE
  8
曲げ物
  6
CONTINUOUS
 10
-27.266262
 20
36.318533
 11
-28.721993
 21
34.862803
  0
LINE
  8
曲げ物
  6
CONTINUOUS
 10
116.421445
 20
-49.867045
 11
83.688112
 21
-49.867045
  0
LINE
  8
曲げ物
  6
CONTINUOUS
 10
116.421445
 20
-93.20038
 11
83.688112
 21
-93.20038
  0
LINE
  8
曲げ物
  6
CONTINUOUS
 10
116.421445
 20
-49.867045
 11
116.421445
 21
-93.20038
  0
LINE
  8
鉄骨等
  6
CONTINUOUS
 62
    47
 10
-48.09511
 20
-82.474715
 11
-48.09511
 21
-81.30805
  0
LINE
  8
鉄骨等
  6
CONTINUOUS
 62
    47
 10
-48.09511
 20
-81.30805
 11
-46.691925
 21
-80.15805
  0
LINE
  8
鉄骨等
  6
CONTINUOUS
 62
    47
 10
24.098225
 20
-82.474715
 11
24.098225
 21
-81.30805
  0
LINE
  8
鉄骨等
  6
CONTINUOUS
 62
    47
 10
24.098225
 20
-81.30805
 11
22.69504
 21
-80.15805
  0
LINE
  8
鉄骨等
  6
DOT
 62
    47
 10
-48.09511
 20
-69.141382
 11
-48.09511
 21
-67.974718
  0
LINE
  8
鉄骨等
  6
DOT
 62
    47
 10
-48.09511
 20
-67.974718
 11
-46.691925
 21
-66.824718
  0
LINE
  8
鉄骨等
  6
DOT
 62
    47
 10
24.098225
 20
-69.141382
 11
24.098225
 21
-67.974718
  0
LINE
  8
鉄骨等
  6
DOT
 62
    47
 10
24.098225
 20
-67.974718
 11
22.69504
 21
-66.824718
  0
LINE
  8
鉄骨等
  6
CONTINUOUS
 62
    47
 10
114.23494
 20
59.495565
 11
113.068275
 21
59.495565
  0
LINE
  8
鉄骨等
  6
CONTINUOUS
 62
    47
 10
113.068275
 20
59.495565
 11
111.918275
 21
58.092377
  0
LINE
  8
鉄骨等
  6
CONTINUOUS
 62
    47
 10
114.23494
 20
10.63586
 11
113.068275
 21
10.63586
  0
LINE
  8
鉄骨等
  6
CONTINUOUS
 62
    47
 10
113.068275
 20
10.63586
 11
111.918275
 21
12.039045
  0
LINE
  8
鉄骨等
  6
DOT
 62
    47
 10
100.901607
 20
59.495565
 11
99.734943
 21
59.495565
  0
LINE
  8
鉄骨等
  6
DOT
 62
    47
 10
99.734943
 20
59.495565
 11
98.584943
 21
58.092377
  0
LINE
  8
鉄骨等
  6
DOT
 62
    47
 10
100.901607
 20
10.63586
 11
99.734943
 21
10.63586
  0
LINE
  8
鉄骨等
  6
DOT
 62
    47
 10
99.734943
 20
10.63586
 11
98.584943
 21
12.039045
  0
ENDSEC
  0
EOF
