  0
SECTION
  2
HEADER
  9
$EXTMIN
 10
-210.0
 20
-148.5
  9
$EXTMAX
 10
210.0
 20
148.5
  9
$PDMODE
 70
    32
  9
$PDSIZE
 40
1.5
  9
$LTSCALE
 40
10.0
  0
ENDSEC
  0
SECTION
  2
TABLES
  0
TABLE
  2
LTYPE
 70
    15
  0
LTYPE
  2
CONTINUOUS
 70
    64
  3
実線
 72
    65
 73
     0
 40
0.0
  0
LTYPE
  2
DASHED
 70
    64
  3
破線A
 72
    65
 73
     2
 40
0.6
 49
0.4
 49
-0.2
  0
LTYPE
  2
DASHEDX2
 70
    64
  3
破線B
 72
    65
 73
     2
 40
1.3
 49
0.9
 49
-0.4
  0
LTYPE
  2
DASHDOT
 70
    64
  3
１点鎖線A
 72
    65
 73
     4
 40
0.5375
 49
0.375
 49
-0.05
 49
0.0625
 49
-0.05
  0
LTYPE
  2
DASHDOTX2
 70
    64
  3
１点鎖線B
 72
    65
 73
     4
 40
1.075
 49
0.75
 49
-0.1
 49
0.125
 49
-0.1
  0
LTYPE
  2
DIVIDE2
 70
    64
  3
２点鎖線A
 72
    65
 73
     6
 40
0.5125
 49
0.3
 49
-0.0375
 49
0.05
 49
-0.0375
 49
0.05
 49
-0.0375
  0
LTYPE
  2
DIVIDE
 70
    64
  3
２点鎖線B
 72
    65
 73
     6
 40
1.05
 49
0.55
 49
-0.1
 49
0.1
 49
-0.1
 49
0.1
 49
-0.1
  0
LTYPE
  2
DOT
 70
    64
  3
点線A
 72
    65
 73
     2
 40
0.1125
 49
0.0625
 49
-0.05
  0
LTYPE
  2
DOTX2
 70
    64
  3
点線B
 72
    65
 73
     2
 40
0.275
 49
0.15
 49
-0.125
  0
LTYPE
  2
CONTINUOUS
 70
    64
  3
実線
 72
    65
 73
     0
 40
0.0
  0
LTYPE
  2
CONTINUOUS
 70
    64
  3
実線
 72
    65
 73
     0
 40
0.0
  0
LTYPE
  2
CONTINUOUS
 70
    64
  3
実線
 72
    65
 73
     0
 40
0.0
  0
LTYPE
  2
CONTINUOUS
 70
    64
  3
実線
 72
    65
 73
     0
 40
0.0
  0
LTYPE
  2
CONTINUOUS
 70
    64
  3
実線
 72
    65
 73
     0
 40
0.0
  0
LTYPE
  2
CONTINUOUS
 70
    64
  3
実線
 72
    65
 73
     0
 40
0.0
  0
ENDTAB
  0
TABLE
  2
LAYER
 70
    34
  0
LAYER
  2
通り芯
 70
     0
 62
    15
  6
CONTINUOUS
  0
LAYER
  2
補助線
 70
     0
 62
    16
  6
DOT
  0
LAYER
  2
躯体
 70
     0
 62
    31
  6
CONTINUOUS
  0
LAYER
  2
型材
 70
     0
 62
    32
  6
CONTINUOUS
  0
LAYER
  2
型材断面
 70
     0
 62
    47
  6
CONTINUOUS
  0
LAYER
  2
ガラス
 70
     0
 62
    48
  6
CONTINUOUS
  0
LAYER
  2
ゴム等
 70
     0
 62
    63
  6
CONTINUOUS
  0
LAYER
  2
ボルト／ビス
 70
     0
 62
    64
  6
CONTINUOUS
  0
LAYER
  2
文字
 70
     0
 62
    79
  6
CONTINUOUS
  0
LAYER
  2
寸法
 70
     0
 62
    80
  6
CONTINUOUS
  0
LAYER
  2
ﾊｯﾁﾝｸﾞ
 70
     0
 62
    95
  6
CONTINUOUS
  0
LAYER
  2
別途部材
 70
     0
 62
    96
  6
CONTINUOUS
  0
LAYER
  2
曲げ物
 70
     0
 62
   111
  6
CONTINUOUS
  0
LAYER
  2
鉄骨等
 70
     0
 62
   112
  6
CONTINUOUS
  0
LAYER
  2
St
 70
     0
 62
   127
  6
CONTINUOUS
  0
LAYER
  2
その他部品等
 70
     0
 62
   128
  6
CONTINUOUS
  0
LAYER
  2
ｶﾞｽｹｯﾄ
 70
     0
 62
   143
  6
CONTINUOUS
  0
LAYER
  2
ｽｹｯﾁ
 70
     0
 62
    14
  6
CONTINUOUS
  0
LAYER
  2
0
 70
     0
 62
    17
  6
CONTINUOUS
  0
LAYER
  2
1
 70
     0
 62
    30
  6
CONTINUOUS
  0
LAYER
  2
4
 70
     0
 62
    33
  6
CONTINUOUS
  0
LAYER
  2
ﾚｲﾔ3
 70
     0
 62
    46
  6
CONTINUOUS
  0
LAYER
  2
外形線
 70
     0
 62
    49
  6
CONTINUOUS
  0
LAYER
  2
部品
 70
     0
 62
    14
  6
CONTINUOUS
  0
LAYER
  2
サッシ芯
 70
     0
 62
    17
  6
DASHDOTX2
  0
LAYER
  2
寸法線
 70
     0
 62
    62
  6
CONTINUOUS
  0
LAYER
  2
姿図外形線
 70
     0
 62
    65
  6
CONTINUOUS
  0
LAYER
  2
姿補助線
 70
     0
 62
    30
  6
CONTINUOUS
  0
LAYER
  2
透視線
 70
     0
 62
    78
  6
DOT
  0
LAYER
  2
用紙
 70
     0
 62
    81
  6
CONTINUOUS
  0
LAYER
  2
実線図枠
 70
     0
 62
    94
  6
CONTINUOUS
  0
LAYER
  2
補助図枠
 70
     0
 62
    97
  6
CONTINUOUS
  0
LAYER
  2
建具記号
 70
     0
 62
   110
  6
CONTINUOUS
  0
LAYER
  2
補助文字
 70
     0
 62
   113
  6
CONTINUOUS
  0
ENDTAB
  0
TABLE
  2
STYLE
 70
    10
  0
STYLE
  2
STANDARD
 70
     0
 40
1.0
 41
1.0
 42
1.0
 50
0.0
 71
     0
  3
TXT
  4
BIGFONT
  0
STYLE
  2
TATE
 70
     4
 40
1.0
 41
1.0
 42
1.0
 50
0.0
 71
     0
  3
TXT
  4
BIGFONT
  0
STYLE
  2
TextStyle03
 70
     0
 40
1.0
 41
1.0
 42
1.0
 50
0.0
 71
     0
  3
MONOTXT
  4
BIGFONT
  0
STYLE
  2
TextStyle04
 70
     0
 40
1.0
 41
1.0
 42
1.0
 50
0.0
 71
     0
  3
MONOTXT
  4
BIGFONT
  0
STYLE
  2
TextStyle05
 70
     0
 40
1.0
 41
1.0
 42
1.0
 50
0.0
 71
     0
  3
MONOTXT
  4
BIGFONT
  0
STYLE
  2
TextStyle06
 70
     0
 40
1.0
 41
1.0
 42
1.0
 50
0.0
 71
     0
  3
MONOTXT
  4
BIGFONT
  0
STYLE
  2
TextStyle07
 70
     0
 40
1.0
 41
1.0
 42
1.0
 50
0.0
 71
     0
  3
MONOTXT
  4
BIGFONT
  0
STYLE
  2
TextStyle08
 70
     0
 40
1.0
 41
1.0
 42
1.0
 50
0.0
 71
     0
  3
MONOTXT
  4
BIGFONT
  0
STYLE
  2
TextStyle09
 70
     0
 40
1.0
 41
1.0
 42
1.0
 50
0.0
 71
     0
  3
MONOTXT
  4
BIGFONT
  0
STYLE
  2
TextStyle10
 70
     0
 40
1.0
 41
1.0
 42
1.0
 50
0.0
 71
     0
  3
MONOTXT
  4
BIGFONT
  0
ENDTAB
  0
ENDSEC
  0
SECTION
  2
BLOCKS
  0
BLOCK
  2
*GRP_0001
 70
    65
 10
0.0
 20
0.0
  0
LINE
  8
型材断面
  6
CONTINUOUS
 10
195.0
 20
133.5
 11
195.0
 21
-133.5
  0
LINE
  8
型材断面
  6
CONTINUOUS
 10
195.0
 20
-133.5
 11
-185.0
 21
-133.5
  0
LINE
  8
型材断面
  6
CONTINUOUS
 10
-185.0
 20
-133.5
 11
-185.0
 21
133.5
  0
LINE
  8
型材断面
  6
CONTINUOUS
 10
195.0
 20
133.5
 11
-185.0
 21
133.5
  0
LINE
  8
型材断面
  6
CONTINUOUS
 10
145.0
 20
-133.5
 11
145.0
 21
-118.5
  0
LINE
  8
型材断面
  6
CONTINUOUS
 10
195.0
 20
-118.5
 11
145.0
 21
-118.5
  0
ENDBLK
  0
BLOCK
  2
*DIM_0002
 70
    65
 10
0.0
 20
0.0
  0
LINE
  8
寸法
  6
BYBLOCK
 62
     0
 10
-45.331775
 20
9.76892
 11
-45.331775
 21
4.76579
  0
LINE
  8
寸法
  6
BYBLOCK
 62
     0
 10
4.66822
 20
9.76892
 11
4.66822
 21
4.76579
  0
LINE
  8
寸法
  6
BYBLOCK
 62
     0
 10
-45.331775
 20
4.76579
 11
4.66822
 21
4.76579
  0
POINT
  8
寸法
 62
     0
 10
-45.331775
 20
4.76579
  0
POINT
  8
寸法
 62
     0
 10
4.66822
 20
4.76579
  0
TEXT
  7
TextStyle03
  8
寸法
  6
CONTINUOUS
 62
     0
 10
-23.63125
 20
5.125
  1
1500
 40
3.0
 72
     5
 11
-17.06875
 21
5.125
  0
ENDBLK
  0
BLOCK
  2
*DIM_0003
 70
    65
 10
0.0
 20
0.0
  0
LINE
  8
寸法
  6
BYBLOCK
 62
     0
 10
22.33489
 20
56.732382
 11
32.059173
 21
56.732382
  0
LINE
  8
寸法
  6
BYBLOCK
 62
     0
 10
24.96502
 20
53.032382
 11
32.059173
 21
53.032382
  0
LINE
  8
寸法
  6
BYBLOCK
 62
     0
 10
32.059173
 20
56.732382
 11
32.059173
 21
53.032382
  0
POINT
  8
寸法
 62
     0
 10
32.059173
 20
56.732382
  0
POINT
  8
寸法
 62
     0
 10
32.059173
 20
53.032382
  0
TEXT
  7
TextStyle03
  8
寸法
  6
CONTINUOUS
 62
     0
 10
31.75
 20
57.7125
  1
111
 40
3.0
 50
90.0
 72
     5
 11
31.75
 21
62.5875
  0
ENDBLK
  0
BLOCK
  2
*DIM_0004
 70
    65
 10
0.0
 20
0.0
  0
LINE
  8
寸法
  6
BYBLOCK
 62
     0
 10
22.33489
 20
13.399048
 11
32.059173
 21
13.399045
  0
LINE
  8
寸法
  6
BYBLOCK
 62
     0
 10
24.96502
 20
17.099048
 11
32.059173
 21
17.099045
  0
LINE
  8
寸法
  6
BYBLOCK
 62
     0
 10
32.059173
 20
13.399045
 11
32.059173
 21
17.099045
  0
POINT
  8
寸法
 62
     0
 10
32.059173
 20
13.399045
  0
POINT
  8
寸法
 62
     0
 10
32.059173
 20
17.099045
  0
TEXT
  7
TextStyle03
  8
寸法
  6
CONTINUOUS
 62
     0
 10
31.725
 20
7.5375
  1
111
 40
3.0
 50
90.0
 72
     5
 11
31.725
 21
12.4125
  0
ENDBLK
  0
BLOCK
  2
*DIM_0005
 70
    65
 10
0.0
 20
0.0
  0
LINE
  8
寸法
  6
BYBLOCK
 62
     0
 10
-64.998442
 20
23.399048
 11
-93.943607
 21
23.399048
  0
LINE
  8
寸法
  6
BYBLOCK
 62
     0
 10
-64.998442
 20
46.732382
 11
-93.943607
 21
46.732382
  0
LINE
  8
寸法
  6
BYBLOCK
 62
     0
 10
-93.943607
 20
23.399048
 11
-93.943607
 21
46.732382
  0
POINT
  8
寸法
 62
     0
 10
-93.943607
 20
23.399048
  0
POINT
  8
寸法
 62
     0
 10
-93.943607
 20
46.732382
  0
TEXT
  7
TextStyle03
  8
寸法
  6
CONTINUOUS
 62
     0
 10
-94.4
 20
32.6125
  1
700
 40
3.0
 50
90.0
 72
     5
 11
-94.4
 21
37.4875
  0
ENDBLK
  0
BLOCK
  2
*DIM_0006
 70
    65
 10
0.0
 20
0.0
  0
LINE
  8
寸法
  6
BYBLOCK
 62
     0
 10
-55.331778
 20
59.73238
 11
-55.331778
 21
89.48
  0
LINE
  8
寸法
  6
BYBLOCK
 62
     0
 10
-31.998445
 20
59.73238
 11
-31.998445
 21
89.48
  0
LINE
  8
寸法
  6
BYBLOCK
 62
     0
 10
-55.331778
 20
89.48
 11
-31.998445
 21
89.48
  0
POINT
  8
寸法
 62
     0
 10
-55.331778
 20
89.48
  0
POINT
  8
寸法
 62
     0
 10
-31.998445
 20
89.48
  0
TEXT
  7
TextStyle03
  8
寸法
  6
CONTINUOUS
 62
     0
 10
-46.1125
 20
89.85
  1
700
 40
3.0
 72
     5
 11
-41.2375
 21
89.85
  0
ENDBLK
  0
BLOCK
  2
*DIM_0007
 70
    65
 10
0.0
 20
0.0
  0
LINE
  8
寸法
  6
BYBLOCK
 62
     0
 10
-8.66511
 20
59.73238
 11
-8.66511
 21
89.48
  0
LINE
  8
寸法
  6
BYBLOCK
 62
     0
 10
-31.998445
 20
89.48
 11
-8.66511
 21
89.48
  0
POINT
  8
寸法
 62
     0
 10
-8.66511
 20
89.48
  0
TEXT
  7
TextStyle03
  8
寸法
  6
CONTINUOUS
 62
     0
 10
-22.7875
 20
89.85
  1
700
 40
3.0
 72
     5
 11
-17.9125
 21
89.85
  0
ENDBLK
  0
BLOCK
  2
*DIM_0008
 70
    65
 10
0.0
 20
0.0
  0
LINE
  8
寸法
  6
BYBLOCK
 62
     0
 10
14.668223
 20
59.73238
 11
14.668223
 21
89.48
  0
LINE
  8
寸法
  6
BYBLOCK
 62
     0
 10
-8.66511
 20
89.48
 11
14.668223
 21
89.48
  0
POINT
  8
寸法
 62
     0
 10
14.668223
 20
89.48
  0
TEXT
  7
TextStyle03
  8
寸法
  6
CONTINUOUS
 62
     0
 10
0.5625
 20
89.85
  1
700
 40
3.0
 72
     5
 11
5.4375
 21
89.85
  0
ENDBLK
  0
BLOCK
  2
*DIM_0009
 70
    65
 10
0.0
 20
0.0
  0
LINE
  8
寸法
  6
CONTINUOUS
 10
55.35454
 20
59.495565
 11
55.35454
 21
56.73238
  0
POINT
  8
寸法
 10
55.35454
 20
59.495565
  0
POINT
  8
寸法
 10
55.35454
 20
56.73238
  0
TEXT
  7
TextStyle03
  8
寸法
  6
CONTINUOUS
 10
56.75
 20
60.54375
  1
82.9
 40
3.0
 50
90.0
 72
     5
 11
56.75
 21
67.10625
  0
ENDBLK
  0
BLOCK
  2
*DIM_0010
 70
    65
 10
0.0
 20
0.0
  0
LINE
  8
寸法
  6
CONTINUOUS
 10
55.35454
 20
13.399048
 11
55.35454
 21
10.63586
  0
POINT
  8
寸法
 10
55.35454
 20
13.399048
  0
POINT
  8
寸法
 10
55.35454
 20
10.63586
  0
TEXT
  7
TextStyle03
  8
寸法
  6
CONTINUOUS
 10
56.75
 20
2.99375
  1
82.9
 40
3.0
 50
90.0
 72
     5
 11
56.75
 21
9.55625
  0
ENDBLK
  0
BLOCK
  2
*DIM_0011
 70
    65
 10
0.0
 20
0.0
  0
LINE
  8
寸法
  6
CONTINUOUS
 10
55.35454
 20
56.73238
 11
55.35454
 21
13.399048
  0
POINT
  8
寸法
 10
55.35454
 20
56.73238
  0
POINT
  8
寸法
 10
55.35454
 20
13.399048
  0
TEXT
  7
TextStyle03
  8
寸法
  6
CONTINUOUS
 10
54.975
 20
24.175
  1
呼称寸法=1300
 40
3.0
 50
90.0
 72
     5
 11
54.975
 21
45.925
  0
ENDBLK
  0
BLOCK
  2
*DIM_0012
 70
    65
 10
0.0
 20
0.0
  0
LINE
  8
寸法
  6
CONTINUOUS
 10
-61.998448
 20
-22.024302
 11
-64.76178
 21
-22.024302
  0
POINT
  8
寸法
 10
-61.998448
 20
-22.024302
  0
POINT
  8
寸法
 10
-64.76178
 20
-22.024302
  0
TEXT
  7
TextStyle03
  8
寸法
  6
CONTINUOUS
 10
-69.33125
 20
-21.15
  1
82.9
 40
3.0
 72
     5
 11
-62.76875
 21
-21.15
  0
ENDBLK
  0
BLOCK
  2
*DIM_0013
 70
    65
 10
0.0
 20
0.0
  0
LINE
  8
寸法
  6
CONTINUOUS
 10
24.098222
 20
-22.024302
 11
21.334887
 21
-22.024302
  0
POINT
  8
寸法
 10
24.098222
 20
-22.024302
  0
POINT
  8
寸法
 10
21.334887
 20
-22.024302
  0
TEXT
  7
TextStyle03
  8
寸法
  6
CONTINUOUS
 10
22.44375
 20
-21.2
  1
82.9
 40
3.0
 72
     5
 11
29.00625
 21
-21.2
  0
ENDBLK
  0
BLOCK
  2
*GRP_0014
 70
    65
 10
0.0
 20
0.0
  0
LINE
  8
補助線
  6
BYBLOCK
 62
    64
 10
-58.607215
 20
-84.00816
 11
-58.72301
 21
-84.12803
  0
LINE
  8
補助線
  6
BYBLOCK
 62
    64
 10
-58.72505
 20
-84.010195
 11
-58.605177
 21
-84.125993
  0
LINE
  8
補助線
  6
BYBLOCK
 62
    64
 10
-50.89514
 20
-76.024802
 11
-51.01094
 21
-76.144672
  0
LINE
  8
補助線
  6
BYBLOCK
 62
    64
 10
-51.012975
 20
-76.026837
 11
-50.893105
 21
-76.142635
  0
LINE
  8
補助線
  6
BYBLOCK
 62
    64
 10
-43.298867
 20
-68.161315
 11
-43.18307
 21
-68.041445
  0
LINE
  8
補助線
  6
BYBLOCK
 62
    64
 10
-43.300905
 20
-68.04348
 11
-43.181033
 21
-68.159278
  0
LINE
  8
型材断面
  6
CONTINUOUS
 10
-59.496055
 20
-83.728852
 11
-59.483835
 21
-84.435852
  0
LINE
  8
型材断面
  6
CONTINUOUS
 10
-59.483835
 20
-84.435852
 11
-59.004353
 21
-84.89904
  0
LINE
  8
型材断面
  6
CONTINUOUS
 10
-59.004353
 20
-84.89904
 11
-58.297353
 21
-84.88682
  0
LINE
  8
型材断面
  6
CONTINUOUS
 10
-43.608727
 20
-67.282655
 11
-42.901725
 21
-67.270438
  0
LINE
  8
型材断面
  6
CONTINUOUS
 10
-42.901725
 20
-67.270438
 11
-42.422242
 21
-67.733622
  0
LINE
  8
型材断面
  6
CONTINUOUS
 10
-42.422242
 20
-67.733622
 11
-42.410023
 21
-68.440625
  0
LINE
  8
型材断面
  6
CONTINUOUS
 10
-59.496055
 20
-83.728852
 11
-43.608727
 21
-67.282655
  0
LINE
  8
型材断面
  6
CONTINUOUS
 10
-58.297353
 20
-84.88682
 11
-42.410023
 21
-68.440625
  0
CIRCLE
  8
ボルト／ビス
  6
CONTINUOUS
 10
-58.665113
 20
-84.068095
 40
0.250185
  0
CIRCLE
  8
ボルト／ビス
  6
CONTINUOUS
 10
-58.665113
 20
-84.068095
 40
0.301025
  0
LINE
  8
ボルト／ビス
  6
CONTINUOUS
 62
    64
 10
-58.905617
 20
-84.137015
 11
-58.84505
 21
-83.894272
  0
LINE
  8
ボルト／ビス
  6
CONTINUOUS
 62
    64
 10
-58.604545
 20
-83.82535
 11
-58.84505
 21
-83.894272
  0
LINE
  8
ボルト／ビス
  6
CONTINUOUS
 62
    64
 10
-58.72568
 20
-84.31084
 11
-58.485175
 21
-84.241918
  0
LINE
  8
ボルト／ビス
  6
CONTINUOUS
 62
    64
 10
-58.424605
 20
-83.999175
 11
-58.485175
 21
-84.241918
  0
LINE
  8
ボルト／ビス
  6
CONTINUOUS
 62
    64
 10
-58.905617
 20
-84.137015
 11
-58.72568
 21
-84.31084
  0
LINE
  8
ボルト／ビス
  6
CONTINUOUS
 62
    64
 10
-58.604545
 20
-83.82535
 11
-58.424605
 21
-83.999175
  0
CIRCLE
  8
ボルト／ビス
  6
CONTINUOUS
 62
    64
 10
-58.665113
 20
-84.068095
 40
0.216668
  0
CIRCLE
  8
ボルト／ビス
  6
CONTINUOUS
 10
-50.95304
 20
-76.084738
 40
0.250185
  0
CIRCLE
  8
ボルト／ビス
  6
CONTINUOUS
 10
-50.95304
 20
-76.084738
 40
0.301025
  0
LINE
  8
ボルト／ビス
  6
CONTINUOUS
 62
    64
 10
-51.193545
 20
-76.153655
 11
-51.13298
 21
-75.910912
  0
LINE
  8
ボルト／ビス
  6
CONTINUOUS
 62
    64
 10
-50.892472
 20
-75.841993
 11
-51.13298
 21
-75.910912
  0
LINE
  8
ボルト／ビス
  6
CONTINUOUS
 62
    64
 10
-51.013608
 20
-76.327483
 11
-50.773103
 21
-76.25856
  0
LINE
  8
ボルト／ビス
  6
CONTINUOUS
 62
    64
 10
-50.712532
 20
-76.015817
 11
-50.773103
 21
-76.25856
  0
LINE
  8
ボルト／ビス
  6
CONTINUOUS
 62
    64
 10
-51.193545
 20
-76.153655
 11
-51.013608
 21
-76.327483
  0
LINE
  8
ボルト／ビス
  6
CONTINUOUS
 62
    64
 10
-50.892472
 20
-75.841993
 11
-50.712532
 21
-76.015817
  0
CIRCLE
  8
ボルト／ビス
  6
CONTINUOUS
 62
    64
 10
-50.95304
 20
-76.084738
 40
0.216668
  0
CIRCLE
  8
ボルト／ビス
  6
CONTINUOUS
 10
-43.240967
 20
-68.10138
 40
0.250185
  0
CIRCLE
  8
ボルト／ビス
  6
CONTINUOUS
 10
-43.240967
 20
-68.10138
 40
0.301025
  0
LINE
  8
ボルト／ビス
  6
CONTINUOUS
 62
    64
 10
-43.1804
 20
-67.858635
 11
-43.420905
 21
-67.927557
  0
LINE
  8
ボルト／ビス
  6
CONTINUOUS
 62
    64
 10
-43.481475
 20
-68.1703
 11
-43.420905
 21
-67.927557
  0
LINE
  8
ボルト／ビス
  6
CONTINUOUS
 62
    64
 10
-43.000462
 20
-68.032457
 11
-43.06103
 21
-68.275202
  0
LINE
  8
ボルト／ビス
  6
CONTINUOUS
 62
    64
 10
-43.301535
 20
-68.344122
 11
-43.06103
 21
-68.275202
  0
LINE
  8
ボルト／ビス
  6
CONTINUOUS
 62
    64
 10
-43.1804
 20
-67.858635
 11
-43.000462
 21
-68.032457
  0
LINE
  8
ボルト／ビス
  6
CONTINUOUS
 62
    64
 10
-43.481475
 20
-68.1703
 11
-43.301535
 21
-68.344122
  0
CIRCLE
  8
ボルト／ビス
  6
CONTINUOUS
 62
    64
 10
-43.240967
 20
-68.10138
 40
0.216668
  0
ENDBLK
  0
BLOCK
  2
*GRP_0015
 70
    65
 10
0.0
 20
0.0
  0
LINE
  8
補助線
  6
BYBLOCK
 62
    64
 10
-43.298865
 20
-84.00816
 11
-43.18307
 21
-84.12803
  0
LINE
  8
補助線
  6
BYBLOCK
 62
    64
 10
-43.18103
 20
-84.010195
 11
-43.300903
 21
-84.125993
  0
LINE
  8
補助線
  6
BYBLOCK
 62
    64
 10
-51.01094
 20
-76.024802
 11
-50.89514
 21
-76.144672
  0
LINE
  8
補助線
  6
BYBLOCK
 62
    64
 10
-50.893105
 20
-76.026837
 11
-51.012975
 21
-76.142635
  0
LINE
  8
補助線
  6
BYBLOCK
 62
    64
 10
-58.607212
 20
-68.161315
 11
-58.72301
 21
-68.041445
  0
LINE
  8
補助線
  6
BYBLOCK
 62
    64
 10
-58.605175
 20
-68.04348
 11
-58.725047
 21
-68.159278
  0
LINE
  8
型材断面
  6
CONTINUOUS
 10
-42.410025
 20
-83.728852
 11
-42.422245
 21
-84.435852
  0
LINE
  8
型材断面
  6
CONTINUOUS
 10
-42.422245
 20
-84.435852
 11
-42.901728
 21
-84.89904
  0
LINE
  8
型材断面
  6
CONTINUOUS
 10
-42.901728
 20
-84.89904
 11
-43.608727
 21
-84.88682
  0
LINE
  8
型材断面
  6
CONTINUOUS
 10
-58.297353
 20
-67.282655
 11
-59.004355
 21
-67.270438
  0
LINE
  8
型材断面
  6
CONTINUOUS
 10
-59.004355
 20
-67.270438
 11
-59.483838
 21
-67.733622
  0
LINE
  8
型材断面
  6
CONTINUOUS
 10
-59.483838
 20
-67.733622
 11
-59.496058
 21
-68.440625
  0
LINE
  8
型材断面
  6
CONTINUOUS
 10
-42.410025
 20
-83.728852
 11
-58.297353
 21
-67.282655
  0
LINE
  8
型材断面
  6
CONTINUOUS
 10
-43.608727
 20
-84.88682
 11
-59.496058
 21
-68.440625
  0
CIRCLE
  8
ボルト／ビス
  6
CONTINUOUS
 10
-43.240967
 20
-84.068095
 40
0.250185
  0
CIRCLE
  8
ボルト／ビス
  6
CONTINUOUS
 10
-43.240967
 20
-84.068095
 40
0.301025
  0
LINE
  8
ボルト／ビス
  6
CONTINUOUS
 62
    64
 10
-43.000462
 20
-84.137015
 11
-43.06103
 21
-83.894272
  0
LINE
  8
ボルト／ビス
  6
CONTINUOUS
 62
    64
 10
-43.301535
 20
-83.82535
 11
-43.06103
 21
-83.894272
  0
LINE
  8
ボルト／ビス
  6
CONTINUOUS
 62
    64
 10
-43.1804
 20
-84.31084
 11
-43.420905
 21
-84.241918
  0
LINE
  8
ボルト／ビス
  6
CONTINUOUS
 62
    64
 10
-43.481475
 20
-83.999175
 11
-43.420905
 21
-84.241918
  0
LINE
  8
ボルト／ビス
  6
CONTINUOUS
 62
    64
 10
-43.000462
 20
-84.137015
 11
-43.1804
 21
-84.31084
  0
LINE
  8
ボルト／ビス
  6
CONTINUOUS
 62
    64
 10
-43.301535
 20
-83.82535
 11
-43.481475
 21
-83.999175
  0
CIRCLE
  8
ボルト／ビス
  6
CONTINUOUS
 62
    64
 10
-43.240967
 20
-84.068095
 40
0.216668
  0
CIRCLE
  8
ボルト／ビス
  6
CONTINUOUS
 10
-50.95304
 20
-76.084738
 40
0.250185
  0
CIRCLE
  8
ボルト／ビス
  6
CONTINUOUS
 10
-50.95304
 20
-76.084738
 40
0.301025
  0
LINE
  8
ボルト／ビス
  6
CONTINUOUS
 62
    64
 10
-50.712535
 20
-76.153655
 11
-50.7731
 21
-75.910912
  0
LINE
  8
ボルト／ビス
  6
CONTINUOUS
 62
    64
 10
-51.013608
 20
-75.841993
 11
-50.7731
 21
-75.910912
  0
LINE
  8
ボルト／ビス
  6
CONTINUOUS
 62
    64
 10
-50.892472
 20
-76.327483
 11
-51.132978
 21
-76.25856
  0
LINE
  8
ボルト／ビス
  6
CONTINUOUS
 62
    64
 10
-51.193548
 20
-76.015817
 11
-51.132978
 21
-76.25856
  0
LINE
  8
ボルト／ビス
  6
CONTINUOUS
 62
    64
 10
-50.712535
 20
-76.153655
 11
-50.892472
 21
-76.327483
  0
LINE
  8
ボルト／ビス
  6
CONTINUOUS
 62
    64
 10
-51.013608
 20
-75.841993
 11
-51.193548
 21
-76.015817
  0
CIRCLE
  8
ボルト／ビス
  6
CONTINUOUS
 62
    64
 10
-50.95304
 20
-76.084738
 40
0.216668
  0
CIRCLE
  8
ボルト／ビス
  6
CONTINUOUS
 10
-58.665113
 20
-68.10138
 40
0.250185
  0
CIRCLE
  8
ボルト／ビス
  6
CONTINUOUS
 10
-58.665113
 20
-68.10138
 40
0.301025
  0
LINE
  8
ボルト／ビス
  6
CONTINUOUS
 62
    64
 10
-58.72568
 20
-67.858635
 11
-58.485175
 21
-67.927557
  0
LINE
  8
ボルト／ビス
  6
CONTINUOUS
 62
    64
 10
-58.424605
 20
-68.1703
 11
-58.485175
 21
-67.927557
  0
LINE
  8
ボルト／ビス
  6
CONTINUOUS
 62
    64
 10
-58.905617
 20
-68.032457
 11
-58.84505
 21
-68.275202
  0
LINE
  8
ボルト／ビス
  6
CONTINUOUS
 62
    64
 10
-58.604545
 20
-68.344122
 11
-58.84505
 21
-68.275202
  0
LINE
  8
ボルト／ビス
  6
CONTINUOUS
 62
    64
 10
-58.72568
 20
-67.858635
 11
-58.905617
 21
-68.032457
  0
LINE
  8
ボルト／ビス
  6
CONTINUOUS
 62
    64
 10
-58.424605
 20
-68.1703
 11
-58.604545
 21
-68.344122
  0
CIRCLE
  8
ボルト／ビス
  6
CONTINUOUS
 62
    64
 10
-58.665113
 20
-68.10138
 40
0.216668
  0
ENDBLK
  0
BLOCK
  2
*GRP_0016
 70
    65
 10
0.0
 20
0.0
  0
LINE
  8
補助線
  6
BYBLOCK
 62
    64
 10
17.94366
 20
-84.00816
 11
18.059455
 21
-84.12803
  0
LINE
  8
補助線
  6
BYBLOCK
 62
    64
 10
18.061495
 20
-84.010195
 11
17.941623
 21
-84.125993
  0
LINE
  8
補助線
  6
BYBLOCK
 62
    64
 10
10.231585
 20
-76.024802
 11
10.347385
 21
-76.144672
  0
LINE
  8
補助線
  6
BYBLOCK
 62
    64
 10
10.34942
 20
-76.026837
 11
10.22955
 21
-76.142635
  0
LINE
  8
補助線
  6
BYBLOCK
 62
    64
 10
2.635312
 20
-68.161315
 11
2.519515
 21
-68.041445
  0
LINE
  8
補助線
  6
BYBLOCK
 62
    64
 10
2.63735
 20
-68.04348
 11
2.517477
 21
-68.159278
  0
LINE
  8
型材断面
  6
CONTINUOUS
 10
18.8325
 20
-83.728852
 11
18.82028
 21
-84.435852
  0
LINE
  8
型材断面
  6
CONTINUOUS
 10
18.82028
 20
-84.435852
 11
18.340798
 21
-84.89904
  0
LINE
  8
型材断面
  6
CONTINUOUS
 10
18.340798
 20
-84.89904
 11
17.633798
 21
-84.88682
  0
LINE
  8
型材断面
  6
CONTINUOUS
 10
2.945173
 20
-67.282655
 11
2.23817
 21
-67.270438
  0
LINE
  8
型材断面
  6
CONTINUOUS
 10
2.23817
 20
-67.270438
 11
1.758688
 21
-67.733622
  0
LINE
  8
型材断面
  6
CONTINUOUS
 10
1.758688
 20
-67.733622
 11
1.746467
 21
-68.440625
  0
LINE
  8
型材断面
  6
CONTINUOUS
 10
18.8325
 20
-83.728852
 11
2.945173
 21
-67.282655
  0
LINE
  8
型材断面
  6
CONTINUOUS
 10
17.633798
 20
-84.88682
 11
1.746467
 21
-68.440625
  0
CIRCLE
  8
ボルト／ビス
  6
CONTINUOUS
 10
18.001557
 20
-84.068095
 40
0.250185
  0
CIRCLE
  8
ボルト／ビス
  6
CONTINUOUS
 10
18.001557
 20
-84.068095
 40
0.301025
  0
LINE
  8
ボルト／ビス
  6
CONTINUOUS
 62
    64
 10
18.242063
 20
-84.137015
 11
18.181495
 21
-83.894272
  0
LINE
  8
ボルト／ビス
  6
CONTINUOUS
 62
    64
 10
17.94099
 20
-83.82535
 11
18.181495
 21
-83.894272
  0
LINE
  8
ボルト／ビス
  6
CONTINUOUS
 62
    64
 10
18.062125
 20
-84.31084
 11
17.82162
 21
-84.241918
  0
LINE
  8
ボルト／ビス
  6
CONTINUOUS
 62
    64
 10
17.76105
 20
-83.999175
 11
17.82162
 21
-84.241918
  0
LINE
  8
ボルト／ビス
  6
CONTINUOUS
 62
    64
 10
18.242063
 20
-84.137015
 11
18.062125
 21
-84.31084
  0
LINE
  8
ボルト／ビス
  6
CONTINUOUS
 62
    64
 10
17.94099
 20
-83.82535
 11
17.76105
 21
-83.999175
  0
CIRCLE
  8
ボルト／ビス
  6
CONTINUOUS
 62
    64
 10
18.001557
 20
-84.068095
 40
0.216668
  0
CIRCLE
  8
ボルト／ビス
  6
CONTINUOUS
 10
10.289485
 20
-76.084738
 40
0.250185
  0
CIRCLE
  8
ボルト／ビス
  6
CONTINUOUS
 10
10.289485
 20
-76.084738
 40
0.301025
  0
LINE
  8
ボルト／ビス
  6
CONTINUOUS
 62
    64
 10
10.52999
 20
-76.153655
 11
10.469425
 21
-75.910912
  0
LINE
  8
ボルト／ビス
  6
CONTINUOUS
 62
    64
 10
10.228917
 20
-75.841993
 11
10.469425
 21
-75.910912
  0
LINE
  8
ボルト／ビス
  6
CONTINUOUS
 62
    64
 10
10.350052
 20
-76.327483
 11
10.109548
 21
-76.25856
  0
LINE
  8
ボルト／ビス
  6
CONTINUOUS
 62
    64
 10
10.048978
 20
-76.015817
 11
10.109548
 21
-76.25856
  0
LINE
  8
ボルト／ビス
  6
CONTINUOUS
 62
    64
 10
10.52999
 20
-76.153655
 11
10.350052
 21
-76.327483
  0
LINE
  8
ボルト／ビス
  6
CONTINUOUS
 62
    64
 10
10.228917
 20
-75.841993
 11
10.048978
 21
-76.015817
  0
CIRCLE
  8
ボルト／ビス
  6
CONTINUOUS
 62
    64
 10
10.289485
 20
-76.084738
 40
0.216668
  0
CIRCLE
  8
ボルト／ビス
  6
CONTINUOUS
 10
2.577412
 20
-68.10138
 40
0.250185
  0
CIRCLE
  8
ボルト／ビス
  6
CONTINUOUS
 10
2.577412
 20
-68.10138
 40
0.301025
  0
LINE
  8
ボルト／ビス
  6
CONTINUOUS
 62
    64
 10
2.516845
 20
-67.858635
 11
2.75735
 21
-67.927557
  0
LINE
  8
ボルト／ビス
  6
CONTINUOUS
 62
    64
 10
2.81792
 20
-68.1703
 11
2.75735
 21
-67.927557
  0
LINE
  8
ボルト／ビス
  6
CONTINUOUS
 62
    64
 10
2.336908
 20
-68.032457
 11
2.397475
 21
-68.275202
  0
LINE
  8
ボルト／ビス
  6
CONTINUOUS
 62
    64
 10
2.63798
 20
-68.344122
 11
2.397475
 21
-68.275202
  0
LINE
  8
ボルト／ビス
  6
CONTINUOUS
 62
    64
 10
2.516845
 20
-67.858635
 11
2.336908
 21
-68.032457
  0
LINE
  8
ボルト／ビス
  6
CONTINUOUS
 62
    64
 10
2.81792
 20
-68.1703
 11
2.63798
 21
-68.344122
  0
CIRCLE
  8
ボルト／ビス
  6
CONTINUOUS
 62
    64
 10
2.577412
 20
-68.10138
 40
0.216668
  0
ENDBLK
  0
BLOCK
  2
*GRP_0017
 70
    65
 10
0.0
 20
0.0
  0
LINE
  8
補助線
  6
BYBLOCK
 62
    64
 10
2.63531
 20
-84.00816
 11
2.519515
 21
-84.12803
  0
LINE
  8
補助線
  6
BYBLOCK
 62
    64
 10
2.517475
 20
-84.010195
 11
2.637348
 21
-84.125993
  0
LINE
  8
補助線
  6
BYBLOCK
 62
    64
 10
10.347385
 20
-76.024802
 11
10.231585
 21
-76.144672
  0
LINE
  8
補助線
  6
BYBLOCK
 62
    64
 10
10.22955
 20
-76.026837
 11
10.34942
 21
-76.142635
  0
LINE
  8
補助線
  6
BYBLOCK
 62
    64
 10
17.943657
 20
-68.161315
 11
18.059455
 21
-68.041445
  0
LINE
  8
補助線
  6
BYBLOCK
 62
    64
 10
17.94162
 20
-68.04348
 11
18.061492
 21
-68.159278
  0
LINE
  8
型材断面
  6
CONTINUOUS
 10
1.74647
 20
-83.728852
 11
1.75869
 21
-84.435852
  0
LINE
  8
型材断面
  6
CONTINUOUS
 10
1.75869
 20
-84.435852
 11
2.238172
 21
-84.89904
  0
LINE
  8
型材断面
  6
CONTINUOUS
 10
2.238172
 20
-84.89904
 11
2.945173
 21
-84.88682
  0
LINE
  8
型材断面
  6
CONTINUOUS
 10
17.633798
 20
-67.282655
 11
18.3408
 21
-67.270438
  0
LINE
  8
型材断面
  6
CONTINUOUS
 10
18.3408
 20
-67.270438
 11
18.820283
 21
-67.733622
  0
LINE
  8
型材断面
  6
CONTINUOUS
 10
18.820283
 20
-67.733622
 11
18.832503
 21
-68.440625
  0
LINE
  8
型材断面
  6
CONTINUOUS
 10
1.74647
 20
-83.728852
 11
17.633798
 21
-67.282655
  0
LINE
  8
型材断面
  6
CONTINUOUS
 10
2.945173
 20
-84.88682
 11
18.832503
 21
-68.440625
  0
CIRCLE
  8
ボルト／ビス
  6
CONTINUOUS
 10
2.577412
 20
-84.068095
 40
0.250185
  0
CIRCLE
  8
ボルト／ビス
  6
CONTINUOUS
 10
2.577412
 20
-84.068095
 40
0.301025
  0
LINE
  8
ボルト／ビス
  6
CONTINUOUS
 62
    64
 10
2.336908
 20
-84.137015
 11
2.397475
 21
-83.894272
  0
LINE
  8
ボルト／ビス
  6
CONTINUOUS
 62
    64
 10
2.63798
 20
-83.82535
 11
2.397475
 21
-83.894272
  0
LINE
  8
ボルト／ビス
  6
CONTINUOUS
 62
    64
 10
2.516845
 20
-84.31084
 11
2.75735
 21
-84.241918
  0
LINE
  8
ボルト／ビス
  6
CONTINUOUS
 62
    64
 10
2.81792
 20
-83.999175
 11
2.75735
 21
-84.241918
  0
LINE
  8
ボルト／ビス
  6
CONTINUOUS
 62
    64
 10
2.336908
 20
-84.137015
 11
2.516845
 21
-84.31084
  0
LINE
  8
ボルト／ビス
  6
CONTINUOUS
 62
    64
 10
2.63798
 20
-83.82535
 11
2.81792
 21
-83.999175
  0
CIRCLE
  8
ボルト／ビス
  6
CONTINUOUS
 62
    64
 10
2.577412
 20
-84.068095
 40
0.216668
  0
CIRCLE
  8
ボルト／ビス
  6
CONTINUOUS
 10
10.289485
 20
-76.084738
 40
0.250185
  0
CIRCLE
  8
ボルト／ビス
  6
CONTINUOUS
 10
10.289485
 20
-76.084738
 40
0.301025
  0
LINE
  8
ボルト／ビス
  6
CONTINUOUS
 62
    64
 10
10.04898
 20
-76.153655
 11
10.109545
 21
-75.910912
  0
LINE
  8
ボルト／ビス
  6
CONTINUOUS
 62
    64
 10
10.350052
 20
-75.841993
 11
10.109545
 21
-75.910912
  0
LINE
  8
ボルト／ビス
  6
CONTINUOUS
 62
    64
 10
10.228917
 20
-76.327483
 11
10.469422
 21
-76.25856
  0
LINE
  8
ボルト／ビス
  6
CONTINUOUS
 62
    64
 10
10.529992
 20
-76.015817
 11
10.469422
 21
-76.25856
  0
LINE
  8
ボルト／ビス
  6
CONTINUOUS
 62
    64
 10
10.04898
 20
-76.153655
 11
10.228917
 21
-76.327483
  0
LINE
  8
ボルト／ビス
  6
CONTINUOUS
 62
    64
 10
10.350052
 20
-75.841993
 11
10.529992
 21
-76.015817
  0
CIRCLE
  8
ボルト／ビス
  6
CONTINUOUS
 62
    64
 10
10.289485
 20
-76.084738
 40
0.216668
  0
CIRCLE
  8
ボルト／ビス
  6
CONTINUOUS
 10
18.001557
 20
-68.10138
 40
0.250185
  0
CIRCLE
  8
ボルト／ビス
  6
CONTINUOUS
 10
18.001557
 20
-68.10138
 40
0.301025
  0
LINE
  8
ボルト／ビス
  6
CONTINUOUS
 62
    64
 10
18.062125
 20
-67.858635
 11
17.82162
 21
-67.927557
  0
LINE
  8
ボルト／ビス
  6
CONTINUOUS
 62
    64
 10
17.76105
 20
-68.1703
 11
17.82162
 21
-67.927557
  0
LINE
  8
ボルト／ビス
  6
CONTINUOUS
 62
    64
 10
18.242063
 20
-68.032457
 11
18.181495
 21
-68.275202
  0
LINE
  8
ボルト／ビス
  6
CONTINUOUS
 62
    64
 10
17.94099
 20
-68.344122
 11
18.181495
 21
-68.275202
  0
LINE
  8
ボルト／ビス
  6
CONTINUOUS
 62
    64
 10
18.062125
 20
-67.858635
 11
18.242063
 21
-68.032457
  0
LINE
  8
ボルト／ビス
  6
CONTINUOUS
 62
    64
 10
17.76105
 20
-68.1703
 11
17.94099
 21
-68.344122
  0
CIRCLE
  8
ボルト／ビス
  6
CONTINUOUS
 62
    64
 10
18.001557
 20
-68.10138
 40
0.216668
  0
ENDBLK
  0
BLOCK
  2
*DIM_0018
 70
    65
 10
0.0
 20
0.0
  0
LINE
  8
寸法
  6
CONTINUOUS
 10
-61.998445
 20
-22.024302
 11
21.334887
 21
-22.024302
  0
POINT
  8
寸法
 10
-61.998445
 20
-22.024302
  0
POINT
  8
寸法
 10
21.334887
 20
-22.024302
  0
TEXT
  7
TextStyle03
  8
寸法
  6
CONTINUOUS
 10
-32.06875
 20
-21.65
  1
呼称寸法　2500
 40
3.0
 72
     5
 11
-8.63125
 21
-21.65
  0
ENDBLK
  0
BLOCK
  2
*DIM_0019
 70
    65
 10
0.0
 20
0.0
  0
LINE
  8
寸法
  6
CONTINUOUS
 10
116.421445
 20
-39.618
 11
75.354777
 21
-39.618
  0
POINT
  8
寸法
 10
116.421445
 20
-39.618
  0
POINT
  8
寸法
 10
75.354777
 20
-39.618
  0
TEXT
  7
TextStyle03
  8
寸法
  6
CONTINUOUS
 10
92.59375
 20
-39.25
  1
1232
 40
3.0
 72
     5
 11
99.15625
 21
-39.25
  0
ENDBLK
  0
BLOCK
  2
*DIM_0020
 70
    65
 10
0.0
 20
0.0
  0
LINE
  8
寸法
  6
BYBLOCK
 62
     0
 10
40.51171
 20
-78.49138
 11
40.51171
 21
-65.158047
  0
POINT
  8
寸法
 62
     0
 10
40.51171
 20
-78.49138
  0
POINT
  8
寸法
 62
     0
 10
40.51171
 20
-65.158047
  0
TEXT
  7
TextStyle03
  8
寸法
  6
CONTINUOUS
 62
     0
 10
39.7
 20
-63.16875
  1
上昇362以上
 40
3.0
 50
90.0
 72
     5
 11
39.7
 21
-44.98125
  0
ENDBLK
  0
BLOCK
  2
*DIM_0021
 70
    65
 10
0.0
 20
0.0
  0
LINE
  8
寸法
  6
BYBLOCK
 62
     0
 10
110.251605
 20
65.733497
 11
96.918273
 21
65.733497
  0
POINT
  8
寸法
 62
     0
 10
110.251605
 20
65.733497
  0
POINT
  8
寸法
 62
     0
 10
96.918273
 20
65.733497
  0
TEXT
  7
TextStyle03
  8
寸法
  6
CONTINUOUS
 62
     0
 10
76.38125
 20
64.675
  1
上昇362以上
 40
3.0
 72
     5
 11
94.56875
 21
64.675
  0
ENDBLK
  0
BLOCK
  2
*DIM_0022
 70
    65
 10
0.0
 20
0.0
  0
LINE
  8
寸法
  6
CONTINUOUS
 10
121.421445
 20
-49.867045
 11
131.407178
 21
-49.867045
  0
LINE
  8
寸法
  6
CONTINUOUS
 10
121.421445
 20
-93.20038
 11
131.407178
 21
-93.20038
  0
LINE
  8
寸法
  6
CONTINUOUS
 10
131.407178
 20
-49.867045
 11
131.407178
 21
-93.20038
  0
POINT
  8
寸法
 10
131.407178
 20
-49.867045
  0
POINT
  8
寸法
 10
131.407178
 20
-93.20038
  0
TEXT
  7
TextStyle03
  8
寸法
  6
CONTINUOUS
 10
131.025
 20
-74.83125
  1
1300
 40
3.0
 50
90.0
 72
     5
 11
131.025
 21
-68.26875
  0
ENDBLK
  0
BLOCK
  2
*DIM_0023
 70
    65
 10
0.0
 20
0.0
  0
LINE
  8
寸法
  6
CONTINUOUS
 10
110.251605
 20
61.73238
 11
110.251605
 21
65.733497
  0
LINE
  8
寸法
  6
CONTINUOUS
 10
118.368158
 20
61.73238
 11
118.368158
 21
65.733497
  0
LINE
  8
寸法
  6
CONTINUOUS
 10
110.251605
 20
65.733497
 11
118.368158
 21
65.733497
  0
POINT
  8
寸法
 10
110.251605
 20
65.733497
  0
POINT
  8
寸法
 10
118.368158
 20
65.733497
  0
TEXT
  7
TextStyle03
  8
寸法
  6
CONTINUOUS
 10
110.2
 20
66.075
  1
243.5
 40
3.0
 72
     5
 11
118.45
 21
66.075
  0
ENDBLK
  0
BLOCK
  2
*DIM_0024
 70
    65
 10
0.0
 20
0.0
  0
LINE
  8
寸法
  6
CONTINUOUS
 10
28.0104
 20
-78.49138
 11
40.51171
 21
-78.49138
  0
LINE
  8
寸法
  6
CONTINUOUS
 10
29.098225
 20
-86.607932
 11
40.51171
 21
-86.607932
  0
LINE
  8
寸法
  6
CONTINUOUS
 10
40.51171
 20
-78.49138
 11
40.51171
 21
-86.607932
  0
POINT
  8
寸法
 10
40.51171
 20
-78.49138
  0
POINT
  8
寸法
 10
40.51171
 20
-86.607932
  0
TEXT
  7
TextStyle03
  8
寸法
  6
CONTINUOUS
 10
43.55
 20
-86.675
  1
243.5
 40
3.0
 50
90.0
 72
     5
 11
43.55
 21
-78.425
  0
ENDBLK
  0
ENDSEC
  0
SECTION
  2
ENTITIES
  0
POLYLINE
  8
通り芯
  6
CONTINUOUS
 66
     1
 70
     1
  0
VERTEX
  8
通り芯
 10
-210.0
 20
-148.5
  0
VERTEX
  8
通り芯
 10
210.0
 20
-148.5
  0
VERTEX
  8
通り芯
 10
210.0
 20
148.5
  0
VERTEX
  8
通り芯
 10
-210.0
 20
148.5
  0
SEQEND
  0
INSERT
  2
*GRP_0001
  8
型材断面
  6
CONTINUOUS
 10
0.0
 20
0.0
  0
LINE
  8
型材断面
  6
DASHDOT
 10
21.33489
 20
-87.251428
 11
21.33489
 21
56.73238
  0
LINE
  8
型材断面
  6
DASHDOT
 10
-20.331778
 20
-87.251428
 11
-20.331778
 21
56.73238
  0
LINE
  8
型材断面
  6
DASHDOT
 10
-61.998442
 20
-87.251428
 11
-61.998442
 21
56.73238
  0
LINE
  8
型材断面
  6
DASHDOT
 10
119.011652
 20
56.73238
 11
-61.998442
 21
56.73238
  0
LINE
  8
型材断面
  6
DASHDOT
 10
119.011652
 20
35.065715
 11
-61.998442
 21
35.065715
  0
LINE
  8
型材断面
  6
DASHDOT
 10
119.011652
 20
13.399048
 11
-61.998442
 21
13.399048
  0
POLYLINE
  8
型材断面
  6
CONTINUOUS
 66
     1
 70
     1
  0
VERTEX
  8
型材断面
 10
-10.768635
 20
66.508305
  0
VERTEX
  8
型材断面
 10
-29.540565
 20
66.508305
  0
VERTEX
  8
型材断面
 10
-29.540565
 20
71.245147
  0
VERTEX
  8
型材断面
 10
-10.768635
 20
71.245147
  0
SEQEND
  0
POLYLINE
  8
型材断面
  6
CONTINUOUS
 66
     1
 70
     1
  0
VERTEX
  8
型材断面
 10
-10.768635
 20
3.623125
  0
VERTEX
  8
型材断面
 10
-29.540565
 20
3.623125
  0
VERTEX
  8
型材断面
 10
-29.540565
 20
-1.113717
  0
VERTEX
  8
型材断面
 10
-10.768635
 20
-1.113717
  0
SEQEND
  0
LINE
  8
型材断面
  6
CONTINUOUS
 10
-102.85065
 20
94.709852
 11
-102.254595
 21
92.119345
  0
LINE
  8
型材断面
  6
CONTINUOUS
 10
-102.85065
 20
94.709852
 11
-103.446707
 21
92.119345
  0
LINE
  8
型材断面
  6
CONTINUOUS
 10
-103.446707
 20
92.119345
 11
-102.254595
 21
92.119345
  0
LINE
  8
型材断面
  6
CONTINUOUS
 10
-108.873237
 20
88.840452
 11
-62.63146
 21
88.840452
  0
LINE
  8
型材断面
  6
CONTINUOUS
 10
-102.85065
 20
101.239727
 11
-104.34628
 21
98.64922
  0
LINE
  8
型材断面
  6
CONTINUOUS
 10
-102.85065
 20
101.239727
 11
-101.35502
 21
98.64922
  0
LINE
  8
型材断面
  6
CONTINUOUS
 10
-101.35502
 20
98.64922
 11
-104.34628
 21
98.64922
  0
LINE
  8
型材断面
  6
CONTINUOUS
 10
-108.873237
 20
97.710625
 11
-62.63146
 21
97.710625
  0
LINE
  8
型材断面
  6
CONTINUOUS
 10
-108.873237
 20
83.05242
 11
-62.63146
 21
83.05242
  0
LINE
  8
型材断面
  6
CONTINUOUS
 10
-108.873237
 20
77.264387
 11
-62.63146
 21
77.264387
  0
INSERT
  2
*GRP_0014
  8
型材断面
  6
CONTINUOUS
 10
0.0
 20
0.0
  0
INSERT
  2
*GRP_0015
  8
型材断面
  6
CONTINUOUS
 10
0.0
 20
0.0
  0
INSERT
  2
*GRP_0016
  8
型材断面
  6
CONTINUOUS
 10
0.0
 20
0.0
  0
INSERT
  2
*GRP_0017
  8
型材断面
  6
CONTINUOUS
 10
0.0
 20
0.0
  0
LINE
  8
型材断面
  6
CONTINUOUS
 10
24.098222
 20
59.495565
 11
-64.76178
 21
59.495565
  0
LINE
  8
型材断面
  6
CONTINUOUS
 10
24.098222
 20
10.63586
 11
-64.76178
 21
10.63586
  0
LINE
  8
型材断面
  6
CONTINUOUS
 10
-64.76178
 20
35.065712
 11
-67.352287
 21
36.561342
  0
LINE
  8
型材断面
  6
CONTINUOUS
 10
-64.76178
 20
35.065712
 11
-67.352287
 21
33.570082
  0
LINE
  8
型材断面
  6
CONTINUOUS
 10
-67.352287
 20
33.570082
 11
-67.352287
 21
36.561342
  0
LINE
  8
型材断面
  6
CONTINUOUS
 10
-64.761783
 20
53.03238
 11
-67.352293
 21
52.436327
  0
LINE
  8
型材断面
  6
CONTINUOUS
 10
-64.761783
 20
53.03238
 11
-67.35229
 21
53.62844
  0
LINE
  8
型材断面
  6
CONTINUOUS
 10
-67.35229
 20
53.62844
 11
-67.352293
 21
52.436327
  0
LINE
  8
型材断面
  6
CONTINUOUS
 10
-64.761783
 20
17.099045
 11
-67.352293
 21
17.695097
  0
LINE
  8
型材断面
  6
CONTINUOUS
 10
-64.761783
 20
17.099045
 11
-67.35229
 21
16.502985
  0
LINE
  8
型材断面
  6
CONTINUOUS
 10
-67.35229
 20
16.502985
 11
-67.352293
 21
17.695097
  0
LINE
  8
型材断面
  6
CONTINUOUS
 10
-45.331775
 20
59.495565
 11
-46.827405
 21
62.086073
  0
LINE
  8
型材断面
  6
CONTINUOUS
 10
-45.331775
 20
59.495565
 11
-43.836145
 21
62.086073
  0
LINE
  8
型材断面
  6
CONTINUOUS
 10
-43.836145
 20
62.086073
 11
-46.827405
 21
62.086073
  0
LINE
  8
型材断面
  6
CONTINUOUS
 10
4.66822
 20
59.495565
 11
6.16385
 21
62.086073
  0
LINE
  8
型材断面
  6
CONTINUOUS
 10
4.66822
 20
59.495565
 11
3.17259
 21
62.086073
  0
LINE
  8
型材断面
  6
CONTINUOUS
 10
3.17259
 20
62.086073
 11
6.16385
 21
62.086073
  0
LINE
  8
型材断面
  6
CONTINUOUS
 10
24.098222
 20
35.065715
 11
26.68873
 21
36.561345
  0
LINE
  8
型材断面
  6
CONTINUOUS
 10
24.098222
 20
35.065715
 11
26.68873
 21
33.570085
  0
LINE
  8
型材断面
  6
CONTINUOUS
 10
26.68873
 20
33.570085
 11
26.68873
 21
36.561345
  0
LINE
  8
型材断面
  6
CONTINUOUS
 10
24.098225
 20
53.032382
 11
26.688735
 21
52.43633
  0
LINE
  8
型材断面
  6
CONTINUOUS
 10
24.098225
 20
53.032382
 11
26.688732
 21
53.628442
  0
LINE
  8
型材断面
  6
CONTINUOUS
 10
26.688732
 20
53.628442
 11
26.688735
 21
52.43633
  0
LINE
  8
型材断面
  6
CONTINUOUS
 10
24.098225
 20
17.099048
 11
26.688735
 21
17.6951
  0
LINE
  8
型材断面
  6
CONTINUOUS
 10
24.098225
 20
17.099048
 11
26.688732
 21
16.502988
  0
LINE
  8
型材断面
  6
CONTINUOUS
 10
26.688732
 20
16.502988
 11
26.688735
 21
17.6951
  0
LINE
  8
型材断面
  6
CONTINUOUS
 10
-45.331775
 20
10.63586
 11
-46.827405
 21
8.045353
  0
LINE
  8
型材断面
  6
CONTINUOUS
 10
-45.331775
 20
10.63586
 11
-43.836145
 21
8.045353
  0
LINE
  8
型材断面
  6
CONTINUOUS
 10
-43.836145
 20
8.045353
 11
-46.827405
 21
8.045353
  0
LINE
  8
型材断面
  6
CONTINUOUS
 10
4.66822
 20
10.63586
 11
6.16385
 21
8.045353
  0
LINE
  8
型材断面
  6
CONTINUOUS
 10
4.66822
 20
10.63586
 11
3.17259
 21
8.045353
  0
LINE
  8
型材断面
  6
CONTINUOUS
 10
3.17259
 20
8.045353
 11
6.16385
 21
8.045353
  0
LINE
  8
型材断面
  6
CONTINUOUS
 10
-19.081778
 20
14.899055
 11
-21.581778
 21
14.899055
  0
LINE
  8
型材断面
  6
CONTINUOUS
 10
-19.081778
 20
14.899055
 11
-19.081778
 21
55.232375
  0
LINE
  8
型材断面
  6
CONTINUOUS
 10
-21.581778
 20
14.899055
 11
-21.581778
 21
55.232375
  0
LINE
  8
型材断面
  6
CONTINUOUS
 10
-19.081778
 20
55.232375
 11
-21.581778
 21
55.232375
  0
LINE
  8
型材断面
  6
CONTINUOUS
 10
24.098228
 20
10.63586
 11
24.098228
 21
59.495565
  0
LINE
  8
型材断面
  6
CONTINUOUS
 10
22.932547
 20
11.565692
 11
23.168247
 21
11.801392
  0
LINE
  8
型材断面
  6
CONTINUOUS
 10
20.432545
 20
14.065692
 11
20.668245
 21
14.301392
  0
LINE
  8
型材断面
  6
CONTINUOUS
 10
20.668245
 20
14.301392
 11
23.168247
 21
11.801392
  0
LINE
  8
型材断面
  6
CONTINUOUS
 10
23.168217
 20
35.065715
 11
23.168247
 21
11.801392
  0
LINE
  8
型材断面
  6
CONTINUOUS
 10
20.432545
 20
14.065692
 11
22.932547
 21
11.565692
  0
LINE
  8
型材断面
  6
CONTINUOUS
 10
24.09808
 20
10.63586
 11
23.050395
 21
11.68354
  0
LINE
  8
型材断面
  6
CONTINUOUS
 10
20.668217
 20
34.649048
 11
23.168217
 21
34.649048
  0
LINE
  8
型材断面
  6
CONTINUOUS
 10
20.668217
 20
35.482382
 11
23.168217
 21
35.482382
  0
LINE
  8
型材断面
  6
CONTINUOUS
 10
20.668217
 20
34.649048
 11
20.668245
 21
14.301392
  0
LINE
  8
型材断面
  6
CONTINUOUS
 10
22.932547
 20
58.565738
 11
23.168247
 21
58.330038
  0
LINE
  8
型材断面
  6
CONTINUOUS
 10
20.432545
 20
56.065738
 11
20.668245
 21
55.830038
  0
LINE
  8
型材断面
  6
CONTINUOUS
 10
20.432545
 20
56.065738
 11
22.932547
 21
58.565738
  0
LINE
  8
型材断面
  6
CONTINUOUS
 10
24.09808
 20
59.49557
 11
23.050395
 21
58.44789
  0
LINE
  8
型材断面
  6
CONTINUOUS
 10
20.668245
 20
55.830038
 11
23.168247
 21
58.330038
  0
LINE
  8
型材断面
  6
CONTINUOUS
 10
23.168217
 20
35.065715
 11
23.168247
 21
58.330038
  0
LINE
  8
型材断面
  6
CONTINUOUS
 10
20.668217
 20
35.482382
 11
20.668245
 21
55.830038
  0
LINE
  8
型材断面
  6
CONTINUOUS
 10
0.918225
 20
14.065707
 11
0.918225
 21
11.56571
  0
LINE
  8
型材断面
  6
CONTINUOUS
 10
0.08489
 20
14.065707
 11
0.08489
 21
11.56571
  0
LINE
  8
型材断面
  6
CONTINUOUS
 10
0.918225
 20
56.065723
 11
0.918225
 21
58.56572
  0
LINE
  8
型材断面
  6
CONTINUOUS
 10
0.08489
 20
56.065723
 11
0.08489
 21
58.56572
  0
LINE
  8
型材断面
  6
CONTINUOUS
 10
0.08489
 20
56.065723
 11
-20.331778
 21
56.065707
  0
LINE
  8
型材断面
  6
CONTINUOUS
 10
0.08489
 20
14.065707
 11
-20.331778
 21
14.065723
  0
LINE
  8
型材断面
  6
CONTINUOUS
 10
-64.761783
 20
10.63586
 11
-64.761783
 21
59.495565
  0
LINE
  8
型材断面
  6
CONTINUOUS
 10
-63.596102
 20
11.565692
 11
-63.831802
 21
11.801392
  0
LINE
  8
型材断面
  6
CONTINUOUS
 10
-61.0961
 20
14.065692
 11
-61.3318
 21
14.301392
  0
LINE
  8
型材断面
  6
CONTINUOUS
 10
-61.3318
 20
14.301392
 11
-63.831802
 21
11.801392
  0
LINE
  8
型材断面
  6
CONTINUOUS
 10
-63.831772
 20
35.065715
 11
-63.831802
 21
11.801392
  0
LINE
  8
型材断面
  6
CONTINUOUS
 10
-61.0961
 20
14.065692
 11
-63.596102
 21
11.565692
  0
LINE
  8
型材断面
  6
CONTINUOUS
 10
-64.761635
 20
10.63586
 11
-63.71395
 21
11.68354
  0
LINE
  8
型材断面
  6
CONTINUOUS
 10
-61.331772
 20
34.649048
 11
-63.831772
 21
34.649048
  0
LINE
  8
型材断面
  6
CONTINUOUS
 10
-61.331772
 20
35.482382
 11
-63.831772
 21
35.482382
  0
LINE
  8
型材断面
  6
CONTINUOUS
 10
-61.331772
 20
34.649048
 11
-61.3318
 21
14.301392
  0
LINE
  8
型材断面
  6
CONTINUOUS
 10
-63.596102
 20
58.565738
 11
-63.831802
 21
58.330038
  0
LINE
  8
型材断面
  6
CONTINUOUS
 10
-61.0961
 20
56.065738
 11
-61.3318
 21
55.830038
  0
LINE
  8
型材断面
  6
CONTINUOUS
 10
-61.0961
 20
56.065738
 11
-63.596102
 21
58.565738
  0
LINE
  8
型材断面
  6
CONTINUOUS
 10
-64.761635
 20
59.49557
 11
-63.71395
 21
58.44789
  0
LINE
  8
型材断面
  6
CONTINUOUS
 10
-61.3318
 20
55.830038
 11
-63.831802
 21
58.330038
  0
LINE
  8
型材断面
  6
CONTINUOUS
 10
-63.831772
 20
35.065715
 11
-63.831802
 21
58.330038
  0
LINE
  8
型材断面
  6
CONTINUOUS
 10
-61.331772
 20
35.482382
 11
-61.3318
 21
55.830038
  0
LINE
  8
型材断面
  6
CONTINUOUS
 10
-41.58178
 20
14.065707
 11
-41.58178
 21
11.56571
  0
LINE
  8
型材断面
  6
CONTINUOUS
 10
-40.748445
 20
14.065707
 11
-40.748445
 21
11.56571
  0
LINE
  8
型材断面
  6
CONTINUOUS
 10
-41.58178
 20
56.065723
 11
-41.58178
 21
58.56572
  0
LINE
  8
型材断面
  6
CONTINUOUS
 10
-40.748445
 20
56.065723
 11
-40.748445
 21
58.56572
  0
LINE
  8
型材断面
  6
CONTINUOUS
 10
-20.331778
 20
14.065723
 11
-40.748445
 21
14.065707
  0
LINE
  8
型材断面
  6
CONTINUOUS
 10
-20.331778
 20
56.065707
 11
-40.748445
 21
56.065723
  0
LINE
  8
型材断面
  6
CONTINUOUS
 10
-20.331778
 20
58.565705
 11
-63.596102
 21
58.565738
  0
LINE
  8
型材断面
  6
CONTINUOUS
 10
-41.58178
 20
56.065723
 11
-61.0961
 21
56.065738
  0
LINE
  8
型材断面
  6
CONTINUOUS
 10
-41.58178
 20
14.065707
 11
-61.0961
 21
14.065692
  0
LINE
  8
型材断面
  6
CONTINUOUS
 10
-20.331778
 20
11.565725
 11
-63.596102
 21
11.565692
  0
LINE
  8
型材断面
  6
CONTINUOUS
 10
0.918225
 20
14.065707
 11
20.432545
 21
14.065692
  0
LINE
  8
型材断面
  6
CONTINUOUS
 10
-20.331778
 20
11.565725
 11
22.932547
 21
11.565692
  0
LINE
  8
型材断面
  6
CONTINUOUS
 10
0.918225
 20
56.065723
 11
20.432545
 21
56.065738
  0
LINE
  8
型材断面
  6
CONTINUOUS
 10
-20.331778
 20
58.565705
 11
22.932547
 21
58.565738
  0
LINE
  8
型材断面
  6
CONTINUOUS
 10
118.368158
 20
58.995567
 11
118.704823
 21
58.995567
  0
LINE
  8
型材断面
  6
CONTINUOUS
 10
114.271608
 20
59.2989
 11
114.468275
 21
59.495567
  0
LINE
  8
型材断面
  6
CONTINUOUS
 10
114.468275
 20
59.495567
 11
118.368158
 21
59.495567
  0
LINE
  8
型材断面
  6
CONTINUOUS
 62
    47
 10
114.271652
 20
59.298942
 11
114.271652
 21
35.065715
  0
LINE
  8
型材断面
  6
CONTINUOUS
 10
114.468275
 20
59.495567
 11
114.468275
 21
35.065715
  0
LINE
  8
型材断面
  6
CONTINUOUS
 10
118.368158
 20
59.495567
 11
118.368158
 21
35.065715
  0
LINE
  8
型材断面
  6
CONTINUOUS
 10
118.704823
 20
58.995567
 11
118.704823
 21
35.065715
  0
LINE
  8
型材断面
  6
CONTINUOUS
 10
118.368158
 20
11.135863
 11
118.704823
 21
11.135863
  0
LINE
  8
型材断面
  6
CONTINUOUS
 10
114.271608
 20
10.83253
 11
114.468275
 21
10.635863
  0
LINE
  8
型材断面
  6
CONTINUOUS
 10
114.468275
 20
10.635863
 11
118.368158
 21
10.635863
  0
LINE
  8
型材断面
  6
CONTINUOUS
 62
    47
 10
114.271652
 20
10.832488
 11
114.271652
 21
35.065715
  0
LINE
  8
型材断面
  6
CONTINUOUS
 10
114.468275
 20
10.635863
 11
114.468275
 21
35.065715
  0
LINE
  8
型材断面
  6
CONTINUOUS
 10
118.368158
 20
10.635863
 11
118.368158
 21
35.065715
  0
LINE
  8
型材断面
  6
CONTINUOUS
 10
118.704823
 20
11.135863
 11
118.704823
 21
35.065715
  0
LINE
  8
型材断面
  6
CONTINUOUS
 10
23.598225
 20
-86.607932
 11
23.598225
 21
-86.944597
  0
LINE
  8
型材断面
  6
CONTINUOUS
 10
23.901557
 20
-82.511383
 11
24.098225
 21
-82.70805
  0
LINE
  8
型材断面
  6
CONTINUOUS
 10
24.098225
 20
-82.70805
 11
24.098225
 21
-86.607932
  0
LINE
  8
型材断面
  6
CONTINUOUS
 10
23.598225
 20
-86.944597
 11
-20.331778
 21
-86.944597
  0
LINE
  8
型材断面
  6
CONTINUOUS
 10
24.098225
 20
-86.607932
 11
-20.331778
 21
-86.607932
  0
LINE
  8
型材断面
  6
CONTINUOUS
 62
    47
 10
23.9016
 20
-82.511427
 11
-20.331778
 21
-82.511427
  0
LINE
  8
型材断面
  6
CONTINUOUS
 10
24.098225
 20
-82.70805
 11
-20.331778
 21
-82.70805
  0
LINE
  8
型材断面
  6
CONTINUOUS
 10
-64.26178
 20
-86.607932
 11
-64.26178
 21
-86.944597
  0
LINE
  8
型材断面
  6
CONTINUOUS
 10
-64.565113
 20
-82.511383
 11
-64.76178
 21
-82.70805
  0
LINE
  8
型材断面
  6
CONTINUOUS
 10
-64.76178
 20
-82.70805
 11
-64.76178
 21
-86.607932
  0
LINE
  8
型材断面
  6
CONTINUOUS
 10
-64.26178
 20
-86.944597
 11
-20.331778
 21
-86.944597
  0
LINE
  8
型材断面
  6
CONTINUOUS
 10
-64.76178
 20
-86.607932
 11
-20.331778
 21
-86.607932
  0
LINE
  8
型材断面
  6
CONTINUOUS
 62
    47
 10
-64.565155
 20
-82.511427
 11
-20.331778
 21
-82.511427
  0
LINE
  8
型材断面
  6
CONTINUOUS
 10
-64.76178
 20
-82.70805
 11
-20.331778
 21
-82.70805
  0
TEXT
  7
TextStyle03
  8
文字
  6
CONTINUOUS
 10
-28.5
 20
67.2
  1
可動装置側
 40
3.0
 72
     5
 11
-12.0
 21
67.2
  0
TEXT
  7
TextStyle03
  8
文字
  6
CONTINUOUS
 10
-28.5
 20
-0.075
  1
可動装置側
 40
3.0
 72
     5
 11
-12.0
 21
-0.075
  0
TEXT
  7
TextStyle03
  8
文字
  6
CONTINUOUS
 10
-100.1
 20
93.325
  1
はケーシング位置を示す
 40
3.0
 72
     5
 11
-63.35
 21
93.325
  0
TEXT
  7
TextStyle03
  8
文字
  6
CONTINUOUS
 10
-100.1
 20
89.95
  1
４ヶ所中1ヶ所に設定
 40
3.0
 72
     5
 11
-68.4125
 21
89.95
  0
TEXT
  7
TextStyle03
  8
文字
  6
CONTINUOUS
 10
-100.1
 20
98.85
  1
は排水穴位置を示す
 40
3.0
 72
     5
 11
-70.1
 21
98.85
  0
TEXT
  7
TextStyle03
  8
文字
  6
CONTINUOUS
 10
-103.825
 20
83.975
  1
アンカー数量　１２ヶ所
 40
3.0
 72
     5
 11
-67.075
 21
83.975
  0
TEXT
  7
TextStyle03
  8
文字
  6
CONTINUOUS
 10
-99.6
 20
23.975
  1
アンカーピッチ
 40
3.0
 50
90.0
 72
     5
 11
-99.6
 21
47.225
  0
TEXT
  7
TextStyle03
  8
文字
  6
CONTINUOUS
 10
-55.375
 20
94.75
  1
アンカーピッチ
 40
3.0
 72
     5
 11
-32.125
 21
94.75
  0
TEXT
  7
TextStyle03
  8
文字
  6
CONTINUOUS
 10
-103.825
 20
78.2
  1
アームユニット数　４ヶ所
 40
3.0
 72
     5
 11
-63.7
 21
78.2
  0
LINE
  8
文字
  6
CONTINUOUS
 10
112.463918
 20
59.495565
 11
55.35454
 21
59.495565
  0
LINE
  8
文字
  6
CONTINUOUS
 10
112.463918
 20
10.63586
 11
55.35454
 21
10.63586
  0
LINE
  8
文字
  6
CONTINUOUS
 10
96.918273
 20
65.733497
 11
96.918273
 21
60.820725
  0
LINE
  8
文字
  6
CONTINUOUS
 10
-64.76178
 20
-80.158047
 11
-64.76178
 21
-22.024302
  0
LINE
  8
文字
  6
CONTINUOUS
 10
24.098222
 20
-80.158047
 11
24.098222
 21
-22.024302
  0
LINE
  8
文字
  6
CONTINUOUS
 10
40.51171
 20
-65.158047
 11
26.90803
 21
-65.158047
  0
LINE
  8
文字
  6
CONTINUOUS
 10
75.354777
 20
-39.618
 11
75.354777
 21
-48.366
  0
LINE
  8
文字
  6
CONTINUOUS
 10
116.421445
 20
-39.618
 11
116.421445
 21
-48.366
  0
TEXT
  7
TextStyle03
  8
文字
  6
CONTINUOUS
 10
97.9
 20
-86.75
  1
網入り6.8t
 40
3.0
 72
     5
 11
114.5875
 21
-86.75
  0
TEXT
  7
TextStyle03
  8
文字
  6
CONTINUOUS
 10
104.575
 20
-91.425
  1
×２枚
 40
3.0
 72
     5
 11
114.325
 21
-91.425
  0
TEXT
  7
TextStyle03
  8
文字
  6
CONTINUOUS
 10
62.15
 20
125.25
  1
シリーズ：ＴＦＦＬ
 40
5.0
 72
     5
 11
112.15
 21
125.25
  0
TEXT
  7
TextStyle03
  8
文字
  6
CONTINUOUS
 10
62.15
 20
119.625
  1
　　　　　（上下可動）1300×2500タイプ
 40
5.0
 72
     5
 11
168.4
 21
119.625
  0
TEXT
  7
TextStyle03
  8
文字
  6
CONTINUOUS
 10
62.15
 20
114.0
  1
図面名　：外観姿図
 40
5.0
 72
     5
 11
112.15
 21
114.0
  0
TEXT
  7
TextStyle03
  8
文字
  6
CONTINUOUS
 10
62.15
 20
108.375
  1
　　　　　　
 40
5.0
 72
     5
 11
95.275
 21
108.375
  0
TEXT
  7
TextStyle03
  8
文字
  6
CONTINUOUS
 10
62.3
 20
104.525
  1
ＮＳコード：ＮＳＦＬ
 40
5.0
 72
     5
 11
117.925
 21
104.525
  0
INSERT
  2
*DIM_0002
  8
寸法
  6
CONTINUOUS
 10
0.0
 20
0.0
  0
INSERT
  2
*DIM_0003
  8
寸法
  6
CONTINUOUS
 10
0.0
 20
0.0
  0
INSERT
  2
*DIM_0004
  8
寸法
  6
CONTINUOUS
 10
0.0
 20
0.0
  0
INSERT
  2
*DIM_0005
  8
寸法
  6
CONTINUOUS
 10
0.0
 20
0.0
  0
INSERT
  2
*DIM_0006
  8
寸法
  6
CONTINUOUS
 10
0.0
 20
0.0
  0
INSERT
  2
*DIM_0007
  8
寸法
  6
CONTINUOUS
 10
0.0
 20
0.0
  0
INSERT
  2
*DIM_0008
  8
寸法
  6
CONTINUOUS
 10
0.0
 20
0.0
  0
INSERT
  2
*DIM_0009
  8
寸法
  6
CONTINUOUS
 10
0.0
 20
0.0
  0
INSERT
  2
*DIM_0010
  8
寸法
  6
CONTINUOUS
 10
0.0
 20
0.0
  0
INSERT
  2
*DIM_0011
  8
寸法
  6
CONTINUOUS
 10
0.0
 20
0.0
  0
INSERT
  2
*DIM_0012
  8
寸法
  6
CONTINUOUS
 10
0.0
 20
0.0
  0
INSERT
  2
*DIM_0013
  8
寸法
  6
CONTINUOUS
 10
0.0
 20
0.0
  0
INSERT
  2
*DIM_0018
  8
寸法
  6
CONTINUOUS
 10
0.0
 20
0.0
  0
INSERT
  2
*DIM_0019
  8
寸法
  6
CONTINUOUS
 10
0.0
 20
0.0
  0
INSERT
  2
*DIM_0020
  8
寸法
  6
CONTINUOUS
 10
0.0
 20
0.0
  0
INSERT
  2
*DIM_0021
  8
寸法
  6
CONTINUOUS
 10
0.0
 20
0.0
  0
INSERT
  2
*DIM_0022
  8
寸法
  6
CONTINUOUS
 10
0.0
 20
0.0
  0
INSERT
  2
*DIM_0023
  8
寸法
  6
CONTINUOUS
 10
0.0
 20
0.0
  0
INSERT
  2
*DIM_0024
  8
寸法
  6
CONTINUOUS
 10
0.0
 20
0.0
  0
LINE
  8
別途部材
  6
CONTINUOUS
 62
    47
 10
110.351605
 20
58.565568
 11
110.418273
 21
58.565568
  0
ARC
  8
別途部材
  6
CONTINUOUS
 62
    47
 10
110.351605
 20
58.465567
 40
0.1
 50
90.0
 51
180.0
  0
LINE
  8
別途部材
  6
CONTINUOUS
 62
    47
 10
110.418273
 20
58.409045
 11
111.918273
 21
58.409045
  0
LINE
  8
別途部材
  6
CONTINUOUS
 62
    47
 10
110.351605
 20
11.565857
 11
110.418273
 21
11.565857
  0
ARC
  8
別途部材
  6
CONTINUOUS
 62
    47
 10
110.351605
 20
11.665857
 40
0.1
 50
180.0
 51
270.0
  0
LINE
  8
別途部材
  6
CONTINUOUS
 62
    47
 10
110.418273
 20
11.72238
 11
111.918273
 21
11.72238
  0
LINE
  8
別途部材
  6
CONTINUOUS
 62
    47
 10
110.418273
 20
11.565857
 11
110.418273
 21
35.198768
  0
LINE
  8
別途部材
  6
CONTINUOUS
 62
    47
 10
110.251605
 20
11.665857
 11
110.251605
 21
35.198768
  0
LINE
  8
別途部材
  6
CONTINUOUS
 62
    47
 10
111.918273
 20
11.72238
 11
111.918273
 21
35.198768
  0
LINE
  8
別途部材
  6
CONTINUOUS
 62
    47
 10
113.068275
 20
10.63586
 11
113.068275
 21
35.198768
  0
LINE
  8
別途部材
  6
CONTINUOUS
 62
    47
 10
114.23494
 20
10.63586
 11
114.23494
 21
35.198768
  0
LINE
  8
別途部材
  6
CONTINUOUS
 62
    47
 10
114.23494
 20
59.495565
 11
114.23494
 21
35.198768
  0
LINE
  8
別途部材
  6
CONTINUOUS
 62
    47
 10
113.068275
 20
59.495565
 11
113.068275
 21
35.198768
  0
LINE
  8
別途部材
  6
CONTINUOUS
 62
    47
 10
111.918273
 20
58.409045
 11
111.918273
 21
35.198768
  0
LINE
  8
別途部材
  6
CONTINUOUS
 62
    47
 10
110.418273
 20
58.565568
 11
110.418273
 21
35.198768
  0
LINE
  8
別途部材
  6
CONTINUOUS
 62
    47
 10
110.251605
 20
58.465567
 11
110.251605
 21
35.198768
  0
LINE
  8
別途部材
  6
DOT
 62
    47
 10
97.018273
 20
58.565568
 11
97.08494
 21
58.565568
  0
ARC
  8
別途部材
  6
DOT
 62
    47
 10
97.018271
 20
58.465567
 40
0.1
 50
90.0
 51
180.0
  0
LINE
  8
別途部材
  6
DOT
 62
    47
 10
97.08494
 20
58.409045
 11
98.58494
 21
58.409045
  0
LINE
  8
別途部材
  6
DOT
 62
    47
 10
97.018273
 20
11.565857
 11
97.08494
 21
11.565857
  0
ARC
  8
別途部材
  6
DOT
 62
    47
 10
97.018271
 20
11.665857
 40
0.1
 50
180.0
 51
270.0
  0
LINE
  8
別途部材
  6
DOT
 62
    47
 10
97.08494
 20
11.72238
 11
98.58494
 21
11.72238
  0
LINE
  8
別途部材
  6
DOT
 62
    47
 10
99.734943
 20
10.63586
 11
99.734943
 21
35.198768
  0
LINE
  8
別途部材
  6
DOT
 62
    47
 10
96.918273
 20
11.665857
 11
96.918273
 21
35.198768
  0
LINE
  8
別途部材
  6
DOT
 62
    47
 10
98.58494
 20
11.72238
 11
98.58494
 21
35.198768
  0
LINE
  8
別途部材
  6
DOT
 62
    47
 10
100.901607
 20
10.63586
 11
100.901607
 21
35.198768
  0
LINE
  8
別途部材
  6
DOT
 62
    47
 10
97.08494
 20
11.565857
 11
97.08494
 21
35.198768
  0
LINE
  8
別途部材
  6
DOT
 62
    47
 10
100.901607
 20
59.495565
 11
100.901607
 21
35.198768
  0
LINE
  8
別途部材
  6
DOT
 62
    47
 10
99.734943
 20
59.495565
 11
99.734943
 21
35.198768
  0
LINE
  8
別途部材
  6
DOT
 62
    47
 10
98.58494
 20
58.409045
 11
98.58494
 21
35.198768
  0
LINE
  8
別途部材
  6
DOT
 62
    47
 10
96.918273
 20
58.465567
 11
96.918273
 21
35.198768
  0
LINE
  8
別途部材
  6
DOT
 62
    47
 10
97.08494
 20
58.565568
 11
97.08494
 21
35.198768
  0
LINE
  8
別途部材
  6
CONTINUOUS
 62
    47
 10
-63.831783
 20
-78.59138
 11
-63.831783
 21
-78.658047
  0
ARC
  8
別途部材
  6
CONTINUOUS
 62
    47
 10
-63.73178
 20
-78.591384
 40
0.1
 50
90.0
 51
180.0
  0
LINE
  8
別途部材
  6
CONTINUOUS
 62
    47
 10
-63.67526
 20
-78.658047
 11
-63.67526
 21
-80.158047
  0
LINE
  8
別途部材
  6
CONTINUOUS
 62
    47
 10
23.168225
 20
-78.59138
 11
23.168225
 21
-78.658047
  0
ARC
  8
別途部材
  6
CONTINUOUS
 62
    47
 10
23.068222
 20
-78.591384
 40
0.1
 50
0.0
 51
90.0
  0
LINE
  8
別途部材
  6
CONTINUOUS
 62
    47
 10
23.011702
 20
-78.658047
 11
23.011702
 21
-80.158047
  0
LINE
  8
別途部材
  6
CONTINUOUS
 62
    47
 10
-63.731783
 20
-78.49138
 11
-20.331778
 21
-78.49138
  0
LINE
  8
別途部材
  6
CONTINUOUS
 62
    47
 10
-63.831783
 20
-78.658047
 11
-20.331778
 21
-78.658047
  0
LINE
  8
別途部材
  6
CONTINUOUS
 62
    47
 10
-64.76178
 20
-81.30805
 11
-20.331778
 21
-81.30805
  0
LINE
  8
別途部材
  6
CONTINUOUS
 62
    47
 10
-63.67526
 20
-80.158047
 11
-20.331778
 21
-80.158047
  0
LINE
  8
別途部材
  6
CONTINUOUS
 62
    47
 10
-64.76178
 20
-82.474715
 11
-20.331778
 21
-82.474715
  0
LINE
  8
別途部材
  6
CONTINUOUS
 62
    47
 10
24.098222
 20
-82.474715
 11
-20.331778
 21
-82.474715
  0
LINE
  8
別途部材
  6
CONTINUOUS
 62
    47
 10
24.098222
 20
-81.30805
 11
-20.331778
 21
-81.30805
  0
LINE
  8
別途部材
  6
CONTINUOUS
 62
    47
 10
23.011702
 20
-80.158047
 11
-20.331778
 21
-80.158047
  0
LINE
  8
別途部材
  6
CONTINUOUS
 62
    47
 10
23.068225
 20
-78.49138
 11
-20.331778
 21
-78.49138
  0
LINE
  8
別途部材
  6
CONTINUOUS
 62
    47
 10
23.168225
 20
-78.658047
 11
-20.331778
 21
-78.658047
  0
LINE
  8
別途部材
  6
DOT
 62
    47
 10
-63.831783
 20
-65.258047
 11
-63.831783
 21
-65.324715
  0
ARC
  8
別途部材
  6
DOT
 62
    47
 10
-63.73178
 20
-65.258049
 40
0.1
 50
90.0
 51
180.0
  0
LINE
  8
別途部材
  6
DOT
 62
    47
 10
-63.67526
 20
-65.324715
 11
-63.67526
 21
-66.824715
  0
LINE
  8
別途部材
  6
DOT
 62
    47
 10
23.168225
 20
-65.258047
 11
23.168225
 21
-65.324715
  0
ARC
  8
別途部材
  6
DOT
 62
    47
 10
23.068222
 20
-65.258049
 40
0.1
 50
0.0
 51
90.0
  0
LINE
  8
別途部材
  6
DOT
 62
    47
 10
23.011702
 20
-65.324715
 11
23.011702
 21
-66.824715
  0
LINE
  8
別途部材
  6
DOT
 62
    47
 10
-63.731783
 20
-65.158047
 11
-20.331778
 21
-65.158047
  0
LINE
  8
別途部材
  6
DOT
 62
    47
 10
-63.831783
 20
-65.324715
 11
-20.331778
 21
-65.324715
  0
LINE
  8
別途部材
  6
DOT
 62
    47
 10
-64.76178
 20
-67.974718
 11
-20.331778
 21
-67.974718
  0
LINE
  8
別途部材
  6
DOT
 62
    47
 10
-63.67526
 20
-66.824715
 11
-20.331778
 21
-66.824715
  0
LINE
  8
別途部材
  6
DOT
 62
    47
 10
-64.76178
 20
-69.141382
 11
-20.331778
 21
-69.141382
  0
LINE
  8
別途部材
  6
DOT
 62
    47
 10
24.098222
 20
-69.141382
 11
-20.331778
 21
-69.141382
  0
LINE
  8
別途部材
  6
DOT
 62
    47
 10
24.098222
 20
-67.974718
 11
-20.331778
 21
-67.974718
  0
LINE
  8
別途部材
  6
DOT
 62
    47
 10
23.011702
 20
-66.824715
 11
-20.331778
 21
-66.824715
  0
LINE
  8
別途部材
  6
DOT
 62
    47
 10
23.068225
 20
-65.158047
 11
-20.331778
 21
-65.158047
  0
LINE
  8
別途部材
  6
DOT
 62
    47
 10
23.168225
 20
-65.324715
 11
-20.331778
 21
-65.324715
  0
LINE
  8
別途部材
  6
CONTINUOUS
 10
75.354777
 20
-49.867045
 11
75.354777
 21
-93.20038
  0
LINE
  8
曲げ物
  6
CONTINUOUS
 10
2.922293
 20
37.022003
 11
-0.77302
 21
33.32669
  0
LINE
  8
曲げ物
  6
CONTINUOUS
 10
2.218822
 20
35.485893
 11
0.763092
 21
34.030163
  0
LINE
  8
曲げ物
  6
CONTINUOUS
 10
1.386182
 20
36.318533
 11
-0.069548
 21
34.862803
  0
LINE
  8
曲げ物
  6
CONTINUOUS
 10
-38.301623
 20
37.022003
 11
-41.996935
 21
33.32669
  0
LINE
  8
曲げ物
  6
CONTINUOUS
 10
-39.005092
 20
35.485893
 11
-40.460822
 21
34.030163
  0
LINE
  8
曲げ物
  6
CONTINUOUS
 10
-39.837733
 20
36.318533
 11
-41.293462
 21
34.862803
  0
LINE
  8
曲げ物
  6
CONTINUOUS
 10
116.421445
 20
-49.867045
 11
75.354777
 21
-49.867045
  0
LINE
  8
曲げ物
  6
CONTINUOUS
 10
116.421445
 20
-93.20038
 11
75.354777
 21
-93.20038
  0
LINE
  8
曲げ物
  6
CONTINUOUS
 10
116.421445
 20
-49.867045
 11
116.421445
 21
-93.20038
  0
LINE
  8
鉄骨等
  6
CONTINUOUS
 62
    47
 10
114.23494
 20
59.495565
 11
113.068275
 21
59.495565
  0
LINE
  8
鉄骨等
  6
CONTINUOUS
 62
    47
 10
113.068275
 20
59.495565
 11
111.918275
 21
58.092377
  0
LINE
  8
鉄骨等
  6
CONTINUOUS
 62
    47
 10
114.23494
 20
10.63586
 11
113.068275
 21
10.63586
  0
LINE
  8
鉄骨等
  6
CONTINUOUS
 62
    47
 10
113.068275
 20
10.63586
 11
111.918275
 21
12.039045
  0
LINE
  8
鉄骨等
  6
DOT
 62
    47
 10
100.901607
 20
59.495565
 11
99.734943
 21
59.495565
  0
LINE
  8
鉄骨等
  6
DOT
 62
    47
 10
99.734943
 20
59.495565
 11
98.584943
 21
58.092377
  0
LINE
  8
鉄骨等
  6
DOT
 62
    47
 10
100.901607
 20
10.63586
 11
99.734943
 21
10.63586
  0
LINE
  8
鉄骨等
  6
DOT
 62
    47
 10
99.734943
 20
10.63586
 11
98.584943
 21
12.039045
  0
LINE
  8
鉄骨等
  6
CONTINUOUS
 62
    47
 10
-64.76178
 20
-82.474715
 11
-64.76178
 21
-81.30805
  0
LINE
  8
鉄骨等
  6
CONTINUOUS
 62
    47
 10
-64.76178
 20
-81.30805
 11
-63.358595
 21
-80.15805
  0
LINE
  8
鉄骨等
  6
CONTINUOUS
 62
    47
 10
24.098222
 20
-82.474715
 11
24.098222
 21
-81.30805
  0
LINE
  8
鉄骨等
  6
CONTINUOUS
 62
    47
 10
24.098222
 20
-81.30805
 11
22.695038
 21
-80.15805
  0
LINE
  8
鉄骨等
  6
DOT
 62
    47
 10
-64.76178
 20
-69.141382
 11
-64.76178
 21
-67.974718
  0
LINE
  8
鉄骨等
  6
DOT
 62
    47
 10
-64.76178
 20
-67.974718
 11
-63.358595
 21
-66.824718
  0
LINE
  8
鉄骨等
  6
DOT
 62
    47
 10
24.098222
 20
-69.141382
 11
24.098222
 21
-67.974718
  0
LINE
  8
鉄骨等
  6
DOT
 62
    47
 10
24.098222
 20
-67.974718
 11
22.695038
 21
-66.824718
  0
ENDSEC
  0
EOF
