  0
SECTION
  2
HEADER
  9
$EXTMIN
 10
-210.0
 20
-148.5
  9
$EXTMAX
 10
210.0
 20
148.5
  9
$PDMODE
 70
    32
  9
$PDSIZE
 40
1.5
  9
$LTSCALE
 40
10.0
  0
ENDSEC
  0
SECTION
  2
TABLES
  0
TABLE
  2
LTYPE
 70
    15
  0
LTYPE
  2
CONTINUOUS
 70
    64
  3
実線
 72
    65
 73
     0
 40
0.0
  0
LTYPE
  2
DASHED
 70
    64
  3
破線A
 72
    65
 73
     2
 40
0.6
 49
0.4
 49
-0.2
  0
LTYPE
  2
DASHEDX2
 70
    64
  3
破線B
 72
    65
 73
     2
 40
1.3
 49
0.9
 49
-0.4
  0
LTYPE
  2
DASHDOT
 70
    64
  3
１点鎖線A
 72
    65
 73
     4
 40
0.5375
 49
0.375
 49
-0.05
 49
0.0625
 49
-0.05
  0
LTYPE
  2
DASHDOTX2
 70
    64
  3
１点鎖線B
 72
    65
 73
     4
 40
1.075
 49
0.75
 49
-0.1
 49
0.125
 49
-0.1
  0
LTYPE
  2
DIVIDE2
 70
    64
  3
２点鎖線A
 72
    65
 73
     6
 40
0.5125
 49
0.3
 49
-0.0375
 49
0.05
 49
-0.0375
 49
0.05
 49
-0.0375
  0
LTYPE
  2
DIVIDE
 70
    64
  3
２点鎖線B
 72
    65
 73
     6
 40
1.05
 49
0.55
 49
-0.1
 49
0.1
 49
-0.1
 49
0.1
 49
-0.1
  0
LTYPE
  2
DOT
 70
    64
  3
点線A
 72
    65
 73
     2
 40
0.1125
 49
0.0625
 49
-0.05
  0
LTYPE
  2
DOTX2
 70
    64
  3
点線B
 72
    65
 73
     2
 40
0.275
 49
0.15
 49
-0.125
  0
LTYPE
  2
CONTINUOUS
 70
    64
  3
実線
 72
    65
 73
     0
 40
0.0
  0
LTYPE
  2
CONTINUOUS
 70
    64
  3
実線
 72
    65
 73
     0
 40
0.0
  0
LTYPE
  2
CONTINUOUS
 70
    64
  3
実線
 72
    65
 73
     0
 40
0.0
  0
LTYPE
  2
CONTINUOUS
 70
    64
  3
実線
 72
    65
 73
     0
 40
0.0
  0
LTYPE
  2
CONTINUOUS
 70
    64
  3
実線
 72
    65
 73
     0
 40
0.0
  0
LTYPE
  2
CONTINUOUS
 70
    64
  3
実線
 72
    65
 73
     0
 40
0.0
  0
ENDTAB
  0
TABLE
  2
LAYER
 70
    34
  0
LAYER
  2
通り芯
 70
     0
 62
    15
  6
CONTINUOUS
  0
LAYER
  2
補助線
 70
     0
 62
    16
  6
DOT
  0
LAYER
  2
躯体
 70
     0
 62
    31
  6
CONTINUOUS
  0
LAYER
  2
型材
 70
     0
 62
    32
  6
CONTINUOUS
  0
LAYER
  2
型材断面
 70
     0
 62
    47
  6
CONTINUOUS
  0
LAYER
  2
ガラス
 70
     0
 62
    48
  6
CONTINUOUS
  0
LAYER
  2
ゴム等
 70
     0
 62
    63
  6
CONTINUOUS
  0
LAYER
  2
ボルト／ビス
 70
     0
 62
    64
  6
CONTINUOUS
  0
LAYER
  2
文字
 70
     0
 62
    79
  6
CONTINUOUS
  0
LAYER
  2
寸法
 70
     0
 62
    80
  6
CONTINUOUS
  0
LAYER
  2
ﾊｯﾁﾝｸﾞ
 70
     0
 62
    95
  6
CONTINUOUS
  0
LAYER
  2
別途部材
 70
     0
 62
    96
  6
CONTINUOUS
  0
LAYER
  2
曲げ物
 70
     0
 62
   111
  6
CONTINUOUS
  0
LAYER
  2
鉄骨等
 70
     0
 62
   112
  6
CONTINUOUS
  0
LAYER
  2
St
 70
     0
 62
   127
  6
CONTINUOUS
  0
LAYER
  2
その他部品等
 70
     0
 62
   128
  6
CONTINUOUS
  0
LAYER
  2
ｶﾞｽｹｯﾄ
 70
     0
 62
   143
  6
CONTINUOUS
  0
LAYER
  2
ｽｹｯﾁ
 70
     0
 62
    14
  6
CONTINUOUS
  0
LAYER
  2
0
 70
     0
 62
    17
  6
CONTINUOUS
  0
LAYER
  2
1
 70
     0
 62
    30
  6
CONTINUOUS
  0
LAYER
  2
4
 70
     0
 62
    33
  6
CONTINUOUS
  0
LAYER
  2
ﾚｲﾔ3
 70
     0
 62
    46
  6
CONTINUOUS
  0
LAYER
  2
外形線
 70
     0
 62
    49
  6
CONTINUOUS
  0
LAYER
  2
部品
 70
     0
 62
    14
  6
CONTINUOUS
  0
LAYER
  2
サッシ芯
 70
     0
 62
    17
  6
DASHDOTX2
  0
LAYER
  2
寸法線
 70
     0
 62
    62
  6
CONTINUOUS
  0
LAYER
  2
姿図外形線
 70
     0
 62
    65
  6
CONTINUOUS
  0
LAYER
  2
姿補助線
 70
     0
 62
    30
  6
CONTINUOUS
  0
LAYER
  2
透視線
 70
     0
 62
    78
  6
DOT
  0
LAYER
  2
用紙
 70
     0
 62
    81
  6
CONTINUOUS
  0
LAYER
  2
実線図枠
 70
     0
 62
    94
  6
CONTINUOUS
  0
LAYER
  2
補助図枠
 70
     0
 62
    97
  6
CONTINUOUS
  0
LAYER
  2
建具記号
 70
     0
 62
   110
  6
CONTINUOUS
  0
LAYER
  2
補助文字
 70
     0
 62
   113
  6
CONTINUOUS
  0
ENDTAB
  0
TABLE
  2
STYLE
 70
    10
  0
STYLE
  2
STANDARD
 70
     0
 40
1.0
 41
1.0
 42
1.0
 50
0.0
 71
     0
  3
TXT
  4
BIGFONT
  0
STYLE
  2
TATE
 70
     4
 40
1.0
 41
1.0
 42
1.0
 50
0.0
 71
     0
  3
TXT
  4
BIGFONT
  0
STYLE
  2
TextStyle03
 70
     0
 40
1.0
 41
1.0
 42
1.0
 50
0.0
 71
     0
  3
MONOTXT
  4
BIGFONT
  0
STYLE
  2
TextStyle04
 70
     0
 40
1.0
 41
1.0
 42
1.0
 50
0.0
 71
     0
  3
MONOTXT
  4
BIGFONT
  0
STYLE
  2
TextStyle05
 70
     0
 40
1.0
 41
1.0
 42
1.0
 50
0.0
 71
     0
  3
MONOTXT
  4
BIGFONT
  0
STYLE
  2
TextStyle06
 70
     0
 40
1.0
 41
1.0
 42
1.0
 50
0.0
 71
     0
  3
MONOTXT
  4
BIGFONT
  0
STYLE
  2
TextStyle07
 70
     0
 40
1.0
 41
1.0
 42
1.0
 50
0.0
 71
     0
  3
MONOTXT
  4
BIGFONT
  0
STYLE
  2
TextStyle08
 70
     0
 40
1.0
 41
1.0
 42
1.0
 50
0.0
 71
     0
  3
MONOTXT
  4
BIGFONT
  0
STYLE
  2
TextStyle09
 70
     0
 40
1.0
 41
1.0
 42
1.0
 50
0.0
 71
     0
  3
MONOTXT
  4
BIGFONT
  0
STYLE
  2
TextStyle10
 70
     0
 40
1.0
 41
1.0
 42
1.0
 50
0.0
 71
     0
  3
MONOTXT
  4
BIGFONT
  0
ENDTAB
  0
ENDSEC
  0
SECTION
  2
BLOCKS
  0
BLOCK
  2
*GRP_0001
 70
    65
 10
0.0
 20
0.0
  0
LINE
  8
型材断面
  6
CONTINUOUS
 10
195.0
 20
133.5
 11
195.0
 21
-133.5
  0
LINE
  8
型材断面
  6
CONTINUOUS
 10
195.0
 20
-133.5
 11
-185.0
 21
-133.5
  0
LINE
  8
型材断面
  6
CONTINUOUS
 10
-185.0
 20
-133.5
 11
-185.0
 21
133.5
  0
LINE
  8
型材断面
  6
CONTINUOUS
 10
195.0
 20
133.5
 11
-185.0
 21
133.5
  0
LINE
  8
型材断面
  6
CONTINUOUS
 10
145.0
 20
-133.5
 11
145.0
 21
-118.5
  0
LINE
  8
型材断面
  6
CONTINUOUS
 10
195.0
 20
-118.5
 11
145.0
 21
-118.5
  0
ENDBLK
  0
BLOCK
  2
*DIM_0002
 70
    65
 10
0.0
 20
0.0
  0
LINE
  8
寸法
  6
BYBLOCK
 62
     0
 10
-61.998442
 20
9.76892
 11
-61.998442
 21
5.198027
  0
LINE
  8
寸法
  6
BYBLOCK
 62
     0
 10
4.668223
 20
9.76892
 11
4.668223
 21
5.198027
  0
LINE
  8
寸法
  6
BYBLOCK
 62
     0
 10
-61.998442
 20
5.198027
 11
4.668223
 21
5.198027
  0
POINT
  8
寸法
 62
     0
 10
-61.998442
 20
5.198027
  0
POINT
  8
寸法
 62
     0
 10
4.668223
 20
5.198027
  0
TEXT
  7
TextStyle03
  8
寸法
  6
CONTINUOUS
 62
     0
 10
-31.95625
 20
5.55
  1
2000
 40
3.0
 72
     5
 11
-25.39375
 21
5.55
  0
ENDBLK
  0
BLOCK
  2
*DIM_0003
 70
    65
 10
0.0
 20
0.0
  0
LINE
  8
寸法
  6
BYBLOCK
 62
     0
 10
22.33489
 20
56.732382
 11
32.059173
 21
56.732382
  0
LINE
  8
寸法
  6
BYBLOCK
 62
     0
 10
24.96502
 20
53.032382
 11
32.059173
 21
53.032382
  0
LINE
  8
寸法
  6
BYBLOCK
 62
     0
 10
32.059173
 20
56.732382
 11
32.059173
 21
53.032382
  0
POINT
  8
寸法
 62
     0
 10
32.059173
 20
56.732382
  0
POINT
  8
寸法
 62
     0
 10
32.059173
 20
53.032382
  0
TEXT
  7
TextStyle03
  8
寸法
  6
CONTINUOUS
 62
     0
 10
31.75
 20
57.7125
  1
111
 40
3.0
 50
90.0
 72
     5
 11
31.75
 21
62.5875
  0
ENDBLK
  0
BLOCK
  2
*DIM_0004
 70
    65
 10
0.0
 20
0.0
  0
LINE
  8
寸法
  6
BYBLOCK
 62
     0
 10
22.33489
 20
13.399048
 11
32.059173
 21
13.399045
  0
LINE
  8
寸法
  6
BYBLOCK
 62
     0
 10
24.96502
 20
17.099048
 11
32.059173
 21
17.099045
  0
LINE
  8
寸法
  6
BYBLOCK
 62
     0
 10
32.059173
 20
13.399045
 11
32.059173
 21
17.099045
  0
POINT
  8
寸法
 62
     0
 10
32.059173
 20
13.399045
  0
POINT
  8
寸法
 62
     0
 10
32.059173
 20
17.099045
  0
TEXT
  7
TextStyle03
  8
寸法
  6
CONTINUOUS
 62
     0
 10
31.725
 20
7.5375
  1
111
 40
3.0
 50
90.0
 72
     5
 11
31.725
 21
12.4125
  0
ENDBLK
  0
BLOCK
  2
*DIM_0005
 70
    65
 10
0.0
 20
0.0
  0
LINE
  8
寸法
  6
BYBLOCK
 62
     0
 10
-81.66511
 20
23.399048
 11
-110.610275
 21
23.399048
  0
LINE
  8
寸法
  6
BYBLOCK
 62
     0
 10
-81.66511
 20
46.732382
 11
-110.610275
 21
46.732382
  0
LINE
  8
寸法
  6
BYBLOCK
 62
     0
 10
-110.610275
 20
23.399048
 11
-110.610275
 21
46.732382
  0
POINT
  8
寸法
 62
     0
 10
-110.610275
 20
23.399048
  0
POINT
  8
寸法
 62
     0
 10
-110.610275
 20
46.732382
  0
TEXT
  7
TextStyle03
  8
寸法
  6
CONTINUOUS
 62
     0
 10
-111.05
 20
32.6125
  1
700
 40
3.0
 50
90.0
 72
     5
 11
-111.05
 21
37.4875
  0
ENDBLK
  0
BLOCK
  2
*DIM_0006
 70
    65
 10
0.0
 20
0.0
  0
LINE
  8
寸法
  6
BYBLOCK
 62
     0
 10
-68.66511
 20
59.73238
 11
-68.66511
 21
88.840452
  0
LINE
  8
寸法
  6
BYBLOCK
 62
     0
 10
-41.998442
 20
59.73238
 11
-41.998442
 21
88.840452
  0
LINE
  8
寸法
  6
BYBLOCK
 62
     0
 10
-68.66511
 20
88.840452
 11
-41.998442
 21
88.840452
  0
POINT
  8
寸法
 62
     0
 10
-68.66511
 20
88.840452
  0
POINT
  8
寸法
 62
     0
 10
-41.998442
 20
88.840452
  0
TEXT
  7
TextStyle03
  8
寸法
  6
CONTINUOUS
 62
     0
 10
-57.7875
 20
89.2
  1
800
 40
3.0
 72
     5
 11
-52.9125
 21
89.2
  0
ENDBLK
  0
BLOCK
  2
*DIM_0007
 70
    65
 10
0.0
 20
0.0
  0
LINE
  8
寸法
  6
BYBLOCK
 62
     0
 10
-15.331778
 20
59.73238
 11
-15.331778
 21
88.840452
  0
LINE
  8
寸法
  6
BYBLOCK
 62
     0
 10
-41.998442
 20
88.840452
 11
-15.331778
 21
88.840452
  0
POINT
  8
寸法
 62
     0
 10
-15.331778
 20
88.840452
  0
TEXT
  7
TextStyle03
  8
寸法
  6
CONTINUOUS
 62
     0
 10
-31.1125
 20
89.2
  1
800
 40
3.0
 72
     5
 11
-26.2375
 21
89.2
  0
ENDBLK
  0
BLOCK
  2
*DIM_0008
 70
    65
 10
0.0
 20
0.0
  0
LINE
  8
寸法
  6
BYBLOCK
 62
     0
 10
11.33489
 20
59.73238
 11
11.33489
 21
88.840452
  0
LINE
  8
寸法
  6
BYBLOCK
 62
     0
 10
-15.331778
 20
88.840452
 11
11.33489
 21
88.840452
  0
POINT
  8
寸法
 62
     0
 10
11.33489
 20
88.840452
  0
TEXT
  7
TextStyle03
  8
寸法
  6
CONTINUOUS
 62
     0
 10
-4.4375
 20
89.2
  1
800
 40
3.0
 72
     5
 11
0.4375
 21
89.2
  0
ENDBLK
  0
BLOCK
  2
*DIM_0009
 70
    65
 10
0.0
 20
0.0
  0
LINE
  8
寸法
  6
CONTINUOUS
 10
55.35454
 20
59.495565
 11
55.35454
 21
56.73238
  0
POINT
  8
寸法
 10
55.35454
 20
59.495565
  0
POINT
  8
寸法
 10
55.35454
 20
56.73238
  0
TEXT
  7
TextStyle03
  8
寸法
  6
CONTINUOUS
 10
56.725
 20
60.54375
  1
82.9
 40
3.0
 50
90.0
 72
     5
 11
56.725
 21
67.10625
  0
ENDBLK
  0
BLOCK
  2
*DIM_0010
 70
    65
 10
0.0
 20
0.0
  0
LINE
  8
寸法
  6
CONTINUOUS
 10
55.35454
 20
13.399048
 11
55.35454
 21
10.63586
  0
POINT
  8
寸法
 10
55.35454
 20
13.399048
  0
POINT
  8
寸法
 10
55.35454
 20
10.63586
  0
TEXT
  7
TextStyle03
  8
寸法
  6
CONTINUOUS
 10
56.725
 20
2.99375
  1
82.9
 40
3.0
 50
90.0
 72
     5
 11
56.725
 21
9.55625
  0
ENDBLK
  0
BLOCK
  2
*DIM_0011
 70
    65
 10
0.0
 20
0.0
  0
LINE
  8
寸法
  6
CONTINUOUS
 10
55.35454
 20
56.73238
 11
55.35454
 21
13.399048
  0
POINT
  8
寸法
 10
55.35454
 20
56.73238
  0
POINT
  8
寸法
 10
55.35454
 20
13.399048
  0
TEXT
  7
TextStyle03
  8
寸法
  6
CONTINUOUS
 10
54.95
 20
24.175
  1
呼称寸法=1300
 40
3.0
 50
90.0
 72
     5
 11
54.95
 21
45.925
  0
ENDBLK
  0
BLOCK
  2
*DIM_0012
 70
    65
 10
0.0
 20
0.0
  0
LINE
  8
寸法
  6
CONTINUOUS
 10
-78.665113
 20
-22.024302
 11
-81.428445
 21
-22.024302
  0
POINT
  8
寸法
 10
-78.665113
 20
-22.024302
  0
POINT
  8
寸法
 10
-81.428445
 20
-22.024302
  0
TEXT
  7
TextStyle03
  8
寸法
  6
CONTINUOUS
 10
-86.00625
 20
-21.15
  1
82.9
 40
3.0
 72
     5
 11
-79.44375
 21
-21.15
  0
ENDBLK
  0
BLOCK
  2
*DIM_0013
 70
    65
 10
0.0
 20
0.0
  0
LINE
  8
寸法
  6
CONTINUOUS
 10
24.098225
 20
-22.024302
 11
21.33489
 21
-22.024302
  0
POINT
  8
寸法
 10
24.098225
 20
-22.024302
  0
POINT
  8
寸法
 10
21.33489
 20
-22.024302
  0
TEXT
  7
TextStyle03
  8
寸法
  6
CONTINUOUS
 10
22.41875
 20
-21.2
  1
82.9
 40
3.0
 72
     5
 11
28.98125
 21
-21.2
  0
ENDBLK
  0
BLOCK
  2
*DIM_0014
 70
    65
 10
0.0
 20
0.0
  0
LINE
  8
寸法
  6
CONTINUOUS
 10
-78.66511
 20
-22.024302
 11
21.33489
 21
-22.024302
  0
POINT
  8
寸法
 10
-78.66511
 20
-22.024302
  0
POINT
  8
寸法
 10
21.33489
 20
-22.024302
  0
TEXT
  7
TextStyle03
  8
寸法
  6
CONTINUOUS
 10
-40.39375
 20
-21.675
  1
呼称寸法　3000
 40
3.0
 72
     5
 11
-16.95625
 21
-21.675
  0
ENDBLK
  0
BLOCK
  2
*GRP_0015
 70
    65
 10
0.0
 20
0.0
  0
LINE
  8
補助線
  6
BYBLOCK
 62
    64
 10
-75.265833
 20
-84.017143
 11
-75.397717
 21
-84.119048
  0
LINE
  8
補助線
  6
BYBLOCK
 62
    64
 10
-75.382727
 20
-84.002153
 11
-75.280822
 21
-84.134037
  0
LINE
  8
補助線
  6
BYBLOCK
 62
    64
 10
-63.855207
 20
-75.200453
 11
-63.987093
 21
-75.302355
  0
LINE
  8
補助線
  6
BYBLOCK
 62
    64
 10
-63.972102
 20
-75.18546
 11
-63.8702
 21
-75.317345
  0
LINE
  8
補助線
  6
BYBLOCK
 62
    64
 10
-52.576465
 20
-66.485665
 11
-52.444585
 21
-66.38376
  0
LINE
  8
補助線
  6
BYBLOCK
 62
    64
 10
-52.561478
 20
-66.368768
 11
-52.459575
 21
-66.500655
  0
LINE
  8
型材断面
  6
CONTINUOUS
 10
-76.10506
 20
-83.61248
 11
-76.195003
 21
-84.313845
  0
LINE
  8
型材断面
  6
CONTINUOUS
 10
-76.195003
 20
-84.313845
 11
-75.787388
 21
-84.841382
  0
LINE
  8
型材断面
  6
CONTINUOUS
 10
-75.787388
 20
-84.841382
 11
-75.086025
 21
-84.931322
  0
LINE
  8
型材断面
  6
CONTINUOUS
 10
-52.756275
 20
-65.571485
 11
-52.054912
 21
-65.661427
  0
LINE
  8
型材断面
  6
CONTINUOUS
 10
-52.054912
 20
-65.661427
 11
-51.647297
 21
-66.188965
  0
LINE
  8
型材断面
  6
CONTINUOUS
 10
-51.647297
 20
-66.188965
 11
-51.73724
 21
-66.89033
  0
LINE
  8
型材断面
  6
CONTINUOUS
 10
-75.086025
 20
-84.931322
 11
-51.73724
 21
-66.89033
  0
LINE
  8
型材断面
  6
CONTINUOUS
 10
-76.10506
 20
-83.61248
 11
-52.756275
 21
-65.571485
  0
CIRCLE
  8
ボルト／ビス
  6
CONTINUOUS
 10
-75.331775
 20
-84.068095
 40
0.250185
  0
CIRCLE
  8
ボルト／ビス
  6
CONTINUOUS
 10
-75.331775
 20
-84.068095
 40
0.301025
  0
LINE
  8
ボルト／ビス
  6
CONTINUOUS
 62
    64
 10
-75.57971
 20
-84.101585
 11
-75.484745
 21
-83.870122
  0
LINE
  8
ボルト／ビス
  6
CONTINUOUS
 62
    64
 10
-75.23681
 20
-83.836632
 11
-75.484745
 21
-83.870122
  0
LINE
  8
ボルト／ビス
  6
CONTINUOUS
 62
    64
 10
-75.42674
 20
-84.299557
 11
-75.178805
 21
-84.266068
  0
LINE
  8
ボルト／ビス
  6
CONTINUOUS
 62
    64
 10
-75.08384
 20
-84.034605
 11
-75.178805
 21
-84.266068
  0
LINE
  8
ボルト／ビス
  6
CONTINUOUS
 62
    64
 10
-75.57971
 20
-84.101585
 11
-75.42674
 21
-84.299557
  0
LINE
  8
ボルト／ビス
  6
CONTINUOUS
 62
    64
 10
-75.23681
 20
-83.836632
 11
-75.08384
 21
-84.034605
  0
CIRCLE
  8
ボルト／ビス
  6
CONTINUOUS
 62
    64
 10
-75.331775
 20
-84.068095
 40
0.216668
  0
CIRCLE
  8
ボルト／ビス
  6
CONTINUOUS
 10
-63.92115
 20
-75.251405
 40
0.250185
  0
CIRCLE
  8
ボルト／ビス
  6
CONTINUOUS
 10
-63.92115
 20
-75.251405
 40
0.301025
  0
LINE
  8
ボルト／ビス
  6
CONTINUOUS
 62
    64
 10
-64.169085
 20
-75.284893
 11
-64.07412
 21
-75.053432
  0
LINE
  8
ボルト／ビス
  6
CONTINUOUS
 62
    64
 10
-63.826185
 20
-75.019942
 11
-64.07412
 21
-75.053432
  0
LINE
  8
ボルト／ビス
  6
CONTINUOUS
 62
    64
 10
-64.016118
 20
-75.482865
 11
-63.768182
 21
-75.449375
  0
LINE
  8
ボルト／ビス
  6
CONTINUOUS
 62
    64
 10
-63.673215
 20
-75.217915
 11
-63.768182
 21
-75.449375
  0
LINE
  8
ボルト／ビス
  6
CONTINUOUS
 62
    64
 10
-64.169085
 20
-75.284893
 11
-64.016118
 21
-75.482865
  0
LINE
  8
ボルト／ビス
  6
CONTINUOUS
 62
    64
 10
-63.826185
 20
-75.019942
 11
-63.673215
 21
-75.217915
  0
CIRCLE
  8
ボルト／ビス
  6
CONTINUOUS
 62
    64
 10
-63.92115
 20
-75.251405
 40
0.216668
  0
CIRCLE
  8
ボルト／ビス
  6
CONTINUOUS
 10
-52.510527
 20
-66.434713
 40
0.250185
  0
CIRCLE
  8
ボルト／ビス
  6
CONTINUOUS
 10
-52.510527
 20
-66.434713
 40
0.301025
  0
LINE
  8
ボルト／ビス
  6
CONTINUOUS
 62
    64
 10
-52.41556
 20
-66.20325
 11
-52.663493
 21
-66.23674
  0
LINE
  8
ボルト／ビス
  6
CONTINUOUS
 62
    64
 10
-52.758457
 20
-66.468203
 11
-52.663493
 21
-66.23674
  0
LINE
  8
ボルト／ビス
  6
CONTINUOUS
 62
    64
 10
-52.262593
 20
-66.401223
 11
-52.357557
 21
-66.632685
  0
LINE
  8
ボルト／ビス
  6
CONTINUOUS
 62
    64
 10
-52.605493
 20
-66.666175
 11
-52.357557
 21
-66.632685
  0
LINE
  8
ボルト／ビス
  6
CONTINUOUS
 62
    64
 10
-52.41556
 20
-66.20325
 11
-52.262593
 21
-66.401223
  0
LINE
  8
ボルト／ビス
  6
CONTINUOUS
 62
    64
 10
-52.758457
 20
-66.468203
 11
-52.605493
 21
-66.666175
  0
CIRCLE
  8
ボルト／ビス
  6
CONTINUOUS
 62
    64
 10
-52.510527
 20
-66.434713
 40
0.216668
  0
ENDBLK
  0
BLOCK
  2
*GRP_0016
 70
    65
 10
0.0
 20
0.0
  0
LINE
  8
補助線
  6
BYBLOCK
 62
    64
 10
-52.576468
 20
-84.017143
 11
-52.444582
 21
-84.119048
  0
LINE
  8
補助線
  6
BYBLOCK
 62
    64
 10
-52.459573
 20
-84.002153
 11
-52.561478
 21
-84.134037
  0
LINE
  8
補助線
  6
BYBLOCK
 62
    64
 10
-63.987093
 20
-75.200453
 11
-63.855207
 21
-75.302355
  0
LINE
  8
補助線
  6
BYBLOCK
 62
    64
 10
-63.870197
 20
-75.18546
 11
-63.9721
 21
-75.317345
  0
LINE
  8
補助線
  6
BYBLOCK
 62
    64
 10
-75.265835
 20
-66.485665
 11
-75.397715
 21
-66.38376
  0
LINE
  8
補助線
  6
BYBLOCK
 62
    64
 10
-75.280822
 20
-66.368768
 11
-75.382725
 21
-66.500655
  0
LINE
  8
型材断面
  6
CONTINUOUS
 10
-51.73724
 20
-83.61248
 11
-51.647297
 21
-84.313845
  0
LINE
  8
型材断面
  6
CONTINUOUS
 10
-51.647297
 20
-84.313845
 11
-52.054912
 21
-84.841382
  0
LINE
  8
型材断面
  6
CONTINUOUS
 10
-52.054912
 20
-84.841382
 11
-52.756275
 21
-84.931322
  0
LINE
  8
型材断面
  6
CONTINUOUS
 10
-75.086025
 20
-65.571485
 11
-75.787388
 21
-65.661427
  0
LINE
  8
型材断面
  6
CONTINUOUS
 10
-75.787388
 20
-65.661427
 11
-76.195003
 21
-66.188965
  0
LINE
  8
型材断面
  6
CONTINUOUS
 10
-76.195003
 20
-66.188965
 11
-76.10506
 21
-66.89033
  0
LINE
  8
型材断面
  6
CONTINUOUS
 10
-52.756275
 20
-84.931322
 11
-76.10506
 21
-66.89033
  0
LINE
  8
型材断面
  6
CONTINUOUS
 10
-51.73724
 20
-83.61248
 11
-75.086025
 21
-65.571485
  0
CIRCLE
  8
ボルト／ビス
  6
CONTINUOUS
 10
-52.510525
 20
-84.068095
 40
0.250185
  0
CIRCLE
  8
ボルト／ビス
  6
CONTINUOUS
 10
-52.510525
 20
-84.068095
 40
0.301025
  0
LINE
  8
ボルト／ビス
  6
CONTINUOUS
 62
    64
 10
-52.26259
 20
-84.101585
 11
-52.357555
 21
-83.870122
  0
LINE
  8
ボルト／ビス
  6
CONTINUOUS
 62
    64
 10
-52.60549
 20
-83.836632
 11
-52.357555
 21
-83.870122
  0
LINE
  8
ボルト／ビス
  6
CONTINUOUS
 62
    64
 10
-52.41556
 20
-84.299557
 11
-52.663495
 21
-84.266068
  0
LINE
  8
ボルト／ビス
  6
CONTINUOUS
 62
    64
 10
-52.75846
 20
-84.034605
 11
-52.663495
 21
-84.266068
  0
LINE
  8
ボルト／ビス
  6
CONTINUOUS
 62
    64
 10
-52.26259
 20
-84.101585
 11
-52.41556
 21
-84.299557
  0
LINE
  8
ボルト／ビス
  6
CONTINUOUS
 62
    64
 10
-52.60549
 20
-83.836632
 11
-52.75846
 21
-84.034605
  0
CIRCLE
  8
ボルト／ビス
  6
CONTINUOUS
 62
    64
 10
-52.510525
 20
-84.068095
 40
0.216668
  0
CIRCLE
  8
ボルト／ビス
  6
CONTINUOUS
 10
-63.92115
 20
-75.251405
 40
0.250185
  0
CIRCLE
  8
ボルト／ビス
  6
CONTINUOUS
 10
-63.92115
 20
-75.251405
 40
0.301025
  0
LINE
  8
ボルト／ビス
  6
CONTINUOUS
 62
    64
 10
-63.673215
 20
-75.284893
 11
-63.76818
 21
-75.053432
  0
LINE
  8
ボルト／ビス
  6
CONTINUOUS
 62
    64
 10
-64.016115
 20
-75.019942
 11
-63.76818
 21
-75.053432
  0
LINE
  8
ボルト／ビス
  6
CONTINUOUS
 62
    64
 10
-63.826182
 20
-75.482865
 11
-64.074118
 21
-75.449375
  0
LINE
  8
ボルト／ビス
  6
CONTINUOUS
 62
    64
 10
-64.169085
 20
-75.217915
 11
-64.074118
 21
-75.449375
  0
LINE
  8
ボルト／ビス
  6
CONTINUOUS
 62
    64
 10
-63.673215
 20
-75.284893
 11
-63.826182
 21
-75.482865
  0
LINE
  8
ボルト／ビス
  6
CONTINUOUS
 62
    64
 10
-64.016115
 20
-75.019942
 11
-64.169085
 21
-75.217915
  0
CIRCLE
  8
ボルト／ビス
  6
CONTINUOUS
 62
    64
 10
-63.92115
 20
-75.251405
 40
0.216668
  0
CIRCLE
  8
ボルト／ビス
  6
CONTINUOUS
 10
-75.331772
 20
-66.434713
 40
0.250185
  0
CIRCLE
  8
ボルト／ビス
  6
CONTINUOUS
 10
-75.331772
 20
-66.434713
 40
0.301025
  0
LINE
  8
ボルト／ビス
  6
CONTINUOUS
 62
    64
 10
-75.42674
 20
-66.20325
 11
-75.178808
 21
-66.23674
  0
LINE
  8
ボルト／ビス
  6
CONTINUOUS
 62
    64
 10
-75.083842
 20
-66.468203
 11
-75.178808
 21
-66.23674
  0
LINE
  8
ボルト／ビス
  6
CONTINUOUS
 62
    64
 10
-75.579708
 20
-66.401223
 11
-75.484742
 21
-66.632685
  0
LINE
  8
ボルト／ビス
  6
CONTINUOUS
 62
    64
 10
-75.236808
 20
-66.666175
 11
-75.484742
 21
-66.632685
  0
LINE
  8
ボルト／ビス
  6
CONTINUOUS
 62
    64
 10
-75.42674
 20
-66.20325
 11
-75.579708
 21
-66.401223
  0
LINE
  8
ボルト／ビス
  6
CONTINUOUS
 62
    64
 10
-75.083842
 20
-66.468203
 11
-75.236808
 21
-66.666175
  0
CIRCLE
  8
ボルト／ビス
  6
CONTINUOUS
 62
    64
 10
-75.331772
 20
-66.434713
 40
0.216668
  0
ENDBLK
  0
BLOCK
  2
*GRP_0017
 70
    65
 10
0.0
 20
0.0
  0
LINE
  8
補助線
  6
BYBLOCK
 62
    64
 10
17.935618
 20
-84.017143
 11
18.067503
 21
-84.119048
  0
LINE
  8
補助線
  6
BYBLOCK
 62
    64
 10
18.052513
 20
-84.002153
 11
17.950607
 21
-84.134037
  0
LINE
  8
補助線
  6
BYBLOCK
 62
    64
 10
6.524993
 20
-75.200453
 11
6.656877
 21
-75.302355
  0
LINE
  8
補助線
  6
BYBLOCK
 62
    64
 10
6.641887
 20
-75.18546
 11
6.539985
 21
-75.317345
  0
LINE
  8
補助線
  6
BYBLOCK
 62
    64
 10
-4.75375
 20
-66.485665
 11
-4.88563
 21
-66.38376
  0
LINE
  8
補助線
  6
BYBLOCK
 62
    64
 10
-4.768738
 20
-66.368768
 11
-4.87064
 21
-66.500655
  0
LINE
  8
型材断面
  6
CONTINUOUS
 10
18.774845
 20
-83.61248
 11
18.864788
 21
-84.313845
  0
LINE
  8
型材断面
  6
CONTINUOUS
 10
18.864788
 20
-84.313845
 11
18.457172
 21
-84.841382
  0
LINE
  8
型材断面
  6
CONTINUOUS
 10
18.457172
 20
-84.841382
 11
17.75581
 21
-84.931322
  0
LINE
  8
型材断面
  6
CONTINUOUS
 10
-4.57394
 20
-65.571485
 11
-5.275302
 21
-65.661427
  0
LINE
  8
型材断面
  6
CONTINUOUS
 10
-5.275302
 20
-65.661427
 11
-5.682917
 21
-66.188965
  0
LINE
  8
型材断面
  6
CONTINUOUS
 10
-5.682917
 20
-66.188965
 11
-5.592975
 21
-66.89033
  0
LINE
  8
型材断面
  6
CONTINUOUS
 10
17.75581
 20
-84.931322
 11
-5.592975
 21
-66.89033
  0
LINE
  8
型材断面
  6
CONTINUOUS
 10
18.774845
 20
-83.61248
 11
-4.57394
 21
-65.571485
  0
CIRCLE
  8
ボルト／ビス
  6
CONTINUOUS
 10
18.00156
 20
-84.068095
 40
0.250185
  0
CIRCLE
  8
ボルト／ビス
  6
CONTINUOUS
 10
18.00156
 20
-84.068095
 40
0.301025
  0
LINE
  8
ボルト／ビス
  6
CONTINUOUS
 62
    64
 10
18.249495
 20
-84.101585
 11
18.15453
 21
-83.870122
  0
LINE
  8
ボルト／ビス
  6
CONTINUOUS
 62
    64
 10
17.906595
 20
-83.836632
 11
18.15453
 21
-83.870122
  0
LINE
  8
ボルト／ビス
  6
CONTINUOUS
 62
    64
 10
18.096525
 20
-84.299557
 11
17.84859
 21
-84.266068
  0
LINE
  8
ボルト／ビス
  6
CONTINUOUS
 62
    64
 10
17.753625
 20
-84.034605
 11
17.84859
 21
-84.266068
  0
LINE
  8
ボルト／ビス
  6
CONTINUOUS
 62
    64
 10
18.249495
 20
-84.101585
 11
18.096525
 21
-84.299557
  0
LINE
  8
ボルト／ビス
  6
CONTINUOUS
 62
    64
 10
17.906595
 20
-83.836632
 11
17.753625
 21
-84.034605
  0
CIRCLE
  8
ボルト／ビス
  6
CONTINUOUS
 62
    64
 10
18.00156
 20
-84.068095
 40
0.216668
  0
CIRCLE
  8
ボルト／ビス
  6
CONTINUOUS
 10
6.590935
 20
-75.251405
 40
0.250185
  0
CIRCLE
  8
ボルト／ビス
  6
CONTINUOUS
 10
6.590935
 20
-75.251405
 40
0.301025
  0
LINE
  8
ボルト／ビス
  6
CONTINUOUS
 62
    64
 10
6.83887
 20
-75.284893
 11
6.743905
 21
-75.053432
  0
LINE
  8
ボルト／ビス
  6
CONTINUOUS
 62
    64
 10
6.49597
 20
-75.019942
 11
6.743905
 21
-75.053432
  0
LINE
  8
ボルト／ビス
  6
CONTINUOUS
 62
    64
 10
6.685902
 20
-75.482865
 11
6.437968
 21
-75.449375
  0
LINE
  8
ボルト／ビス
  6
CONTINUOUS
 62
    64
 10
6.343
 20
-75.217915
 11
6.437968
 21
-75.449375
  0
LINE
  8
ボルト／ビス
  6
CONTINUOUS
 62
    64
 10
6.83887
 20
-75.284893
 11
6.685902
 21
-75.482865
  0
LINE
  8
ボルト／ビス
  6
CONTINUOUS
 62
    64
 10
6.49597
 20
-75.019942
 11
6.343
 21
-75.217915
  0
CIRCLE
  8
ボルト／ビス
  6
CONTINUOUS
 62
    64
 10
6.590935
 20
-75.251405
 40
0.216668
  0
CIRCLE
  8
ボルト／ビス
  6
CONTINUOUS
 10
-4.819687
 20
-66.434713
 40
0.250185
  0
CIRCLE
  8
ボルト／ビス
  6
CONTINUOUS
 10
-4.819687
 20
-66.434713
 40
0.301025
  0
LINE
  8
ボルト／ビス
  6
CONTINUOUS
 62
    64
 10
-4.914655
 20
-66.20325
 11
-4.666723
 21
-66.23674
  0
LINE
  8
ボルト／ビス
  6
CONTINUOUS
 62
    64
 10
-4.571757
 20
-66.468203
 11
-4.666723
 21
-66.23674
  0
LINE
  8
ボルト／ビス
  6
CONTINUOUS
 62
    64
 10
-5.067623
 20
-66.401223
 11
-4.972657
 21
-66.632685
  0
LINE
  8
ボルト／ビス
  6
CONTINUOUS
 62
    64
 10
-4.724723
 20
-66.666175
 11
-4.972657
 21
-66.632685
  0
LINE
  8
ボルト／ビス
  6
CONTINUOUS
 62
    64
 10
-4.914655
 20
-66.20325
 11
-5.067623
 21
-66.401223
  0
LINE
  8
ボルト／ビス
  6
CONTINUOUS
 62
    64
 10
-4.571757
 20
-66.468203
 11
-4.724723
 21
-66.666175
  0
CIRCLE
  8
ボルト／ビス
  6
CONTINUOUS
 62
    64
 10
-4.819687
 20
-66.434713
 40
0.216668
  0
ENDBLK
  0
BLOCK
  2
*GRP_0018
 70
    65
 10
0.0
 20
0.0
  0
LINE
  8
補助線
  6
BYBLOCK
 62
    64
 10
-4.753748
 20
-84.017143
 11
-4.885632
 21
-84.119048
  0
LINE
  8
補助線
  6
BYBLOCK
 62
    64
 10
-4.870643
 20
-84.002153
 11
-4.768738
 21
-84.134037
  0
LINE
  8
補助線
  6
BYBLOCK
 62
    64
 10
6.656877
 20
-75.200453
 11
6.524993
 21
-75.302355
  0
LINE
  8
補助線
  6
BYBLOCK
 62
    64
 10
6.539983
 20
-75.18546
 11
6.641885
 21
-75.317345
  0
LINE
  8
補助線
  6
BYBLOCK
 62
    64
 10
17.93562
 20
-66.485665
 11
18.0675
 21
-66.38376
  0
LINE
  8
補助線
  6
BYBLOCK
 62
    64
 10
17.950607
 20
-66.368768
 11
18.05251
 21
-66.500655
  0
LINE
  8
型材断面
  6
CONTINUOUS
 10
-5.592975
 20
-83.61248
 11
-5.682917
 21
-84.313845
  0
LINE
  8
型材断面
  6
CONTINUOUS
 10
-5.682917
 20
-84.313845
 11
-5.275302
 21
-84.841382
  0
LINE
  8
型材断面
  6
CONTINUOUS
 10
-5.275302
 20
-84.841382
 11
-4.57394
 21
-84.931322
  0
LINE
  8
型材断面
  6
CONTINUOUS
 10
17.75581
 20
-65.571485
 11
18.457172
 21
-65.661427
  0
LINE
  8
型材断面
  6
CONTINUOUS
 10
18.457172
 20
-65.661427
 11
18.864788
 21
-66.188965
  0
LINE
  8
型材断面
  6
CONTINUOUS
 10
18.864788
 20
-66.188965
 11
18.774845
 21
-66.89033
  0
LINE
  8
型材断面
  6
CONTINUOUS
 10
-4.57394
 20
-84.931322
 11
18.774845
 21
-66.89033
  0
LINE
  8
型材断面
  6
CONTINUOUS
 10
-5.592975
 20
-83.61248
 11
17.75581
 21
-65.571485
  0
CIRCLE
  8
ボルト／ビス
  6
CONTINUOUS
 10
-4.81969
 20
-84.068095
 40
0.250185
  0
CIRCLE
  8
ボルト／ビス
  6
CONTINUOUS
 10
-4.81969
 20
-84.068095
 40
0.301025
  0
LINE
  8
ボルト／ビス
  6
CONTINUOUS
 62
    64
 10
-5.067625
 20
-84.101585
 11
-4.97266
 21
-83.870122
  0
LINE
  8
ボルト／ビス
  6
CONTINUOUS
 62
    64
 10
-4.724725
 20
-83.836632
 11
-4.97266
 21
-83.870122
  0
LINE
  8
ボルト／ビス
  6
CONTINUOUS
 62
    64
 10
-4.914655
 20
-84.299557
 11
-4.66672
 21
-84.266068
  0
LINE
  8
ボルト／ビス
  6
CONTINUOUS
 62
    64
 10
-4.571755
 20
-84.034605
 11
-4.66672
 21
-84.266068
  0
LINE
  8
ボルト／ビス
  6
CONTINUOUS
 62
    64
 10
-5.067625
 20
-84.101585
 11
-4.914655
 21
-84.299557
  0
LINE
  8
ボルト／ビス
  6
CONTINUOUS
 62
    64
 10
-4.724725
 20
-83.836632
 11
-4.571755
 21
-84.034605
  0
CIRCLE
  8
ボルト／ビス
  6
CONTINUOUS
 62
    64
 10
-4.81969
 20
-84.068095
 40
0.216668
  0
CIRCLE
  8
ボルト／ビス
  6
CONTINUOUS
 10
6.590935
 20
-75.251405
 40
0.250185
  0
CIRCLE
  8
ボルト／ビス
  6
CONTINUOUS
 10
6.590935
 20
-75.251405
 40
0.301025
  0
LINE
  8
ボルト／ビス
  6
CONTINUOUS
 62
    64
 10
6.343
 20
-75.284893
 11
6.437965
 21
-75.053432
  0
LINE
  8
ボルト／ビス
  6
CONTINUOUS
 62
    64
 10
6.6859
 20
-75.019942
 11
6.437965
 21
-75.053432
  0
LINE
  8
ボルト／ビス
  6
CONTINUOUS
 62
    64
 10
6.495968
 20
-75.482865
 11
6.743902
 21
-75.449375
  0
LINE
  8
ボルト／ビス
  6
CONTINUOUS
 62
    64
 10
6.83887
 20
-75.217915
 11
6.743902
 21
-75.449375
  0
LINE
  8
ボルト／ビス
  6
CONTINUOUS
 62
    64
 10
6.343
 20
-75.284893
 11
6.495968
 21
-75.482865
  0
LINE
  8
ボルト／ビス
  6
CONTINUOUS
 62
    64
 10
6.6859
 20
-75.019942
 11
6.83887
 21
-75.217915
  0
CIRCLE
  8
ボルト／ビス
  6
CONTINUOUS
 62
    64
 10
6.590935
 20
-75.251405
 40
0.216668
  0
CIRCLE
  8
ボルト／ビス
  6
CONTINUOUS
 10
18.001557
 20
-66.434713
 40
0.250185
  0
CIRCLE
  8
ボルト／ビス
  6
CONTINUOUS
 10
18.001557
 20
-66.434713
 40
0.301025
  0
LINE
  8
ボルト／ビス
  6
CONTINUOUS
 62
    64
 10
18.096525
 20
-66.20325
 11
17.848593
 21
-66.23674
  0
LINE
  8
ボルト／ビス
  6
CONTINUOUS
 62
    64
 10
17.753628
 20
-66.468203
 11
17.848593
 21
-66.23674
  0
LINE
  8
ボルト／ビス
  6
CONTINUOUS
 62
    64
 10
18.249493
 20
-66.401223
 11
18.154528
 21
-66.632685
  0
LINE
  8
ボルト／ビス
  6
CONTINUOUS
 62
    64
 10
17.906593
 20
-66.666175
 11
18.154528
 21
-66.632685
  0
LINE
  8
ボルト／ビス
  6
CONTINUOUS
 62
    64
 10
18.096525
 20
-66.20325
 11
18.249493
 21
-66.401223
  0
LINE
  8
ボルト／ビス
  6
CONTINUOUS
 62
    64
 10
17.753628
 20
-66.468203
 11
17.906593
 21
-66.666175
  0
CIRCLE
  8
ボルト／ビス
  6
CONTINUOUS
 62
    64
 10
18.001557
 20
-66.434713
 40
0.216668
  0
ENDBLK
  0
BLOCK
  2
*DIM_0019
 70
    65
 10
0.0
 20
0.0
  0
LINE
  8
寸法
  6
CONTINUOUS
 10
116.421445
 20
-41.164
 11
83.888112
 21
-41.164
  0
POINT
  8
寸法
 10
116.421445
 20
-41.164
  0
POINT
  8
寸法
 10
83.888112
 20
-41.164
  0
TEXT
  7
TextStyle03
  8
寸法
  6
CONTINUOUS
 10
97.7125
 20
-40.8
  1
976
 40
3.0
 72
     5
 11
102.5875
 21
-40.8
  0
ENDBLK
  0
BLOCK
  2
*DIM_0020
 70
    65
 10
0.0
 20
0.0
  0
LINE
  8
寸法
  6
BYBLOCK
 62
     0
 10
40.511713
 20
-63.49138
 11
40.511713
 21
-78.49138
  0
POINT
  8
寸法
 62
     0
 10
40.511713
 20
-63.49138
  0
POINT
  8
寸法
 62
     0
 10
40.511713
 20
-78.49138
  0
TEXT
  7
TextStyle03
  8
寸法
  6
CONTINUOUS
 62
     0
 10
39.6
 20
-61.69375
  1
上昇388以上
 40
3.0
 50
90.0
 72
     5
 11
39.6
 21
-43.50625
  0
ENDBLK
  0
BLOCK
  2
*DIM_0021
 70
    65
 10
0.0
 20
0.0
  0
LINE
  8
寸法
  6
BYBLOCK
 62
     0
 10
110.251605
 20
65.733497
 11
95.251605
 21
65.733497
  0
POINT
  8
寸法
 62
     0
 10
110.251605
 20
65.733497
  0
POINT
  8
寸法
 62
     0
 10
95.251605
 20
65.733497
  0
TEXT
  7
TextStyle03
  8
寸法
  6
CONTINUOUS
 62
     0
 10
73.80625
 20
64.45
  1
上昇388以上
 40
3.0
 72
     5
 11
91.99375
 21
64.45
  0
ENDBLK
  0
BLOCK
  2
*DIM_0022
 70
    65
 10
0.0
 20
0.0
  0
LINE
  8
寸法
  6
CONTINUOUS
 10
121.421445
 20
-49.867045
 11
127.305715
 21
-49.867045
  0
LINE
  8
寸法
  6
CONTINUOUS
 10
121.421445
 20
-93.20038
 11
127.305715
 21
-93.20038
  0
LINE
  8
寸法
  6
CONTINUOUS
 10
127.305715
 20
-49.867045
 11
127.305715
 21
-93.20038
  0
POINT
  8
寸法
 10
127.305715
 20
-49.867045
  0
POINT
  8
寸法
 10
127.305715
 20
-93.20038
  0
TEXT
  7
TextStyle03
  8
寸法
  6
CONTINUOUS
 10
126.925
 20
-74.83125
  1
1300
 40
3.0
 50
90.0
 72
     5
 11
126.925
 21
-68.26875
  0
ENDBLK
  0
BLOCK
  2
*DIM_0023
 70
    65
 10
0.0
 20
0.0
  0
LINE
  8
寸法
  6
CONTINUOUS
 10
110.251605
 20
61.73238
 11
110.251605
 21
65.733497
  0
LINE
  8
寸法
  6
CONTINUOUS
 10
118.368158
 20
61.73238
 11
118.368158
 21
65.733497
  0
LINE
  8
寸法
  6
CONTINUOUS
 10
110.251605
 20
65.733497
 11
118.368158
 21
65.733497
  0
POINT
  8
寸法
 10
110.251605
 20
65.733497
  0
POINT
  8
寸法
 10
118.368158
 20
65.733497
  0
TEXT
  7
TextStyle03
  8
寸法
  6
CONTINUOUS
 10
110.2
 20
66.075
  1
243.5
 40
3.0
 72
     5
 11
118.45
 21
66.075
  0
ENDBLK
  0
BLOCK
  2
*DIM_0024
 70
    65
 10
0.0
 20
0.0
  0
LINE
  8
寸法
  6
CONTINUOUS
 10
28.010403
 20
-78.49138
 11
40.511713
 21
-78.49138
  0
LINE
  8
寸法
  6
CONTINUOUS
 10
29.098228
 20
-86.607932
 11
40.511713
 21
-86.607932
  0
LINE
  8
寸法
  6
CONTINUOUS
 10
40.511713
 20
-78.49138
 11
40.511713
 21
-86.607932
  0
POINT
  8
寸法
 10
40.511713
 20
-78.49138
  0
POINT
  8
寸法
 10
40.511713
 20
-86.607932
  0
TEXT
  7
TextStyle03
  8
寸法
  6
CONTINUOUS
 10
43.55
 20
-86.675
  1
243.5
 40
3.0
 50
90.0
 72
     5
 11
43.55
 21
-78.425
  0
ENDBLK
  0
ENDSEC
  0
SECTION
  2
ENTITIES
  0
POLYLINE
  8
通り芯
  6
CONTINUOUS
 66
     1
 70
     1
  0
VERTEX
  8
通り芯
 10
-210.0
 20
-148.5
  0
VERTEX
  8
通り芯
 10
210.0
 20
-148.5
  0
VERTEX
  8
通り芯
 10
210.0
 20
148.5
  0
VERTEX
  8
通り芯
 10
-210.0
 20
148.5
  0
SEQEND
  0
INSERT
  2
*GRP_0001
  8
型材断面
  6
CONTINUOUS
 10
0.0
 20
0.0
  0
LINE
  8
型材断面
  6
DASHDOT
 10
21.33489
 20
-87.251428
 11
21.33489
 21
56.73238
  0
LINE
  8
型材断面
  6
DASHDOT
 10
-28.66511
 20
-87.251428
 11
-28.66511
 21
56.73238
  0
LINE
  8
型材断面
  6
DASHDOT
 10
-78.66511
 20
-87.251428
 11
-78.66511
 21
56.73238
  0
LINE
  8
型材断面
  6
DASHDOT
 10
119.011652
 20
13.399048
 11
-78.66511
 21
13.399048
  0
LINE
  8
型材断面
  6
DASHDOT
 10
119.011652
 20
35.065715
 11
-78.66511
 21
35.065715
  0
LINE
  8
型材断面
  6
DASHDOT
 10
119.011652
 20
56.73238
 11
-78.66511
 21
56.73238
  0
POLYLINE
  8
型材断面
  6
CONTINUOUS
 66
     1
 70
     1
  0
VERTEX
  8
型材断面
 10
-18.713223
 20
66.508305
  0
VERTEX
  8
型材断面
 10
-37.485153
 20
66.508305
  0
VERTEX
  8
型材断面
 10
-37.485153
 20
71.245147
  0
VERTEX
  8
型材断面
 10
-18.713223
 20
71.245147
  0
SEQEND
  0
POLYLINE
  8
型材断面
  6
CONTINUOUS
 66
     1
 70
     1
  0
VERTEX
  8
型材断面
 10
-18.713223
 20
3.623125
  0
VERTEX
  8
型材断面
 10
-37.485153
 20
3.623125
  0
VERTEX
  8
型材断面
 10
-37.485153
 20
-1.113717
  0
VERTEX
  8
型材断面
 10
-18.713223
 20
-1.113717
  0
SEQEND
  0
LINE
  8
型材断面
  6
CONTINUOUS
 10
-119.517317
 20
94.709852
 11
-118.921263
 21
92.119345
  0
LINE
  8
型材断面
  6
CONTINUOUS
 10
-119.517317
 20
94.709852
 11
-120.113375
 21
92.119345
  0
LINE
  8
型材断面
  6
CONTINUOUS
 10
-120.113375
 20
92.119345
 11
-118.921263
 21
92.119345
  0
LINE
  8
型材断面
  6
CONTINUOUS
 10
-125.539905
 20
88.840452
 11
-79.298128
 21
88.840452
  0
LINE
  8
型材断面
  6
CONTINUOUS
 10
-119.517317
 20
101.239727
 11
-121.012947
 21
98.64922
  0
LINE
  8
型材断面
  6
CONTINUOUS
 10
-119.517317
 20
101.239727
 11
-118.021688
 21
98.64922
  0
LINE
  8
型材断面
  6
CONTINUOUS
 10
-118.021688
 20
98.64922
 11
-121.012947
 21
98.64922
  0
LINE
  8
型材断面
  6
CONTINUOUS
 10
-125.539905
 20
97.710625
 11
-79.298128
 21
97.710625
  0
LINE
  8
型材断面
  6
CONTINUOUS
 10
-125.539905
 20
83.05242
 11
-79.298128
 21
83.05242
  0
LINE
  8
型材断面
  6
CONTINUOUS
 10
-61.998442
 20
10.76892
 11
-63.494073
 21
8.178413
  0
LINE
  8
型材断面
  6
CONTINUOUS
 10
-61.998442
 20
10.76892
 11
-60.502812
 21
8.178413
  0
LINE
  8
型材断面
  6
CONTINUOUS
 10
-60.502812
 20
8.178413
 11
-63.494073
 21
8.178413
  0
LINE
  8
型材断面
  6
CONTINUOUS
 10
4.668223
 20
10.76892
 11
6.163853
 21
8.178413
  0
LINE
  8
型材断面
  6
CONTINUOUS
 10
4.668223
 20
10.76892
 11
3.172593
 21
8.178413
  0
LINE
  8
型材断面
  6
CONTINUOUS
 10
3.172593
 20
8.178413
 11
6.163853
 21
8.178413
  0
LINE
  8
型材断面
  6
CONTINUOUS
 10
-125.539905
 20
77.264387
 11
-79.298128
 21
77.264387
  0
INSERT
  2
*GRP_0015
  8
型材断面
  6
CONTINUOUS
 10
0.0
 20
0.0
  0
INSERT
  2
*GRP_0016
  8
型材断面
  6
CONTINUOUS
 10
0.0
 20
0.0
  0
INSERT
  2
*GRP_0017
  8
型材断面
  6
CONTINUOUS
 10
0.0
 20
0.0
  0
INSERT
  2
*GRP_0018
  8
型材断面
  6
CONTINUOUS
 10
0.0
 20
0.0
  0
LINE
  8
型材断面
  6
CONTINUOUS
 10
-81.428445
 20
59.495565
 11
24.098225
 21
59.495565
  0
LINE
  8
型材断面
  6
CONTINUOUS
 10
-81.428445
 20
10.63586
 11
24.098225
 21
10.63586
  0
LINE
  8
型材断面
  6
CONTINUOUS
 10
-81.428445
 20
35.065712
 11
-84.018952
 21
36.561342
  0
LINE
  8
型材断面
  6
CONTINUOUS
 10
-81.428445
 20
35.065712
 11
-84.018952
 21
33.570082
  0
LINE
  8
型材断面
  6
CONTINUOUS
 10
-84.018952
 20
33.570082
 11
-84.018952
 21
36.561342
  0
LINE
  8
型材断面
  6
CONTINUOUS
 10
-81.428445
 20
53.03238
 11
-84.018955
 21
52.436327
  0
LINE
  8
型材断面
  6
CONTINUOUS
 10
-81.428445
 20
53.03238
 11
-84.018952
 21
53.62844
  0
LINE
  8
型材断面
  6
CONTINUOUS
 10
-84.018952
 20
53.62844
 11
-84.018955
 21
52.436327
  0
LINE
  8
型材断面
  6
CONTINUOUS
 10
-81.428445
 20
17.099045
 11
-84.018955
 21
17.695097
  0
LINE
  8
型材断面
  6
CONTINUOUS
 10
-81.428445
 20
17.099045
 11
-84.018952
 21
16.502985
  0
LINE
  8
型材断面
  6
CONTINUOUS
 10
-84.018952
 20
16.502985
 11
-84.018955
 21
17.695097
  0
LINE
  8
型材断面
  6
CONTINUOUS
 10
-61.998442
 20
59.495565
 11
-63.494073
 21
62.086073
  0
LINE
  8
型材断面
  6
CONTINUOUS
 10
-61.998442
 20
59.495565
 11
-60.502812
 21
62.086073
  0
LINE
  8
型材断面
  6
CONTINUOUS
 10
-60.502812
 20
62.086073
 11
-63.494073
 21
62.086073
  0
LINE
  8
型材断面
  6
CONTINUOUS
 10
4.668223
 20
59.495565
 11
6.163853
 21
62.086073
  0
LINE
  8
型材断面
  6
CONTINUOUS
 10
4.668223
 20
59.495565
 11
3.172593
 21
62.086073
  0
LINE
  8
型材断面
  6
CONTINUOUS
 10
3.172593
 20
62.086073
 11
6.163853
 21
62.086073
  0
LINE
  8
型材断面
  6
CONTINUOUS
 10
24.098225
 20
35.065715
 11
26.688732
 21
36.561345
  0
LINE
  8
型材断面
  6
CONTINUOUS
 10
24.098225
 20
35.065715
 11
26.688732
 21
33.570085
  0
LINE
  8
型材断面
  6
CONTINUOUS
 10
26.688732
 20
33.570085
 11
26.688732
 21
36.561345
  0
LINE
  8
型材断面
  6
CONTINUOUS
 10
24.098225
 20
53.032382
 11
26.688735
 21
52.43633
  0
LINE
  8
型材断面
  6
CONTINUOUS
 10
24.098225
 20
53.032382
 11
26.688732
 21
53.628442
  0
LINE
  8
型材断面
  6
CONTINUOUS
 10
26.688732
 20
53.628442
 11
26.688735
 21
52.43633
  0
LINE
  8
型材断面
  6
CONTINUOUS
 10
24.098225
 20
17.099048
 11
26.688735
 21
17.6951
  0
LINE
  8
型材断面
  6
CONTINUOUS
 10
24.098225
 20
17.099048
 11
26.688732
 21
16.502988
  0
LINE
  8
型材断面
  6
CONTINUOUS
 10
26.688732
 20
16.502988
 11
26.688735
 21
17.6951
  0
LINE
  8
型材断面
  6
DASHDOT
 10
-45.52511
 20
13.399048
 11
-45.52511
 21
56.73238
  0
LINE
  8
型材断面
  6
DASHDOT
 10
-11.80511
 20
13.399048
 11
-11.80511
 21
56.73238
  0
LINE
  8
型材断面
  6
CONTINUOUS
 10
-10.55511
 20
14.899048
 11
-13.05511
 21
14.89905
  0
LINE
  8
型材断面
  6
CONTINUOUS
 10
-10.55511
 20
55.232382
 11
-13.05511
 21
55.23238
  0
LINE
  8
型材断面
  6
CONTINUOUS
 10
-10.55511
 20
14.899048
 11
-10.55511
 21
55.232382
  0
LINE
  8
型材断面
  6
CONTINUOUS
 10
-13.05511
 20
14.89905
 11
-13.05511
 21
55.23238
  0
LINE
  8
型材断面
  6
CONTINUOUS
 10
-46.77511
 20
14.899048
 11
-44.27511
 21
14.89905
  0
LINE
  8
型材断面
  6
CONTINUOUS
 10
-46.77511
 20
55.232382
 11
-44.27511
 21
55.23238
  0
LINE
  8
型材断面
  6
CONTINUOUS
 10
-46.77511
 20
14.899048
 11
-46.77511
 21
55.232382
  0
LINE
  8
型材断面
  6
CONTINUOUS
 10
-44.27511
 20
14.89905
 11
-44.27511
 21
55.23238
  0
LINE
  8
型材断面
  6
CONTINUOUS
 10
5.181558
 20
14.065705
 11
5.181558
 21
11.565707
  0
LINE
  8
型材断面
  6
CONTINUOUS
 10
4.348222
 20
14.065705
 11
4.348222
 21
11.565707
  0
LINE
  8
型材断面
  6
CONTINUOUS
 10
-28.248442
 20
14.065705
 11
-28.248442
 21
11.565707
  0
LINE
  8
型材断面
  6
CONTINUOUS
 10
-29.081778
 20
14.065705
 11
-29.081778
 21
11.565707
  0
LINE
  8
型材断面
  6
CONTINUOUS
 10
5.181558
 20
56.065725
 11
5.181558
 21
58.565723
  0
LINE
  8
型材断面
  6
CONTINUOUS
 10
4.348222
 20
56.065725
 11
4.348222
 21
58.565723
  0
LINE
  8
型材断面
  6
CONTINUOUS
 10
-28.248442
 20
56.065725
 11
-28.248442
 21
58.565723
  0
LINE
  8
型材断面
  6
CONTINUOUS
 10
-29.081778
 20
56.065725
 11
-29.081778
 21
58.565723
  0
LINE
  8
型材断面
  6
CONTINUOUS
 10
4.348222
 20
14.065705
 11
-28.248442
 21
14.06573
  0
LINE
  8
型材断面
  6
CONTINUOUS
 10
4.348222
 20
56.065725
 11
-28.248442
 21
56.0657
  0
LINE
  8
型材断面
  6
CONTINUOUS
 10
24.098228
 20
10.63586
 11
24.098228
 21
59.495565
  0
LINE
  8
型材断面
  6
CONTINUOUS
 10
22.932547
 20
11.565692
 11
23.168247
 21
11.801392
  0
LINE
  8
型材断面
  6
CONTINUOUS
 10
20.432545
 20
14.065692
 11
20.668245
 21
14.301392
  0
LINE
  8
型材断面
  6
CONTINUOUS
 10
20.668245
 20
14.301392
 11
23.168247
 21
11.801392
  0
LINE
  8
型材断面
  6
CONTINUOUS
 10
23.168217
 20
35.065715
 11
23.168247
 21
11.801392
  0
LINE
  8
型材断面
  6
CONTINUOUS
 10
20.432545
 20
14.065692
 11
22.932547
 21
11.565692
  0
LINE
  8
型材断面
  6
CONTINUOUS
 10
24.09808
 20
10.63586
 11
23.050395
 21
11.68354
  0
LINE
  8
型材断面
  6
CONTINUOUS
 10
20.668217
 20
34.649048
 11
23.168217
 21
34.649048
  0
LINE
  8
型材断面
  6
CONTINUOUS
 10
20.668217
 20
35.482382
 11
23.168217
 21
35.482382
  0
LINE
  8
型材断面
  6
CONTINUOUS
 10
20.668217
 20
34.649048
 11
20.668245
 21
14.301392
  0
LINE
  8
型材断面
  6
CONTINUOUS
 10
22.932547
 20
58.565738
 11
23.168247
 21
58.330038
  0
LINE
  8
型材断面
  6
CONTINUOUS
 10
20.432545
 20
56.065738
 11
20.668245
 21
55.830038
  0
LINE
  8
型材断面
  6
CONTINUOUS
 10
20.432545
 20
56.065738
 11
22.932547
 21
58.565738
  0
LINE
  8
型材断面
  6
CONTINUOUS
 10
24.09808
 20
59.49557
 11
23.050395
 21
58.44789
  0
LINE
  8
型材断面
  6
CONTINUOUS
 10
20.668245
 20
55.830038
 11
23.168247
 21
58.330038
  0
LINE
  8
型材断面
  6
CONTINUOUS
 10
23.168217
 20
35.065715
 11
23.168247
 21
58.330038
  0
LINE
  8
型材断面
  6
CONTINUOUS
 10
20.668217
 20
35.482382
 11
20.668245
 21
55.830038
  0
LINE
  8
型材断面
  6
CONTINUOUS
 10
-28.66511
 20
58.565697
 11
22.932547
 21
58.565738
  0
LINE
  8
型材断面
  6
CONTINUOUS
 10
5.181558
 20
56.065725
 11
20.432545
 21
56.065738
  0
LINE
  8
型材断面
  6
CONTINUOUS
 10
5.181558
 20
14.065705
 11
20.432545
 21
14.065692
  0
LINE
  8
型材断面
  6
CONTINUOUS
 10
-28.66511
 20
11.565733
 11
22.932547
 21
11.565692
  0
LINE
  8
型材断面
  6
DASHDOT
 10
-45.52511
 20
13.399048
 11
-45.52511
 21
56.73238
  0
LINE
  8
型材断面
  6
CONTINUOUS
 10
-46.77511
 20
14.899048
 11
-44.27511
 21
14.89905
  0
LINE
  8
型材断面
  6
CONTINUOUS
 10
-46.77511
 20
55.232382
 11
-44.27511
 21
55.23238
  0
LINE
  8
型材断面
  6
CONTINUOUS
 10
-46.77511
 20
14.899048
 11
-46.77511
 21
55.232382
  0
LINE
  8
型材断面
  6
CONTINUOUS
 10
-44.27511
 20
14.89905
 11
-44.27511
 21
55.23238
  0
LINE
  8
型材断面
  6
CONTINUOUS
 10
-62.511777
 20
14.065705
 11
-62.511777
 21
11.565707
  0
LINE
  8
型材断面
  6
CONTINUOUS
 10
-61.678442
 20
14.065705
 11
-61.678442
 21
11.565707
  0
LINE
  8
型材断面
  6
CONTINUOUS
 10
-62.511777
 20
56.065725
 11
-62.511777
 21
58.565723
  0
LINE
  8
型材断面
  6
CONTINUOUS
 10
-61.678442
 20
56.065725
 11
-61.678442
 21
58.565723
  0
LINE
  8
型材断面
  6
CONTINUOUS
 10
-81.428448
 20
10.63586
 11
-81.428448
 21
59.495565
  0
LINE
  8
型材断面
  6
CONTINUOUS
 10
-80.262767
 20
11.565692
 11
-80.498467
 21
11.801392
  0
LINE
  8
型材断面
  6
CONTINUOUS
 10
-77.762765
 20
14.065692
 11
-77.998465
 21
14.301392
  0
LINE
  8
型材断面
  6
CONTINUOUS
 10
-77.998465
 20
14.301392
 11
-80.498467
 21
11.801392
  0
LINE
  8
型材断面
  6
CONTINUOUS
 10
-80.498437
 20
35.065715
 11
-80.498467
 21
11.801392
  0
LINE
  8
型材断面
  6
CONTINUOUS
 10
-77.762765
 20
14.065692
 11
-80.262767
 21
11.565692
  0
LINE
  8
型材断面
  6
CONTINUOUS
 10
-81.4283
 20
10.63586
 11
-80.380615
 21
11.68354
  0
LINE
  8
型材断面
  6
CONTINUOUS
 10
-77.998437
 20
34.649048
 11
-80.498437
 21
34.649048
  0
LINE
  8
型材断面
  6
CONTINUOUS
 10
-77.998437
 20
35.482382
 11
-80.498437
 21
35.482382
  0
LINE
  8
型材断面
  6
CONTINUOUS
 10
-77.998437
 20
34.649048
 11
-77.998465
 21
14.301392
  0
LINE
  8
型材断面
  6
CONTINUOUS
 10
-80.262767
 20
58.565738
 11
-80.498467
 21
58.330038
  0
LINE
  8
型材断面
  6
CONTINUOUS
 10
-77.762765
 20
56.065738
 11
-77.998465
 21
55.830038
  0
LINE
  8
型材断面
  6
CONTINUOUS
 10
-77.762765
 20
56.065738
 11
-80.262767
 21
58.565738
  0
LINE
  8
型材断面
  6
CONTINUOUS
 10
-81.4283
 20
59.49557
 11
-80.380615
 21
58.44789
  0
LINE
  8
型材断面
  6
CONTINUOUS
 10
-77.998465
 20
55.830038
 11
-80.498467
 21
58.330038
  0
LINE
  8
型材断面
  6
CONTINUOUS
 10
-80.498437
 20
35.065715
 11
-80.498467
 21
58.330038
  0
LINE
  8
型材断面
  6
CONTINUOUS
 10
-77.998437
 20
35.482382
 11
-77.998465
 21
55.830038
  0
LINE
  8
型材断面
  6
CONTINUOUS
 10
-62.511777
 20
56.065725
 11
-77.762765
 21
56.065738
  0
LINE
  8
型材断面
  6
CONTINUOUS
 10
-62.511777
 20
14.065705
 11
-77.762765
 21
14.065692
  0
LINE
  8
型材断面
  6
CONTINUOUS
 10
-29.081778
 20
14.06573
 11
-61.678442
 21
14.065705
  0
LINE
  8
型材断面
  6
CONTINUOUS
 10
-29.081778
 20
56.0657
 11
-61.678442
 21
56.065725
  0
LINE
  8
型材断面
  6
CONTINUOUS
 10
-28.66511
 20
58.565697
 11
-80.262767
 21
58.565738
  0
LINE
  8
型材断面
  6
CONTINUOUS
 10
-28.66511
 20
11.565733
 11
-80.262767
 21
11.565692
  0
LINE
  8
型材断面
  6
CONTINUOUS
 10
118.368158
 20
58.995567
 11
118.704823
 21
58.995567
  0
LINE
  8
型材断面
  6
CONTINUOUS
 10
114.271608
 20
59.2989
 11
114.468275
 21
59.495567
  0
LINE
  8
型材断面
  6
CONTINUOUS
 10
114.468275
 20
59.495567
 11
118.368158
 21
59.495567
  0
LINE
  8
型材断面
  6
CONTINUOUS
 62
    47
 10
114.271652
 20
59.298942
 11
114.271652
 21
35.065715
  0
LINE
  8
型材断面
  6
CONTINUOUS
 10
114.468275
 20
59.495567
 11
114.468275
 21
35.065715
  0
LINE
  8
型材断面
  6
CONTINUOUS
 10
118.368158
 20
59.495567
 11
118.368158
 21
35.065715
  0
LINE
  8
型材断面
  6
CONTINUOUS
 10
118.704823
 20
58.995567
 11
118.704823
 21
35.065715
  0
LINE
  8
型材断面
  6
CONTINUOUS
 10
118.368158
 20
11.135863
 11
118.704823
 21
11.135863
  0
LINE
  8
型材断面
  6
CONTINUOUS
 10
114.271608
 20
10.83253
 11
114.468275
 21
10.635863
  0
LINE
  8
型材断面
  6
CONTINUOUS
 10
114.468275
 20
10.635863
 11
118.368158
 21
10.635863
  0
LINE
  8
型材断面
  6
CONTINUOUS
 62
    47
 10
114.271652
 20
10.832488
 11
114.271652
 21
35.065715
  0
LINE
  8
型材断面
  6
CONTINUOUS
 10
114.468275
 20
10.635863
 11
114.468275
 21
35.065715
  0
LINE
  8
型材断面
  6
CONTINUOUS
 10
118.368158
 20
10.635863
 11
118.368158
 21
35.065715
  0
LINE
  8
型材断面
  6
CONTINUOUS
 10
118.704823
 20
11.135863
 11
118.704823
 21
35.065715
  0
LINE
  8
型材断面
  6
CONTINUOUS
 10
23.598228
 20
-86.607932
 11
23.598228
 21
-86.944597
  0
LINE
  8
型材断面
  6
CONTINUOUS
 10
23.90156
 20
-82.511383
 11
24.098228
 21
-82.70805
  0
LINE
  8
型材断面
  6
CONTINUOUS
 10
24.098228
 20
-82.70805
 11
24.098228
 21
-86.607932
  0
LINE
  8
型材断面
  6
CONTINUOUS
 10
23.598228
 20
-86.944597
 11
-28.66511
 21
-86.944597
  0
LINE
  8
型材断面
  6
CONTINUOUS
 10
24.098228
 20
-86.607932
 11
-28.66511
 21
-86.607932
  0
LINE
  8
型材断面
  6
CONTINUOUS
 62
    47
 10
23.901603
 20
-82.511427
 11
-28.66511
 21
-82.511427
  0
LINE
  8
型材断面
  6
CONTINUOUS
 10
24.098228
 20
-82.70805
 11
-28.66511
 21
-82.70805
  0
LINE
  8
型材断面
  6
CONTINUOUS
 10
-80.928448
 20
-86.607932
 11
-80.928448
 21
-86.944597
  0
LINE
  8
型材断面
  6
CONTINUOUS
 10
-81.23178
 20
-82.511383
 11
-81.428448
 21
-82.70805
  0
LINE
  8
型材断面
  6
CONTINUOUS
 10
-81.428448
 20
-82.70805
 11
-81.428448
 21
-86.607932
  0
LINE
  8
型材断面
  6
CONTINUOUS
 10
-80.928448
 20
-86.944597
 11
-28.66511
 21
-86.944597
  0
LINE
  8
型材断面
  6
CONTINUOUS
 10
-81.428448
 20
-86.607932
 11
-28.66511
 21
-86.607932
  0
LINE
  8
型材断面
  6
CONTINUOUS
 62
    47
 10
-81.231822
 20
-82.511427
 11
-28.66511
 21
-82.511427
  0
LINE
  8
型材断面
  6
CONTINUOUS
 10
-81.428448
 20
-82.70805
 11
-28.66511
 21
-82.70805
  0
TEXT
  7
TextStyle03
  8
文字
  6
CONTINUOUS
 10
-36.425
 20
67.2
  1
可動装置側
 40
3.0
 72
     5
 11
-19.925
 21
67.2
  0
TEXT
  7
TextStyle03
  8
文字
  6
CONTINUOUS
 10
-36.425
 20
-0.075
  1
可動装置側
 40
3.0
 72
     5
 11
-19.925
 21
-0.075
  0
TEXT
  7
TextStyle03
  8
文字
  6
CONTINUOUS
 10
-116.75
 20
93.325
  1
はケーシング位置を示す
 40
3.0
 72
     5
 11
-80.0
 21
93.325
  0
TEXT
  7
TextStyle03
  8
文字
  6
CONTINUOUS
 10
-116.75
 20
89.95
  1
４ヶ所中1ヶ所に設定
 40
3.0
 72
     5
 11
-85.0625
 21
89.95
  0
TEXT
  7
TextStyle03
  8
文字
  6
CONTINUOUS
 10
-116.75
 20
98.85
  1
は排水穴位置を示す
 40
3.0
 72
     5
 11
-86.75
 21
98.85
  0
TEXT
  7
TextStyle03
  8
文字
  6
CONTINUOUS
 10
-120.475
 20
83.975
  1
アンカー数量　１２ヶ所
 40
3.0
 72
     5
 11
-83.725
 21
83.975
  0
TEXT
  7
TextStyle03
  8
文字
  6
CONTINUOUS
 10
-116.25
 20
23.975
  1
アンカーピッチ
 40
3.0
 50
90.0
 72
     5
 11
-116.25
 21
47.225
  0
TEXT
  7
TextStyle03
  8
文字
  6
CONTINUOUS
 10
-68.7
 20
94.125
  1
アンカーピッチ
 40
3.0
 72
     5
 11
-45.45
 21
94.125
  0
TEXT
  7
TextStyle03
  8
文字
  6
CONTINUOUS
 10
-120.475
 20
78.2
  1
アームユニット数　４ヶ所
 40
3.0
 72
     5
 11
-80.35
 21
78.2
  0
LINE
  8
文字
  6
CONTINUOUS
 10
112.463918
 20
59.495565
 11
55.35454
 21
59.495565
  0
LINE
  8
文字
  6
CONTINUOUS
 10
112.463918
 20
10.63586
 11
55.35454
 21
10.63586
  0
LINE
  8
文字
  6
CONTINUOUS
 10
95.251605
 20
65.733497
 11
95.251605
 21
60.820725
  0
LINE
  8
文字
  6
CONTINUOUS
 10
-81.428445
 20
-80.158047
 11
-81.428445
 21
-22.024302
  0
LINE
  8
文字
  6
CONTINUOUS
 10
24.098225
 20
-80.158047
 11
24.098225
 21
-22.024302
  0
LINE
  8
文字
  6
CONTINUOUS
 10
40.511713
 20
-63.49138
 11
26.908033
 21
-63.49138
  0
LINE
  8
文字
  6
CONTINUOUS
 10
83.888112
 20
-41.164
 11
83.888112
 21
-48.768
  0
LINE
  8
文字
  6
CONTINUOUS
 10
116.421445
 20
-41.164
 11
116.421445
 21
-48.768
  0
TEXT
  7
TextStyle03
  8
文字
  6
CONTINUOUS
 10
97.9
 20
-86.75
  1
網入り6.8t
 40
3.0
 72
     5
 11
114.5875
 21
-86.75
  0
TEXT
  7
TextStyle03
  8
文字
  6
CONTINUOUS
 10
104.575
 20
-91.425
  1
×３枚
 40
3.0
 72
     5
 11
114.325
 21
-91.425
  0
TEXT
  7
TextStyle03
  8
文字
  6
CONTINUOUS
 10
59.25
 20
125.25
  1
シリーズ：ＴＦＦＬ
 40
5.0
 72
     5
 11
109.25
 21
125.25
  0
TEXT
  7
TextStyle03
  8
文字
  6
CONTINUOUS
 10
59.25
 20
119.625
  1
　　　　　（上下可動）1300×3000タイプ
 40
5.0
 72
     5
 11
165.5
 21
119.625
  0
TEXT
  7
TextStyle03
  8
文字
  6
CONTINUOUS
 10
59.25
 20
114.0
  1
図面名　：外観姿図
 40
5.0
 72
     5
 11
109.25
 21
114.0
  0
TEXT
  7
TextStyle03
  8
文字
  6
CONTINUOUS
 10
59.25
 20
108.375
  1
　　　　　　
 40
5.0
 72
     5
 11
92.375
 21
108.375
  0
TEXT
  7
TextStyle03
  8
文字
  6
CONTINUOUS
 10
59.4
 20
104.525
  1
ＮＳコード：ＮＳＦＬ
 40
5.0
 72
     5
 11
115.025
 21
104.525
  0
INSERT
  2
*DIM_0002
  8
寸法
  6
CONTINUOUS
 10
0.0
 20
0.0
  0
INSERT
  2
*DIM_0003
  8
寸法
  6
CONTINUOUS
 10
0.0
 20
0.0
  0
INSERT
  2
*DIM_0004
  8
寸法
  6
CONTINUOUS
 10
0.0
 20
0.0
  0
INSERT
  2
*DIM_0005
  8
寸法
  6
CONTINUOUS
 10
0.0
 20
0.0
  0
INSERT
  2
*DIM_0006
  8
寸法
  6
CONTINUOUS
 10
0.0
 20
0.0
  0
INSERT
  2
*DIM_0007
  8
寸法
  6
CONTINUOUS
 10
0.0
 20
0.0
  0
INSERT
  2
*DIM_0008
  8
寸法
  6
CONTINUOUS
 10
0.0
 20
0.0
  0
INSERT
  2
*DIM_0009
  8
寸法
  6
CONTINUOUS
 10
0.0
 20
0.0
  0
INSERT
  2
*DIM_0010
  8
寸法
  6
CONTINUOUS
 10
0.0
 20
0.0
  0
INSERT
  2
*DIM_0011
  8
寸法
  6
CONTINUOUS
 10
0.0
 20
0.0
  0
INSERT
  2
*DIM_0012
  8
寸法
  6
CONTINUOUS
 10
0.0
 20
0.0
  0
INSERT
  2
*DIM_0013
  8
寸法
  6
CONTINUOUS
 10
0.0
 20
0.0
  0
INSERT
  2
*DIM_0014
  8
寸法
  6
CONTINUOUS
 10
0.0
 20
0.0
  0
INSERT
  2
*DIM_0019
  8
寸法
  6
CONTINUOUS
 10
0.0
 20
0.0
  0
INSERT
  2
*DIM_0020
  8
寸法
  6
CONTINUOUS
 10
0.0
 20
0.0
  0
INSERT
  2
*DIM_0021
  8
寸法
  6
CONTINUOUS
 10
0.0
 20
0.0
  0
INSERT
  2
*DIM_0022
  8
寸法
  6
CONTINUOUS
 10
0.0
 20
0.0
  0
INSERT
  2
*DIM_0023
  8
寸法
  6
CONTINUOUS
 10
0.0
 20
0.0
  0
INSERT
  2
*DIM_0024
  8
寸法
  6
CONTINUOUS
 10
0.0
 20
0.0
  0
LINE
  8
別途部材
  6
CONTINUOUS
 62
    47
 10
110.351605
 20
58.565568
 11
110.418273
 21
58.565568
  0
ARC
  8
別途部材
  6
CONTINUOUS
 62
    47
 10
110.351605
 20
58.465567
 40
0.1
 50
90.0
 51
180.0
  0
LINE
  8
別途部材
  6
CONTINUOUS
 62
    47
 10
110.418273
 20
58.409045
 11
111.918273
 21
58.409045
  0
LINE
  8
別途部材
  6
CONTINUOUS
 62
    47
 10
110.351605
 20
11.565857
 11
110.418273
 21
11.565857
  0
ARC
  8
別途部材
  6
CONTINUOUS
 62
    47
 10
110.351605
 20
11.665857
 40
0.1
 50
180.0
 51
270.0
  0
LINE
  8
別途部材
  6
CONTINUOUS
 62
    47
 10
110.418273
 20
11.72238
 11
111.918273
 21
11.72238
  0
LINE
  8
別途部材
  6
CONTINUOUS
 62
    47
 10
110.418273
 20
11.565857
 11
110.418273
 21
35.198768
  0
LINE
  8
別途部材
  6
CONTINUOUS
 62
    47
 10
110.251605
 20
11.665857
 11
110.251605
 21
35.198768
  0
LINE
  8
別途部材
  6
CONTINUOUS
 62
    47
 10
111.918273
 20
11.72238
 11
111.918273
 21
35.198768
  0
LINE
  8
別途部材
  6
CONTINUOUS
 62
    47
 10
113.068275
 20
10.63586
 11
113.068275
 21
35.198768
  0
LINE
  8
別途部材
  6
CONTINUOUS
 62
    47
 10
114.23494
 20
10.63586
 11
114.23494
 21
35.198768
  0
LINE
  8
別途部材
  6
CONTINUOUS
 62
    47
 10
114.23494
 20
59.495565
 11
114.23494
 21
35.198768
  0
LINE
  8
別途部材
  6
CONTINUOUS
 62
    47
 10
113.068275
 20
59.495565
 11
113.068275
 21
35.198768
  0
LINE
  8
別途部材
  6
CONTINUOUS
 62
    47
 10
111.918273
 20
58.409045
 11
111.918273
 21
35.198768
  0
LINE
  8
別途部材
  6
CONTINUOUS
 62
    47
 10
110.418273
 20
58.565568
 11
110.418273
 21
35.198768
  0
LINE
  8
別途部材
  6
CONTINUOUS
 62
    47
 10
110.251605
 20
58.465567
 11
110.251605
 21
35.198768
  0
LINE
  8
別途部材
  6
DOT
 62
    47
 10
95.351605
 20
58.565568
 11
95.418273
 21
58.565568
  0
ARC
  8
別途部材
  6
DOT
 62
    47
 10
95.351604
 20
58.465567
 40
0.1
 50
90.0
 51
180.0
  0
LINE
  8
別途部材
  6
DOT
 62
    47
 10
95.418273
 20
58.409045
 11
96.918273
 21
58.409045
  0
LINE
  8
別途部材
  6
DOT
 62
    47
 10
95.351605
 20
11.565857
 11
95.418273
 21
11.565857
  0
ARC
  8
別途部材
  6
DOT
 62
    47
 10
95.351604
 20
11.665857
 40
0.1
 50
180.0
 51
270.0
  0
LINE
  8
別途部材
  6
DOT
 62
    47
 10
95.418273
 20
11.72238
 11
96.918273
 21
11.72238
  0
LINE
  8
別途部材
  6
DOT
 62
    47
 10
98.068275
 20
10.63586
 11
98.068275
 21
35.198768
  0
LINE
  8
別途部材
  6
DOT
 62
    47
 10
95.251605
 20
11.665857
 11
95.251605
 21
35.198768
  0
LINE
  8
別途部材
  6
DOT
 62
    47
 10
96.918273
 20
11.72238
 11
96.918273
 21
35.198768
  0
LINE
  8
別途部材
  6
DOT
 62
    47
 10
99.23494
 20
10.63586
 11
99.23494
 21
35.198768
  0
LINE
  8
別途部材
  6
DOT
 62
    47
 10
95.418273
 20
11.565857
 11
95.418273
 21
35.198768
  0
LINE
  8
別途部材
  6
DOT
 62
    47
 10
99.23494
 20
59.495565
 11
99.23494
 21
35.198768
  0
LINE
  8
別途部材
  6
DOT
 62
    47
 10
98.068275
 20
59.495565
 11
98.068275
 21
35.198768
  0
LINE
  8
別途部材
  6
DOT
 62
    47
 10
96.918273
 20
58.409045
 11
96.918273
 21
35.198768
  0
LINE
  8
別途部材
  6
DOT
 62
    47
 10
95.251605
 20
58.465567
 11
95.251605
 21
35.198768
  0
LINE
  8
別途部材
  6
DOT
 62
    47
 10
95.418273
 20
58.565568
 11
95.418273
 21
35.198768
  0
LINE
  8
別途部材
  6
CONTINUOUS
 62
    47
 10
-80.498448
 20
-78.59138
 11
-80.498448
 21
-78.658047
  0
ARC
  8
別途部材
  6
CONTINUOUS
 62
    47
 10
-80.398445
 20
-78.591386
 40
0.1
 50
90.0
 51
180.0
  0
LINE
  8
別途部材
  6
CONTINUOUS
 62
    47
 10
-80.341925
 20
-78.658047
 11
-80.341925
 21
-80.158047
  0
LINE
  8
別途部材
  6
CONTINUOUS
 62
    47
 10
23.168227
 20
-78.59138
 11
23.168227
 21
-78.658047
  0
ARC
  8
別途部材
  6
CONTINUOUS
 62
    47
 10
23.068224
 20
-78.591386
 40
0.1
 50
0.0
 51
90.0
  0
LINE
  8
別途部材
  6
CONTINUOUS
 62
    47
 10
23.011705
 20
-78.658047
 11
23.011705
 21
-80.158047
  0
LINE
  8
別途部材
  6
CONTINUOUS
 62
    47
 10
-81.428445
 20
-82.474715
 11
-28.66511
 21
-82.474715
  0
LINE
  8
別途部材
  6
CONTINUOUS
 62
    47
 10
-81.428445
 20
-81.30805
 11
-28.66511
 21
-81.30805
  0
LINE
  8
別途部材
  6
CONTINUOUS
 62
    47
 10
-80.341925
 20
-80.158047
 11
-28.66511
 21
-80.158047
  0
LINE
  8
別途部材
  6
CONTINUOUS
 62
    47
 10
-80.398448
 20
-78.49138
 11
-28.66511
 21
-78.49138
  0
LINE
  8
別途部材
  6
CONTINUOUS
 62
    47
 10
-80.498448
 20
-78.658047
 11
-28.66511
 21
-78.658047
  0
LINE
  8
別途部材
  6
CONTINUOUS
 62
    47
 10
24.098225
 20
-82.474715
 11
-28.66511
 21
-82.474715
  0
LINE
  8
別途部材
  6
CONTINUOUS
 62
    47
 10
24.098225
 20
-81.30805
 11
-28.66511
 21
-81.30805
  0
LINE
  8
別途部材
  6
CONTINUOUS
 62
    47
 10
23.011705
 20
-80.158047
 11
-28.66511
 21
-80.158047
  0
LINE
  8
別途部材
  6
CONTINUOUS
 62
    47
 10
23.068227
 20
-78.49138
 11
-28.66511
 21
-78.49138
  0
LINE
  8
別途部材
  6
CONTINUOUS
 62
    47
 10
23.168227
 20
-78.658047
 11
-28.66511
 21
-78.658047
  0
LINE
  8
別途部材
  6
DOT
 62
    47
 10
-80.498448
 20
-63.59138
 11
-80.498448
 21
-63.658047
  0
ARC
  8
別途部材
  6
DOT
 62
    47
 10
-80.398445
 20
-63.591385
 40
0.1
 50
90.0
 51
180.0
  0
LINE
  8
別途部材
  6
DOT
 62
    47
 10
-80.341925
 20
-63.658047
 11
-80.341925
 21
-65.158047
  0
LINE
  8
別途部材
  6
DOT
 62
    47
 10
23.168227
 20
-63.59138
 11
23.168227
 21
-63.658047
  0
ARC
  8
別途部材
  6
DOT
 62
    47
 10
23.068224
 20
-63.591385
 40
0.1
 50
0.0
 51
90.0
  0
LINE
  8
別途部材
  6
DOT
 62
    47
 10
23.011705
 20
-63.658047
 11
23.011705
 21
-65.158047
  0
LINE
  8
別途部材
  6
DOT
 62
    47
 10
-80.341925
 20
-65.158047
 11
-28.66511
 21
-65.158047
  0
LINE
  8
別途部材
  6
DOT
 62
    47
 10
-80.398448
 20
-63.49138
 11
-28.66511
 21
-63.49138
  0
LINE
  8
別途部材
  6
DOT
 62
    47
 10
-80.498448
 20
-63.658047
 11
-28.66511
 21
-63.658047
  0
LINE
  8
別途部材
  6
DOT
 62
    47
 10
-81.428445
 20
-66.30805
 11
-28.66511
 21
-66.30805
  0
LINE
  8
別途部材
  6
DOT
 62
    47
 10
-81.428445
 20
-67.474715
 11
-28.66511
 21
-67.474715
  0
LINE
  8
別途部材
  6
DOT
 62
    47
 10
24.098225
 20
-66.30805
 11
-28.66511
 21
-66.30805
  0
LINE
  8
別途部材
  6
DOT
 62
    47
 10
23.011705
 20
-65.158047
 11
-28.66511
 21
-65.158047
  0
LINE
  8
別途部材
  6
DOT
 62
    47
 10
23.068227
 20
-63.49138
 11
-28.66511
 21
-63.49138
  0
LINE
  8
別途部材
  6
DOT
 62
    47
 10
23.168227
 20
-63.658047
 11
-28.66511
 21
-63.658047
  0
LINE
  8
別途部材
  6
DOT
 62
    47
 10
24.098225
 20
-67.474715
 11
-28.66511
 21
-67.474715
  0
LINE
  8
別途部材
  6
CONTINUOUS
 10
83.888112
 20
-49.867045
 11
83.888112
 21
-93.20038
  0
LINE
  8
曲げ物
  6
CONTINUOUS
 10
6.06062
 20
37.022003
 11
2.365308
 21
33.32669
  0
LINE
  8
曲げ物
  6
CONTINUOUS
 10
5.35715
 20
35.485893
 11
3.90142
 21
34.030163
  0
LINE
  8
曲げ物
  6
CONTINUOUS
 10
4.52451
 20
36.318533
 11
3.06878
 21
34.862803
  0
LINE
  8
曲げ物
  6
CONTINUOUS
 10
-26.774172
 20
37.022003
 11
-30.469485
 21
33.32669
  0
LINE
  8
曲げ物
  6
CONTINUOUS
 10
-27.477643
 20
35.485893
 11
-28.933373
 21
34.030163
  0
LINE
  8
曲げ物
  6
CONTINUOUS
 10
-28.310282
 20
36.318533
 11
-29.766013
 21
34.862803
  0
LINE
  8
曲げ物
  6
CONTINUOUS
 10
-59.583972
 20
37.022003
 11
-63.279285
 21
33.32669
  0
LINE
  8
曲げ物
  6
CONTINUOUS
 10
-60.287442
 20
35.485893
 11
-61.743173
 21
34.030163
  0
LINE
  8
曲げ物
  6
CONTINUOUS
 10
-61.120082
 20
36.318533
 11
-62.575813
 21
34.862803
  0
LINE
  8
曲げ物
  6
CONTINUOUS
 10
116.421445
 20
-49.867045
 11
83.888112
 21
-49.867045
  0
LINE
  8
曲げ物
  6
CONTINUOUS
 10
116.421445
 20
-93.20038
 11
83.888112
 21
-93.20038
  0
LINE
  8
曲げ物
  6
CONTINUOUS
 10
116.421445
 20
-49.867045
 11
116.421445
 21
-93.20038
  0
LINE
  8
鉄骨等
  6
CONTINUOUS
 62
    47
 10
114.23494
 20
59.495565
 11
113.068275
 21
59.495565
  0
LINE
  8
鉄骨等
  6
CONTINUOUS
 62
    47
 10
113.068275
 20
59.495565
 11
111.918275
 21
58.092377
  0
LINE
  8
鉄骨等
  6
CONTINUOUS
 62
    47
 10
114.23494
 20
10.63586
 11
113.068275
 21
10.63586
  0
LINE
  8
鉄骨等
  6
CONTINUOUS
 62
    47
 10
113.068275
 20
10.63586
 11
111.918275
 21
12.039045
  0
LINE
  8
鉄骨等
  6
DOT
 62
    47
 10
99.23494
 20
59.495565
 11
98.068275
 21
59.495565
  0
LINE
  8
鉄骨等
  6
DOT
 62
    47
 10
98.068275
 20
59.495565
 11
96.918275
 21
58.092377
  0
LINE
  8
鉄骨等
  6
DOT
 62
    47
 10
99.23494
 20
10.63586
 11
98.068275
 21
10.63586
  0
LINE
  8
鉄骨等
  6
DOT
 62
    47
 10
98.068275
 20
10.63586
 11
96.918275
 21
12.039045
  0
LINE
  8
鉄骨等
  6
CONTINUOUS
 62
    47
 10
-81.428445
 20
-82.474715
 11
-81.428445
 21
-81.30805
  0
LINE
  8
鉄骨等
  6
CONTINUOUS
 62
    47
 10
-81.428445
 20
-81.30805
 11
-80.02526
 21
-80.15805
  0
LINE
  8
鉄骨等
  6
CONTINUOUS
 62
    47
 10
24.098225
 20
-82.474715
 11
24.098225
 21
-81.30805
  0
LINE
  8
鉄骨等
  6
CONTINUOUS
 62
    47
 10
24.098225
 20
-81.30805
 11
22.69504
 21
-80.15805
  0
LINE
  8
鉄骨等
  6
DOT
 62
    47
 10
-81.428445
 20
-67.474715
 11
-81.428445
 21
-66.30805
  0
LINE
  8
鉄骨等
  6
DOT
 62
    47
 10
-81.428445
 20
-66.30805
 11
-80.02526
 21
-65.15805
  0
LINE
  8
鉄骨等
  6
DOT
 62
    47
 10
24.098225
 20
-67.474715
 11
24.098225
 21
-66.30805
  0
LINE
  8
鉄骨等
  6
DOT
 62
    47
 10
24.098225
 20
-66.30805
 11
22.69504
 21
-65.15805
  0
ENDSEC
  0
EOF
