  0
SECTION
  2
HEADER
  9
$EXTMIN
 10
-210.0
 20
-148.5
  9
$EXTMAX
 10
210.0
 20
148.5
  9
$PDMODE
 70
    32
  9
$PDSIZE
 40
1.5
  9
$LTSCALE
 40
10.0
  0
ENDSEC
  0
SECTION
  2
TABLES
  0
TABLE
  2
LTYPE
 70
    15
  0
LTYPE
  2
CONTINUOUS
 70
    64
  3
実線
 72
    65
 73
     0
 40
0.0
  0
LTYPE
  2
DASHED
 70
    64
  3
破線A
 72
    65
 73
     2
 40
0.6
 49
0.4
 49
-0.2
  0
LTYPE
  2
DASHEDX2
 70
    64
  3
破線B
 72
    65
 73
     2
 40
1.3
 49
0.9
 49
-0.4
  0
LTYPE
  2
DASHDOT
 70
    64
  3
１点鎖線A
 72
    65
 73
     4
 40
0.5375
 49
0.375
 49
-0.05
 49
0.0625
 49
-0.05
  0
LTYPE
  2
DASHDOTX2
 70
    64
  3
１点鎖線B
 72
    65
 73
     4
 40
1.075
 49
0.75
 49
-0.1
 49
0.125
 49
-0.1
  0
LTYPE
  2
DIVIDE2
 70
    64
  3
２点鎖線A
 72
    65
 73
     6
 40
0.5125
 49
0.3
 49
-0.0375
 49
0.05
 49
-0.0375
 49
0.05
 49
-0.0375
  0
LTYPE
  2
DIVIDE
 70
    64
  3
２点鎖線B
 72
    65
 73
     6
 40
1.05
 49
0.55
 49
-0.1
 49
0.1
 49
-0.1
 49
0.1
 49
-0.1
  0
LTYPE
  2
DOT
 70
    64
  3
点線A
 72
    65
 73
     2
 40
0.1125
 49
0.0625
 49
-0.05
  0
LTYPE
  2
DOTX2
 70
    64
  3
点線B
 72
    65
 73
     2
 40
0.275
 49
0.15
 49
-0.125
  0
LTYPE
  2
CONTINUOUS
 70
    64
  3
実線
 72
    65
 73
     0
 40
0.0
  0
LTYPE
  2
CONTINUOUS
 70
    64
  3
実線
 72
    65
 73
     0
 40
0.0
  0
LTYPE
  2
CONTINUOUS
 70
    64
  3
実線
 72
    65
 73
     0
 40
0.0
  0
LTYPE
  2
CONTINUOUS
 70
    64
  3
実線
 72
    65
 73
     0
 40
0.0
  0
LTYPE
  2
CONTINUOUS
 70
    64
  3
実線
 72
    65
 73
     0
 40
0.0
  0
LTYPE
  2
CONTINUOUS
 70
    64
  3
実線
 72
    65
 73
     0
 40
0.0
  0
ENDTAB
  0
TABLE
  2
LAYER
 70
    34
  0
LAYER
  2
通り芯
 70
     0
 62
    15
  6
CONTINUOUS
  0
LAYER
  2
補助線
 70
     0
 62
    16
  6
DOT
  0
LAYER
  2
躯体
 70
     0
 62
    31
  6
CONTINUOUS
  0
LAYER
  2
型材
 70
     0
 62
    32
  6
CONTINUOUS
  0
LAYER
  2
型材断面
 70
     0
 62
    47
  6
CONTINUOUS
  0
LAYER
  2
ガラス
 70
     0
 62
    48
  6
CONTINUOUS
  0
LAYER
  2
ゴム等
 70
     0
 62
    63
  6
CONTINUOUS
  0
LAYER
  2
ボルト／ビス
 70
     0
 62
    64
  6
CONTINUOUS
  0
LAYER
  2
文字
 70
     0
 62
    79
  6
CONTINUOUS
  0
LAYER
  2
寸法
 70
     0
 62
    80
  6
CONTINUOUS
  0
LAYER
  2
ﾊｯﾁﾝｸﾞ
 70
     0
 62
    95
  6
CONTINUOUS
  0
LAYER
  2
別途部材
 70
     0
 62
    96
  6
CONTINUOUS
  0
LAYER
  2
曲げ物
 70
     0
 62
   111
  6
CONTINUOUS
  0
LAYER
  2
鉄骨等
 70
     0
 62
   112
  6
CONTINUOUS
  0
LAYER
  2
St
 70
     0
 62
   127
  6
CONTINUOUS
  0
LAYER
  2
その他部品等
 70
     0
 62
   128
  6
CONTINUOUS
  0
LAYER
  2
ｶﾞｽｹｯﾄ
 70
     0
 62
   143
  6
CONTINUOUS
  0
LAYER
  2
ｽｹｯﾁ
 70
     0
 62
    14
  6
CONTINUOUS
  0
LAYER
  2
0
 70
     0
 62
    17
  6
CONTINUOUS
  0
LAYER
  2
1
 70
     0
 62
    30
  6
CONTINUOUS
  0
LAYER
  2
4
 70
     0
 62
    33
  6
CONTINUOUS
  0
LAYER
  2
ﾚｲﾔ3
 70
     0
 62
    46
  6
CONTINUOUS
  0
LAYER
  2
外形線
 70
     0
 62
    49
  6
CONTINUOUS
  0
LAYER
  2
部品
 70
     0
 62
    14
  6
CONTINUOUS
  0
LAYER
  2
サッシ芯
 70
     0
 62
    17
  6
DASHDOTX2
  0
LAYER
  2
寸法線
 70
     0
 62
    62
  6
CONTINUOUS
  0
LAYER
  2
姿図外形線
 70
     0
 62
    65
  6
CONTINUOUS
  0
LAYER
  2
姿補助線
 70
     0
 62
    30
  6
CONTINUOUS
  0
LAYER
  2
透視線
 70
     0
 62
    78
  6
DOT
  0
LAYER
  2
用紙
 70
     0
 62
    81
  6
CONTINUOUS
  0
LAYER
  2
実線図枠
 70
     0
 62
    94
  6
CONTINUOUS
  0
LAYER
  2
補助図枠
 70
     0
 62
    97
  6
CONTINUOUS
  0
LAYER
  2
建具記号
 70
     0
 62
   110
  6
CONTINUOUS
  0
LAYER
  2
補助文字
 70
     0
 62
   113
  6
CONTINUOUS
  0
ENDTAB
  0
TABLE
  2
STYLE
 70
    10
  0
STYLE
  2
STANDARD
 70
     0
 40
1.0
 41
1.0
 42
1.0
 50
0.0
 71
     0
  3
TXT
  4
BIGFONT
  0
STYLE
  2
TATE
 70
     4
 40
1.0
 41
1.0
 42
1.0
 50
0.0
 71
     0
  3
TXT
  4
BIGFONT
  0
STYLE
  2
TextStyle03
 70
     0
 40
1.0
 41
1.0
 42
1.0
 50
0.0
 71
     0
  3
MONOTXT
  4
BIGFONT
  0
STYLE
  2
TextStyle04
 70
     0
 40
1.0
 41
1.0
 42
1.0
 50
0.0
 71
     0
  3
MONOTXT
  4
BIGFONT
  0
STYLE
  2
TextStyle05
 70
     0
 40
1.0
 41
1.0
 42
1.0
 50
0.0
 71
     0
  3
MONOTXT
  4
BIGFONT
  0
STYLE
  2
TextStyle06
 70
     0
 40
1.0
 41
1.0
 42
1.0
 50
0.0
 71
     0
  3
MONOTXT
  4
BIGFONT
  0
STYLE
  2
TextStyle07
 70
     0
 40
1.0
 41
1.0
 42
1.0
 50
0.0
 71
     0
  3
MONOTXT
  4
BIGFONT
  0
STYLE
  2
TextStyle08
 70
     0
 40
1.0
 41
1.0
 42
1.0
 50
0.0
 71
     0
  3
MONOTXT
  4
BIGFONT
  0
STYLE
  2
TextStyle09
 70
     0
 40
1.0
 41
1.0
 42
1.0
 50
0.0
 71
     0
  3
MONOTXT
  4
BIGFONT
  0
STYLE
  2
TextStyle10
 70
     0
 40
1.0
 41
1.0
 42
1.0
 50
0.0
 71
     0
  3
MONOTXT
  4
BIGFONT
  0
ENDTAB
  0
ENDSEC
  0
SECTION
  2
BLOCKS
  0
BLOCK
  2
*GRP_0001
 70
    65
 10
0.0
 20
0.0
  0
LINE
  8
型材断面
  6
CONTINUOUS
 10
195.0
 20
133.5
 11
195.0
 21
-133.5
  0
LINE
  8
型材断面
  6
CONTINUOUS
 10
195.0
 20
-133.5
 11
-185.0
 21
-133.5
  0
LINE
  8
型材断面
  6
CONTINUOUS
 10
-185.0
 20
-133.5
 11
-185.0
 21
133.5
  0
LINE
  8
型材断面
  6
CONTINUOUS
 10
195.0
 20
133.5
 11
-185.0
 21
133.5
  0
LINE
  8
型材断面
  6
CONTINUOUS
 10
145.0
 20
-133.5
 11
145.0
 21
-118.5
  0
LINE
  8
型材断面
  6
CONTINUOUS
 10
195.0
 20
-118.5
 11
145.0
 21
-118.5
  0
ENDBLK
  0
BLOCK
  2
*DIM_0002
 70
    65
 10
0.0
 20
0.0
  0
LINE
  8
寸法
  6
BYBLOCK
 62
     0
 10
-95.331775
 20
9.76892
 11
-95.331775
 21
4.873685
  0
LINE
  8
寸法
  6
BYBLOCK
 62
     0
 10
4.66822
 20
9.76892
 11
4.66822
 21
4.873685
  0
LINE
  8
寸法
  6
BYBLOCK
 62
     0
 10
-95.331775
 20
4.873685
 11
4.66822
 21
4.873685
  0
POINT
  8
寸法
 62
     0
 10
-95.331775
 20
4.873685
  0
POINT
  8
寸法
 62
     0
 10
4.66822
 20
4.873685
  0
TEXT
  7
TextStyle03
  8
寸法
  6
CONTINUOUS
 62
     0
 10
-48.63125
 20
5.225
  1
3000
 40
3.0
 72
     5
 11
-42.06875
 21
5.225
  0
ENDBLK
  0
BLOCK
  2
*DIM_0003
 70
    65
 10
0.0
 20
0.0
  0
LINE
  8
寸法
  6
BYBLOCK
 62
     0
 10
22.33489
 20
56.732382
 11
32.059173
 21
56.732382
  0
LINE
  8
寸法
  6
BYBLOCK
 62
     0
 10
24.96502
 20
53.032382
 11
32.059173
 21
53.032382
  0
LINE
  8
寸法
  6
BYBLOCK
 62
     0
 10
32.059173
 20
56.732382
 11
32.059173
 21
53.032382
  0
POINT
  8
寸法
 62
     0
 10
32.059173
 20
56.732382
  0
POINT
  8
寸法
 62
     0
 10
32.059173
 20
53.032382
  0
TEXT
  7
TextStyle03
  8
寸法
  6
CONTINUOUS
 62
     0
 10
31.75
 20
57.7125
  1
111
 40
3.0
 50
90.0
 72
     5
 11
31.75
 21
62.5875
  0
ENDBLK
  0
BLOCK
  2
*DIM_0004
 70
    65
 10
0.0
 20
0.0
  0
LINE
  8
寸法
  6
BYBLOCK
 62
     0
 10
22.33489
 20
13.399048
 11
32.059173
 21
13.399045
  0
LINE
  8
寸法
  6
BYBLOCK
 62
     0
 10
24.96502
 20
17.099048
 11
32.059173
 21
17.099045
  0
LINE
  8
寸法
  6
BYBLOCK
 62
     0
 10
32.059173
 20
13.399045
 11
32.059173
 21
17.099045
  0
POINT
  8
寸法
 62
     0
 10
32.059173
 20
13.399045
  0
POINT
  8
寸法
 62
     0
 10
32.059173
 20
17.099045
  0
TEXT
  7
TextStyle03
  8
寸法
  6
CONTINUOUS
 62
     0
 10
31.725
 20
7.5375
  1
111
 40
3.0
 50
90.0
 72
     5
 11
31.725
 21
12.4125
  0
ENDBLK
  0
BLOCK
  2
*DIM_0005
 70
    65
 10
0.0
 20
0.0
  0
LINE
  8
寸法
  6
BYBLOCK
 62
     0
 10
-114.998442
 20
23.399048
 11
-143.943607
 21
23.399048
  0
LINE
  8
寸法
  6
BYBLOCK
 62
     0
 10
-114.998442
 20
46.732382
 11
-143.943607
 21
46.732382
  0
LINE
  8
寸法
  6
BYBLOCK
 62
     0
 10
-143.943607
 20
23.399048
 11
-143.943607
 21
46.732382
  0
POINT
  8
寸法
 62
     0
 10
-143.943607
 20
23.399048
  0
POINT
  8
寸法
 62
     0
 10
-143.943607
 20
46.732382
  0
TEXT
  7
TextStyle03
  8
寸法
  6
CONTINUOUS
 62
     0
 10
-144.35
 20
32.6125
  1
700
 40
3.0
 50
90.0
 72
     5
 11
-144.35
 21
37.4875
  0
ENDBLK
  0
BLOCK
  2
*DIM_0006
 70
    65
 10
0.0
 20
0.0
  0
LINE
  8
寸法
  6
BYBLOCK
 62
     0
 10
-103.66511
 20
59.73238
 11
-103.66511
 21
88.840452
  0
LINE
  8
寸法
  6
BYBLOCK
 62
     0
 10
-80.331778
 20
59.73238
 11
-80.331778
 21
88.840452
  0
LINE
  8
寸法
  6
BYBLOCK
 62
     0
 10
-103.66511
 20
88.840452
 11
-80.331778
 21
88.840452
  0
POINT
  8
寸法
 62
     0
 10
-103.66511
 20
88.840452
  0
POINT
  8
寸法
 62
     0
 10
-80.331778
 20
88.840452
  0
TEXT
  7
TextStyle03
  8
寸法
  6
CONTINUOUS
 62
     0
 10
-94.4375
 20
89.2
  1
700
 40
3.0
 72
     5
 11
-89.5625
 21
89.2
  0
ENDBLK
  0
BLOCK
  2
*DIM_0007
 70
    65
 10
0.0
 20
0.0
  0
LINE
  8
寸法
  6
BYBLOCK
 62
     0
 10
-56.998445
 20
59.73238
 11
-56.998445
 21
88.840452
  0
LINE
  8
寸法
  6
BYBLOCK
 62
     0
 10
-80.331778
 20
88.840452
 11
-56.998445
 21
88.840452
  0
POINT
  8
寸法
 62
     0
 10
-56.998445
 20
88.840452
  0
TEXT
  7
TextStyle03
  8
寸法
  6
CONTINUOUS
 62
     0
 10
-71.1125
 20
89.2
  1
700
 40
3.0
 72
     5
 11
-66.2375
 21
89.2
  0
ENDBLK
  0
BLOCK
  2
*DIM_0008
 70
    65
 10
0.0
 20
0.0
  0
LINE
  8
寸法
  6
BYBLOCK
 62
     0
 10
-33.66511
 20
59.73238
 11
-33.66511
 21
88.840452
  0
LINE
  8
寸法
  6
BYBLOCK
 62
     0
 10
-56.998445
 20
88.840452
 11
-33.66511
 21
88.840452
  0
POINT
  8
寸法
 62
     0
 10
-33.66511
 20
88.840452
  0
TEXT
  7
TextStyle03
  8
寸法
  6
CONTINUOUS
 62
     0
 10
-47.7875
 20
89.2
  1
700
 40
3.0
 72
     5
 11
-42.9125
 21
89.2
  0
ENDBLK
  0
BLOCK
  2
*DIM_0009
 70
    65
 10
0.0
 20
0.0
  0
LINE
  8
寸法
  6
BYBLOCK
 62
     0
 10
-10.331778
 20
59.73238
 11
-10.331778
 21
88.840452
  0
LINE
  8
寸法
  6
BYBLOCK
 62
     0
 10
-33.66511
 20
88.840452
 11
-10.331778
 21
88.840452
  0
POINT
  8
寸法
 62
     0
 10
-10.331778
 20
88.840452
  0
TEXT
  7
TextStyle03
  8
寸法
  6
CONTINUOUS
 62
     0
 10
-24.4375
 20
89.2
  1
700
 40
3.0
 72
     5
 11
-19.5625
 21
89.2
  0
ENDBLK
  0
BLOCK
  2
*DIM_0010
 70
    65
 10
0.0
 20
0.0
  0
LINE
  8
寸法
  6
BYBLOCK
 62
     0
 10
13.001555
 20
59.73238
 11
13.001555
 21
88.840452
  0
LINE
  8
寸法
  6
BYBLOCK
 62
     0
 10
-10.331778
 20
88.840452
 11
13.001555
 21
88.840452
  0
POINT
  8
寸法
 62
     0
 10
13.001555
 20
88.840452
  0
TEXT
  7
TextStyle03
  8
寸法
  6
CONTINUOUS
 62
     0
 10
-1.1125
 20
89.2
  1
700
 40
3.0
 72
     5
 11
3.7625
 21
89.2
  0
ENDBLK
  0
BLOCK
  2
*GRP_0011
 70
    65
 10
0.0
 20
0.0
  0
LINE
  8
補助線
  6
BYBLOCK
 62
    64
 10
9.602283
 20
-84.017143
 11
9.734167
 21
-84.119048
  0
LINE
  8
補助線
  6
BYBLOCK
 62
    64
 10
9.719177
 20
-84.002153
 11
9.617273
 21
-84.134037
  0
LINE
  8
補助線
  6
BYBLOCK
 62
    64
 10
-1.808342
 20
-75.200453
 11
-1.676458
 21
-75.302355
  0
LINE
  8
補助線
  6
BYBLOCK
 62
    64
 10
-1.691447
 20
-75.18546
 11
-1.79335
 21
-75.317345
  0
LINE
  8
補助線
  6
BYBLOCK
 62
    64
 10
-13.087085
 20
-66.485665
 11
-13.218965
 21
-66.38376
  0
LINE
  8
補助線
  6
BYBLOCK
 62
    64
 10
-13.102073
 20
-66.368768
 11
-13.203975
 21
-66.500655
  0
LINE
  8
型材断面
  6
CONTINUOUS
 10
10.44151
 20
-83.61248
 11
10.531452
 21
-84.313845
  0
LINE
  8
型材断面
  6
CONTINUOUS
 10
10.531452
 20
-84.313845
 11
10.123838
 21
-84.841382
  0
LINE
  8
型材断面
  6
CONTINUOUS
 10
10.123838
 20
-84.841382
 11
9.422475
 21
-84.931322
  0
LINE
  8
型材断面
  6
CONTINUOUS
 10
-12.907275
 20
-65.571485
 11
-13.608637
 21
-65.661427
  0
LINE
  8
型材断面
  6
CONTINUOUS
 10
-13.608637
 20
-65.661427
 11
-14.016252
 21
-66.188965
  0
LINE
  8
型材断面
  6
CONTINUOUS
 10
-14.016252
 20
-66.188965
 11
-13.92631
 21
-66.89033
  0
LINE
  8
型材断面
  6
CONTINUOUS
 10
9.422475
 20
-84.931322
 11
-13.92631
 21
-66.89033
  0
LINE
  8
型材断面
  6
CONTINUOUS
 10
10.44151
 20
-83.61248
 11
-12.907275
 21
-65.571485
  0
CIRCLE
  8
ボルト／ビス
  6
CONTINUOUS
 10
9.668225
 20
-84.068095
 40
0.250185
  0
CIRCLE
  8
ボルト／ビス
  6
CONTINUOUS
 10
9.668225
 20
-84.068095
 40
0.301025
  0
LINE
  8
ボルト／ビス
  6
CONTINUOUS
 62
    64
 10
9.91616
 20
-84.101585
 11
9.821195
 21
-83.870122
  0
LINE
  8
ボルト／ビス
  6
CONTINUOUS
 62
    64
 10
9.57326
 20
-83.836632
 11
9.821195
 21
-83.870122
  0
LINE
  8
ボルト／ビス
  6
CONTINUOUS
 62
    64
 10
9.76319
 20
-84.299557
 11
9.515255
 21
-84.266068
  0
LINE
  8
ボルト／ビス
  6
CONTINUOUS
 62
    64
 10
9.42029
 20
-84.034605
 11
9.515255
 21
-84.266068
  0
LINE
  8
ボルト／ビス
  6
CONTINUOUS
 62
    64
 10
9.91616
 20
-84.101585
 11
9.76319
 21
-84.299557
  0
LINE
  8
ボルト／ビス
  6
CONTINUOUS
 62
    64
 10
9.57326
 20
-83.836632
 11
9.42029
 21
-84.034605
  0
CIRCLE
  8
ボルト／ビス
  6
CONTINUOUS
 62
    64
 10
9.668225
 20
-84.068095
 40
0.216668
  0
CIRCLE
  8
ボルト／ビス
  6
CONTINUOUS
 10
-1.7424
 20
-75.251405
 40
0.250185
  0
CIRCLE
  8
ボルト／ビス
  6
CONTINUOUS
 10
-1.7424
 20
-75.251405
 40
0.301025
  0
LINE
  8
ボルト／ビス
  6
CONTINUOUS
 62
    64
 10
-1.494465
 20
-75.284893
 11
-1.58943
 21
-75.053432
  0
LINE
  8
ボルト／ビス
  6
CONTINUOUS
 62
    64
 10
-1.837365
 20
-75.019942
 11
-1.58943
 21
-75.053432
  0
LINE
  8
ボルト／ビス
  6
CONTINUOUS
 62
    64
 10
-1.647433
 20
-75.482865
 11
-1.895367
 21
-75.449375
  0
LINE
  8
ボルト／ビス
  6
CONTINUOUS
 62
    64
 10
-1.990335
 20
-75.217915
 11
-1.895367
 21
-75.449375
  0
LINE
  8
ボルト／ビス
  6
CONTINUOUS
 62
    64
 10
-1.494465
 20
-75.284893
 11
-1.647433
 21
-75.482865
  0
LINE
  8
ボルト／ビス
  6
CONTINUOUS
 62
    64
 10
-1.837365
 20
-75.019942
 11
-1.990335
 21
-75.217915
  0
CIRCLE
  8
ボルト／ビス
  6
CONTINUOUS
 62
    64
 10
-1.7424
 20
-75.251405
 40
0.216668
  0
CIRCLE
  8
ボルト／ビス
  6
CONTINUOUS
 10
-13.153023
 20
-66.434713
 40
0.250185
  0
CIRCLE
  8
ボルト／ビス
  6
CONTINUOUS
 10
-13.153023
 20
-66.434713
 40
0.301025
  0
LINE
  8
ボルト／ビス
  6
CONTINUOUS
 62
    64
 10
-13.24799
 20
-66.20325
 11
-13.000058
 21
-66.23674
  0
LINE
  8
ボルト／ビス
  6
CONTINUOUS
 62
    64
 10
-12.905092
 20
-66.468203
 11
-13.000058
 21
-66.23674
  0
LINE
  8
ボルト／ビス
  6
CONTINUOUS
 62
    64
 10
-13.400958
 20
-66.401223
 11
-13.305992
 21
-66.632685
  0
LINE
  8
ボルト／ビス
  6
CONTINUOUS
 62
    64
 10
-13.058057
 20
-66.666175
 11
-13.305992
 21
-66.632685
  0
LINE
  8
ボルト／ビス
  6
CONTINUOUS
 62
    64
 10
-13.24799
 20
-66.20325
 11
-13.400958
 21
-66.401223
  0
LINE
  8
ボルト／ビス
  6
CONTINUOUS
 62
    64
 10
-12.905092
 20
-66.468203
 11
-13.058057
 21
-66.666175
  0
CIRCLE
  8
ボルト／ビス
  6
CONTINUOUS
 62
    64
 10
-13.153023
 20
-66.434713
 40
0.216668
  0
ENDBLK
  0
BLOCK
  2
*GRP_0012
 70
    65
 10
0.0
 20
0.0
  0
LINE
  8
補助線
  6
BYBLOCK
 62
    64
 10
-13.087082
 20
-84.017143
 11
-13.218967
 21
-84.119048
  0
LINE
  8
補助線
  6
BYBLOCK
 62
    64
 10
-13.203978
 20
-84.002153
 11
-13.102073
 21
-84.134037
  0
LINE
  8
補助線
  6
BYBLOCK
 62
    64
 10
-1.676458
 20
-75.200453
 11
-1.808342
 21
-75.302355
  0
LINE
  8
補助線
  6
BYBLOCK
 62
    64
 10
-1.793353
 20
-75.18546
 11
-1.69145
 21
-75.317345
  0
LINE
  8
補助線
  6
BYBLOCK
 62
    64
 10
9.602285
 20
-66.485665
 11
9.734165
 21
-66.38376
  0
LINE
  8
補助線
  6
BYBLOCK
 62
    64
 10
9.617273
 20
-66.368768
 11
9.719175
 21
-66.500655
  0
LINE
  8
型材断面
  6
CONTINUOUS
 10
-13.92631
 20
-83.61248
 11
-14.016252
 21
-84.313845
  0
LINE
  8
型材断面
  6
CONTINUOUS
 10
-14.016252
 20
-84.313845
 11
-13.608637
 21
-84.841382
  0
LINE
  8
型材断面
  6
CONTINUOUS
 10
-13.608637
 20
-84.841382
 11
-12.907275
 21
-84.931322
  0
LINE
  8
型材断面
  6
CONTINUOUS
 10
9.422475
 20
-65.571485
 11
10.123838
 21
-65.661427
  0
LINE
  8
型材断面
  6
CONTINUOUS
 10
10.123838
 20
-65.661427
 11
10.531452
 21
-66.188965
  0
LINE
  8
型材断面
  6
CONTINUOUS
 10
10.531452
 20
-66.188965
 11
10.44151
 21
-66.89033
  0
LINE
  8
型材断面
  6
CONTINUOUS
 10
-12.907275
 20
-84.931322
 11
10.44151
 21
-66.89033
  0
LINE
  8
型材断面
  6
CONTINUOUS
 10
-13.92631
 20
-83.61248
 11
9.422475
 21
-65.571485
  0
CIRCLE
  8
ボルト／ビス
  6
CONTINUOUS
 10
-13.153025
 20
-84.068095
 40
0.250185
  0
CIRCLE
  8
ボルト／ビス
  6
CONTINUOUS
 10
-13.153025
 20
-84.068095
 40
0.301025
  0
LINE
  8
ボルト／ビス
  6
CONTINUOUS
 62
    64
 10
-13.40096
 20
-84.101585
 11
-13.305995
 21
-83.870122
  0
LINE
  8
ボルト／ビス
  6
CONTINUOUS
 62
    64
 10
-13.05806
 20
-83.836632
 11
-13.305995
 21
-83.870122
  0
LINE
  8
ボルト／ビス
  6
CONTINUOUS
 62
    64
 10
-13.24799
 20
-84.299557
 11
-13.000055
 21
-84.266068
  0
LINE
  8
ボルト／ビス
  6
CONTINUOUS
 62
    64
 10
-12.90509
 20
-84.034605
 11
-13.000055
 21
-84.266068
  0
LINE
  8
ボルト／ビス
  6
CONTINUOUS
 62
    64
 10
-13.40096
 20
-84.101585
 11
-13.24799
 21
-84.299557
  0
LINE
  8
ボルト／ビス
  6
CONTINUOUS
 62
    64
 10
-13.05806
 20
-83.836632
 11
-12.90509
 21
-84.034605
  0
CIRCLE
  8
ボルト／ビス
  6
CONTINUOUS
 62
    64
 10
-13.153025
 20
-84.068095
 40
0.216668
  0
CIRCLE
  8
ボルト／ビス
  6
CONTINUOUS
 10
-1.7424
 20
-75.251405
 40
0.250185
  0
CIRCLE
  8
ボルト／ビス
  6
CONTINUOUS
 10
-1.7424
 20
-75.251405
 40
0.301025
  0
LINE
  8
ボルト／ビス
  6
CONTINUOUS
 62
    64
 10
-1.990335
 20
-75.284893
 11
-1.89537
 21
-75.053432
  0
LINE
  8
ボルト／ビス
  6
CONTINUOUS
 62
    64
 10
-1.647435
 20
-75.019942
 11
-1.89537
 21
-75.053432
  0
LINE
  8
ボルト／ビス
  6
CONTINUOUS
 62
    64
 10
-1.837367
 20
-75.482865
 11
-1.589433
 21
-75.449375
  0
LINE
  8
ボルト／ビス
  6
CONTINUOUS
 62
    64
 10
-1.494465
 20
-75.217915
 11
-1.589433
 21
-75.449375
  0
LINE
  8
ボルト／ビス
  6
CONTINUOUS
 62
    64
 10
-1.990335
 20
-75.284893
 11
-1.837367
 21
-75.482865
  0
LINE
  8
ボルト／ビス
  6
CONTINUOUS
 62
    64
 10
-1.647435
 20
-75.019942
 11
-1.494465
 21
-75.217915
  0
CIRCLE
  8
ボルト／ビス
  6
CONTINUOUS
 62
    64
 10
-1.7424
 20
-75.251405
 40
0.216668
  0
CIRCLE
  8
ボルト／ビス
  6
CONTINUOUS
 10
9.668223
 20
-66.434713
 40
0.250185
  0
CIRCLE
  8
ボルト／ビス
  6
CONTINUOUS
 10
9.668223
 20
-66.434713
 40
0.301025
  0
LINE
  8
ボルト／ビス
  6
CONTINUOUS
 62
    64
 10
9.76319
 20
-66.20325
 11
9.515258
 21
-66.23674
  0
LINE
  8
ボルト／ビス
  6
CONTINUOUS
 62
    64
 10
9.420292
 20
-66.468203
 11
9.515258
 21
-66.23674
  0
LINE
  8
ボルト／ビス
  6
CONTINUOUS
 62
    64
 10
9.916158
 20
-66.401223
 11
9.821192
 21
-66.632685
  0
LINE
  8
ボルト／ビス
  6
CONTINUOUS
 62
    64
 10
9.573258
 20
-66.666175
 11
9.821192
 21
-66.632685
  0
LINE
  8
ボルト／ビス
  6
CONTINUOUS
 62
    64
 10
9.76319
 20
-66.20325
 11
9.916158
 21
-66.401223
  0
LINE
  8
ボルト／ビス
  6
CONTINUOUS
 62
    64
 10
9.420292
 20
-66.468203
 11
9.573258
 21
-66.666175
  0
CIRCLE
  8
ボルト／ビス
  6
CONTINUOUS
 62
    64
 10
9.668223
 20
-66.434713
 40
0.216668
  0
ENDBLK
  0
BLOCK
  2
*GRP_0013
 70
    65
 10
0.0
 20
0.0
  0
LINE
  8
補助線
  6
BYBLOCK
 62
    64
 10
-100.265833
 20
-84.017143
 11
-100.397718
 21
-84.119048
  0
LINE
  8
補助線
  6
BYBLOCK
 62
    64
 10
-100.382727
 20
-84.002153
 11
-100.280822
 21
-84.134037
  0
LINE
  8
補助線
  6
BYBLOCK
 62
    64
 10
-88.855207
 20
-75.200453
 11
-88.987093
 21
-75.302355
  0
LINE
  8
補助線
  6
BYBLOCK
 62
    64
 10
-88.972102
 20
-75.18546
 11
-88.8702
 21
-75.317345
  0
LINE
  8
補助線
  6
BYBLOCK
 62
    64
 10
-77.576465
 20
-66.485665
 11
-77.444585
 21
-66.38376
  0
LINE
  8
補助線
  6
BYBLOCK
 62
    64
 10
-77.561477
 20
-66.368768
 11
-77.459575
 21
-66.500655
  0
LINE
  8
型材断面
  6
CONTINUOUS
 10
-101.10506
 20
-83.61248
 11
-101.195003
 21
-84.313845
  0
LINE
  8
型材断面
  6
CONTINUOUS
 10
-101.195003
 20
-84.313845
 11
-100.787388
 21
-84.841382
  0
LINE
  8
型材断面
  6
CONTINUOUS
 10
-100.787388
 20
-84.841382
 11
-100.086025
 21
-84.931322
  0
LINE
  8
型材断面
  6
CONTINUOUS
 10
-77.756275
 20
-65.571485
 11
-77.054912
 21
-65.661427
  0
LINE
  8
型材断面
  6
CONTINUOUS
 10
-77.054912
 20
-65.661427
 11
-76.647297
 21
-66.188965
  0
LINE
  8
型材断面
  6
CONTINUOUS
 10
-76.647297
 20
-66.188965
 11
-76.73724
 21
-66.89033
  0
LINE
  8
型材断面
  6
CONTINUOUS
 10
-100.086025
 20
-84.931322
 11
-76.73724
 21
-66.89033
  0
LINE
  8
型材断面
  6
CONTINUOUS
 10
-101.10506
 20
-83.61248
 11
-77.756275
 21
-65.571485
  0
CIRCLE
  8
ボルト／ビス
  6
CONTINUOUS
 10
-100.331775
 20
-84.068095
 40
0.250185
  0
CIRCLE
  8
ボルト／ビス
  6
CONTINUOUS
 10
-100.331775
 20
-84.068095
 40
0.301025
  0
LINE
  8
ボルト／ビス
  6
CONTINUOUS
 62
    64
 10
-100.57971
 20
-84.101585
 11
-100.484745
 21
-83.870122
  0
LINE
  8
ボルト／ビス
  6
CONTINUOUS
 62
    64
 10
-100.23681
 20
-83.836632
 11
-100.484745
 21
-83.870122
  0
LINE
  8
ボルト／ビス
  6
CONTINUOUS
 62
    64
 10
-100.42674
 20
-84.299557
 11
-100.178805
 21
-84.266068
  0
LINE
  8
ボルト／ビス
  6
CONTINUOUS
 62
    64
 10
-100.08384
 20
-84.034605
 11
-100.178805
 21
-84.266068
  0
LINE
  8
ボルト／ビス
  6
CONTINUOUS
 62
    64
 10
-100.57971
 20
-84.101585
 11
-100.42674
 21
-84.299557
  0
LINE
  8
ボルト／ビス
  6
CONTINUOUS
 62
    64
 10
-100.23681
 20
-83.836632
 11
-100.08384
 21
-84.034605
  0
CIRCLE
  8
ボルト／ビス
  6
CONTINUOUS
 62
    64
 10
-100.331775
 20
-84.068095
 40
0.216668
  0
CIRCLE
  8
ボルト／ビス
  6
CONTINUOUS
 10
-88.92115
 20
-75.251405
 40
0.250185
  0
CIRCLE
  8
ボルト／ビス
  6
CONTINUOUS
 10
-88.92115
 20
-75.251405
 40
0.301025
  0
LINE
  8
ボルト／ビス
  6
CONTINUOUS
 62
    64
 10
-89.169085
 20
-75.284893
 11
-89.07412
 21
-75.053432
  0
LINE
  8
ボルト／ビス
  6
CONTINUOUS
 62
    64
 10
-88.826185
 20
-75.019942
 11
-89.07412
 21
-75.053432
  0
LINE
  8
ボルト／ビス
  6
CONTINUOUS
 62
    64
 10
-89.016118
 20
-75.482865
 11
-88.768182
 21
-75.449375
  0
LINE
  8
ボルト／ビス
  6
CONTINUOUS
 62
    64
 10
-88.673215
 20
-75.217915
 11
-88.768182
 21
-75.449375
  0
LINE
  8
ボルト／ビス
  6
CONTINUOUS
 62
    64
 10
-89.169085
 20
-75.284893
 11
-89.016118
 21
-75.482865
  0
LINE
  8
ボルト／ビス
  6
CONTINUOUS
 62
    64
 10
-88.826185
 20
-75.019942
 11
-88.673215
 21
-75.217915
  0
CIRCLE
  8
ボルト／ビス
  6
CONTINUOUS
 62
    64
 10
-88.92115
 20
-75.251405
 40
0.216668
  0
CIRCLE
  8
ボルト／ビス
  6
CONTINUOUS
 10
-77.510527
 20
-66.434713
 40
0.250185
  0
CIRCLE
  8
ボルト／ビス
  6
CONTINUOUS
 10
-77.510527
 20
-66.434713
 40
0.301025
  0
LINE
  8
ボルト／ビス
  6
CONTINUOUS
 62
    64
 10
-77.41556
 20
-66.20325
 11
-77.663493
 21
-66.23674
  0
LINE
  8
ボルト／ビス
  6
CONTINUOUS
 62
    64
 10
-77.758457
 20
-66.468203
 11
-77.663493
 21
-66.23674
  0
LINE
  8
ボルト／ビス
  6
CONTINUOUS
 62
    64
 10
-77.262593
 20
-66.401223
 11
-77.357557
 21
-66.632685
  0
LINE
  8
ボルト／ビス
  6
CONTINUOUS
 62
    64
 10
-77.605493
 20
-66.666175
 11
-77.357557
 21
-66.632685
  0
LINE
  8
ボルト／ビス
  6
CONTINUOUS
 62
    64
 10
-77.41556
 20
-66.20325
 11
-77.262593
 21
-66.401223
  0
LINE
  8
ボルト／ビス
  6
CONTINUOUS
 62
    64
 10
-77.758457
 20
-66.468203
 11
-77.605493
 21
-66.666175
  0
CIRCLE
  8
ボルト／ビス
  6
CONTINUOUS
 62
    64
 10
-77.510527
 20
-66.434713
 40
0.216668
  0
ENDBLK
  0
BLOCK
  2
*GRP_0014
 70
    65
 10
0.0
 20
0.0
  0
LINE
  8
補助線
  6
BYBLOCK
 62
    64
 10
-77.576468
 20
-84.017143
 11
-77.444582
 21
-84.119048
  0
LINE
  8
補助線
  6
BYBLOCK
 62
    64
 10
-77.459573
 20
-84.002153
 11
-77.561477
 21
-84.134037
  0
LINE
  8
補助線
  6
BYBLOCK
 62
    64
 10
-88.987093
 20
-75.200453
 11
-88.855207
 21
-75.302355
  0
LINE
  8
補助線
  6
BYBLOCK
 62
    64
 10
-88.870197
 20
-75.18546
 11
-88.9721
 21
-75.317345
  0
LINE
  8
補助線
  6
BYBLOCK
 62
    64
 10
-100.265835
 20
-66.485665
 11
-100.397715
 21
-66.38376
  0
LINE
  8
補助線
  6
BYBLOCK
 62
    64
 10
-100.280822
 20
-66.368768
 11
-100.382725
 21
-66.500655
  0
LINE
  8
型材断面
  6
CONTINUOUS
 10
-76.73724
 20
-83.61248
 11
-76.647297
 21
-84.313845
  0
LINE
  8
型材断面
  6
CONTINUOUS
 10
-76.647297
 20
-84.313845
 11
-77.054912
 21
-84.841382
  0
LINE
  8
型材断面
  6
CONTINUOUS
 10
-77.054912
 20
-84.841382
 11
-77.756275
 21
-84.931322
  0
LINE
  8
型材断面
  6
CONTINUOUS
 10
-100.086025
 20
-65.571485
 11
-100.787388
 21
-65.661427
  0
LINE
  8
型材断面
  6
CONTINUOUS
 10
-100.787388
 20
-65.661427
 11
-101.195003
 21
-66.188965
  0
LINE
  8
型材断面
  6
CONTINUOUS
 10
-101.195003
 20
-66.188965
 11
-101.10506
 21
-66.89033
  0
LINE
  8
型材断面
  6
CONTINUOUS
 10
-77.756275
 20
-84.931322
 11
-101.10506
 21
-66.89033
  0
LINE
  8
型材断面
  6
CONTINUOUS
 10
-76.73724
 20
-83.61248
 11
-100.086025
 21
-65.571485
  0
CIRCLE
  8
ボルト／ビス
  6
CONTINUOUS
 10
-77.510525
 20
-84.068095
 40
0.250185
  0
CIRCLE
  8
ボルト／ビス
  6
CONTINUOUS
 10
-77.510525
 20
-84.068095
 40
0.301025
  0
LINE
  8
ボルト／ビス
  6
CONTINUOUS
 62
    64
 10
-77.26259
 20
-84.101585
 11
-77.357555
 21
-83.870122
  0
LINE
  8
ボルト／ビス
  6
CONTINUOUS
 62
    64
 10
-77.60549
 20
-83.836632
 11
-77.357555
 21
-83.870122
  0
LINE
  8
ボルト／ビス
  6
CONTINUOUS
 62
    64
 10
-77.41556
 20
-84.299557
 11
-77.663495
 21
-84.266068
  0
LINE
  8
ボルト／ビス
  6
CONTINUOUS
 62
    64
 10
-77.75846
 20
-84.034605
 11
-77.663495
 21
-84.266068
  0
LINE
  8
ボルト／ビス
  6
CONTINUOUS
 62
    64
 10
-77.26259
 20
-84.101585
 11
-77.41556
 21
-84.299557
  0
LINE
  8
ボルト／ビス
  6
CONTINUOUS
 62
    64
 10
-77.60549
 20
-83.836632
 11
-77.75846
 21
-84.034605
  0
CIRCLE
  8
ボルト／ビス
  6
CONTINUOUS
 62
    64
 10
-77.510525
 20
-84.068095
 40
0.216668
  0
CIRCLE
  8
ボルト／ビス
  6
CONTINUOUS
 10
-88.92115
 20
-75.251405
 40
0.250185
  0
CIRCLE
  8
ボルト／ビス
  6
CONTINUOUS
 10
-88.92115
 20
-75.251405
 40
0.301025
  0
LINE
  8
ボルト／ビス
  6
CONTINUOUS
 62
    64
 10
-88.673215
 20
-75.284893
 11
-88.76818
 21
-75.053432
  0
LINE
  8
ボルト／ビス
  6
CONTINUOUS
 62
    64
 10
-89.016115
 20
-75.019942
 11
-88.76818
 21
-75.053432
  0
LINE
  8
ボルト／ビス
  6
CONTINUOUS
 62
    64
 10
-88.826182
 20
-75.482865
 11
-89.074118
 21
-75.449375
  0
LINE
  8
ボルト／ビス
  6
CONTINUOUS
 62
    64
 10
-89.169085
 20
-75.217915
 11
-89.074118
 21
-75.449375
  0
LINE
  8
ボルト／ビス
  6
CONTINUOUS
 62
    64
 10
-88.673215
 20
-75.284893
 11
-88.826182
 21
-75.482865
  0
LINE
  8
ボルト／ビス
  6
CONTINUOUS
 62
    64
 10
-89.016115
 20
-75.019942
 11
-89.169085
 21
-75.217915
  0
CIRCLE
  8
ボルト／ビス
  6
CONTINUOUS
 62
    64
 10
-88.92115
 20
-75.251405
 40
0.216668
  0
CIRCLE
  8
ボルト／ビス
  6
CONTINUOUS
 10
-100.331772
 20
-66.434713
 40
0.250185
  0
CIRCLE
  8
ボルト／ビス
  6
CONTINUOUS
 10
-100.331772
 20
-66.434713
 40
0.301025
  0
LINE
  8
ボルト／ビス
  6
CONTINUOUS
 62
    64
 10
-100.42674
 20
-66.20325
 11
-100.178808
 21
-66.23674
  0
LINE
  8
ボルト／ビス
  6
CONTINUOUS
 62
    64
 10
-100.083842
 20
-66.468203
 11
-100.178808
 21
-66.23674
  0
LINE
  8
ボルト／ビス
  6
CONTINUOUS
 62
    64
 10
-100.579708
 20
-66.401223
 11
-100.484743
 21
-66.632685
  0
LINE
  8
ボルト／ビス
  6
CONTINUOUS
 62
    64
 10
-100.236808
 20
-66.666175
 11
-100.484743
 21
-66.632685
  0
LINE
  8
ボルト／ビス
  6
CONTINUOUS
 62
    64
 10
-100.42674
 20
-66.20325
 11
-100.579708
 21
-66.401223
  0
LINE
  8
ボルト／ビス
  6
CONTINUOUS
 62
    64
 10
-100.083842
 20
-66.468203
 11
-100.236808
 21
-66.666175
  0
CIRCLE
  8
ボルト／ビス
  6
CONTINUOUS
 62
    64
 10
-100.331772
 20
-66.434713
 40
0.216668
  0
ENDBLK
  0
BLOCK
  2
*DIM_0015
 70
    65
 10
0.0
 20
0.0
  0
LINE
  8
寸法
  6
CONTINUOUS
 10
-111.998448
 20
-22.024302
 11
-114.76178
 21
-22.024302
  0
POINT
  8
寸法
 10
-111.998448
 20
-22.024302
  0
POINT
  8
寸法
 10
-114.76178
 20
-22.024302
  0
TEXT
  7
TextStyle03
  8
寸法
  6
CONTINUOUS
 10
-119.33125
 20
-21.1
  1
82.9
 40
3.0
 72
     5
 11
-112.76875
 21
-21.1
  0
ENDBLK
  0
BLOCK
  2
*DIM_0016
 70
    65
 10
0.0
 20
0.0
  0
LINE
  8
寸法
  6
CONTINUOUS
 10
24.098225
 20
-22.024302
 11
21.33489
 21
-22.024302
  0
POINT
  8
寸法
 10
24.098225
 20
-22.024302
  0
POINT
  8
寸法
 10
21.33489
 20
-22.024302
  0
TEXT
  7
TextStyle03
  8
寸法
  6
CONTINUOUS
 10
22.39375
 20
-21.15
  1
82.9
 40
3.0
 72
     5
 11
28.95625
 21
-21.15
  0
ENDBLK
  0
BLOCK
  2
*DIM_0017
 70
    65
 10
0.0
 20
0.0
  0
LINE
  8
寸法
  6
CONTINUOUS
 10
-111.998442
 20
-22.024302
 11
21.33489
 21
-22.024302
  0
POINT
  8
寸法
 10
-111.998442
 20
-22.024302
  0
POINT
  8
寸法
 10
21.33489
 20
-22.024302
  0
TEXT
  7
TextStyle03
  8
寸法
  6
CONTINUOUS
 10
-57.06875
 20
-21.675
  1
呼称寸法　4000
 40
3.0
 72
     5
 11
-33.63125
 21
-21.675
  0
ENDBLK
  0
BLOCK
  2
*DIM_0018
 70
    65
 10
0.0
 20
0.0
  0
LINE
  8
寸法
  6
CONTINUOUS
 10
55.35454
 20
59.495565
 11
55.35454
 21
56.73238
  0
POINT
  8
寸法
 10
55.35454
 20
59.495565
  0
POINT
  8
寸法
 10
55.35454
 20
56.73238
  0
TEXT
  7
TextStyle03
  8
寸法
  6
CONTINUOUS
 10
56.75
 20
60.54375
  1
82.9
 40
3.0
 50
90.0
 72
     5
 11
56.75
 21
67.10625
  0
ENDBLK
  0
BLOCK
  2
*DIM_0019
 70
    65
 10
0.0
 20
0.0
  0
LINE
  8
寸法
  6
CONTINUOUS
 10
55.35454
 20
13.399048
 11
55.35454
 21
10.63586
  0
POINT
  8
寸法
 10
55.35454
 20
13.399048
  0
POINT
  8
寸法
 10
55.35454
 20
10.63586
  0
TEXT
  7
TextStyle03
  8
寸法
  6
CONTINUOUS
 10
56.75
 20
2.99375
  1
82.9
 40
3.0
 50
90.0
 72
     5
 11
56.75
 21
9.55625
  0
ENDBLK
  0
BLOCK
  2
*DIM_0020
 70
    65
 10
0.0
 20
0.0
  0
LINE
  8
寸法
  6
CONTINUOUS
 10
55.35454
 20
56.73238
 11
55.35454
 21
13.399048
  0
POINT
  8
寸法
 10
55.35454
 20
56.73238
  0
POINT
  8
寸法
 10
55.35454
 20
13.399048
  0
TEXT
  7
TextStyle03
  8
寸法
  6
CONTINUOUS
 10
54.975
 20
24.175
  1
呼称寸法=1300
 40
3.0
 50
90.0
 72
     5
 11
54.975
 21
45.925
  0
ENDBLK
  0
BLOCK
  2
*DIM_0021
 70
    65
 10
0.0
 20
0.0
  0
LINE
  8
寸法
  6
CONTINUOUS
 10
116.421445
 20
-40.456
 11
83.988112
 21
-40.456
  0
POINT
  8
寸法
 10
116.421445
 20
-40.456
  0
POINT
  8
寸法
 10
83.988112
 20
-40.456
  0
TEXT
  7
TextStyle03
  8
寸法
  6
CONTINUOUS
 10
97.7625
 20
-40.1
  1
973
 40
3.0
 72
     5
 11
102.6375
 21
-40.1
  0
ENDBLK
  0
BLOCK
  2
*DIM_0022
 70
    65
 10
0.0
 20
0.0
  0
LINE
  8
寸法
  6
BYBLOCK
 62
     0
 10
40.511713
 20
-78.49138
 11
40.511713
 21
-63.49138
  0
POINT
  8
寸法
 62
     0
 10
40.511713
 20
-78.49138
  0
POINT
  8
寸法
 62
     0
 10
40.511713
 20
-63.49138
  0
TEXT
  7
TextStyle03
  8
寸法
  6
CONTINUOUS
 62
     0
 10
39.85
 20
-60.96875
  1
上昇426以上
 40
3.0
 50
90.0
 72
     5
 11
39.85
 21
-42.78125
  0
ENDBLK
  0
BLOCK
  2
*DIM_0023
 70
    65
 10
0.0
 20
0.0
  0
LINE
  8
寸法
  6
BYBLOCK
 62
     0
 10
110.251605
 20
65.733497
 11
95.251605
 21
65.733497
  0
POINT
  8
寸法
 62
     0
 10
110.251605
 20
65.733497
  0
POINT
  8
寸法
 62
     0
 10
95.251605
 20
65.733497
  0
TEXT
  7
TextStyle03
  8
寸法
  6
CONTINUOUS
 62
     0
 10
72.73125
 20
64.65
  1
上昇426以上
 40
3.0
 72
     5
 11
90.91875
 21
64.65
  0
ENDBLK
  0
BLOCK
  2
*DIM_0024
 70
    65
 10
0.0
 20
0.0
  0
LINE
  8
寸法
  6
CONTINUOUS
 10
121.421445
 20
-49.867045
 11
130.133017
 21
-49.867045
  0
LINE
  8
寸法
  6
CONTINUOUS
 10
121.421445
 20
-93.20038
 11
130.133017
 21
-93.20038
  0
LINE
  8
寸法
  6
CONTINUOUS
 10
130.133017
 20
-49.867045
 11
130.133017
 21
-93.20038
  0
POINT
  8
寸法
 10
130.133017
 20
-49.867045
  0
POINT
  8
寸法
 10
130.133017
 20
-93.20038
  0
TEXT
  7
TextStyle03
  8
寸法
  6
CONTINUOUS
 10
129.75
 20
-74.83125
  1
1300
 40
3.0
 50
90.0
 72
     5
 11
129.75
 21
-68.26875
  0
ENDBLK
  0
BLOCK
  2
*DIM_0025
 70
    65
 10
0.0
 20
0.0
  0
LINE
  8
寸法
  6
CONTINUOUS
 10
110.251605
 20
61.73238
 11
110.251605
 21
65.733497
  0
LINE
  8
寸法
  6
CONTINUOUS
 10
118.368158
 20
61.73238
 11
118.368158
 21
65.733497
  0
LINE
  8
寸法
  6
CONTINUOUS
 10
110.251605
 20
65.733497
 11
118.368158
 21
65.733497
  0
POINT
  8
寸法
 10
110.251605
 20
65.733497
  0
POINT
  8
寸法
 10
118.368158
 20
65.733497
  0
TEXT
  7
TextStyle03
  8
寸法
  6
CONTINUOUS
 10
110.2
 20
66.075
  1
243.5
 40
3.0
 72
     5
 11
118.45
 21
66.075
  0
ENDBLK
  0
BLOCK
  2
*DIM_0026
 70
    65
 10
0.0
 20
0.0
  0
LINE
  8
寸法
  6
CONTINUOUS
 10
28.010403
 20
-78.49138
 11
40.511713
 21
-78.49138
  0
LINE
  8
寸法
  6
CONTINUOUS
 10
29.098228
 20
-86.607932
 11
40.511713
 21
-86.607932
  0
LINE
  8
寸法
  6
CONTINUOUS
 10
40.511713
 20
-78.49138
 11
40.511713
 21
-86.607932
  0
POINT
  8
寸法
 10
40.511713
 20
-78.49138
  0
POINT
  8
寸法
 10
40.511713
 20
-86.607932
  0
TEXT
  7
TextStyle03
  8
寸法
  6
CONTINUOUS
 10
43.55
 20
-86.675
  1
243.5
 40
3.0
 50
90.0
 72
     5
 11
43.55
 21
-78.425
  0
ENDBLK
  0
ENDSEC
  0
SECTION
  2
ENTITIES
  0
POLYLINE
  8
通り芯
  6
CONTINUOUS
 66
     1
 70
     1
  0
VERTEX
  8
通り芯
 10
-210.0
 20
-148.5
  0
VERTEX
  8
通り芯
 10
210.0
 20
-148.5
  0
VERTEX
  8
通り芯
 10
210.0
 20
148.5
  0
VERTEX
  8
通り芯
 10
-210.0
 20
148.5
  0
SEQEND
  0
INSERT
  2
*GRP_0001
  8
型材断面
  6
CONTINUOUS
 10
0.0
 20
0.0
  0
LINE
  8
型材断面
  6
DASHDOT
 10
21.33489
 20
-87.251428
 11
21.33489
 21
56.73238
  0
LINE
  8
型材断面
  6
DASHDOT
 10
-45.331778
 20
-87.251428
 11
-45.331778
 21
56.73238
  0
LINE
  8
型材断面
  6
DASHDOT
 10
-111.998442
 20
-87.251428
 11
-111.998442
 21
56.73238
  0
LINE
  8
型材断面
  6
DASHDOT
 10
119.011652
 20
13.399048
 11
-111.998442
 21
13.399048
  0
LINE
  8
型材断面
  6
DASHDOT
 10
119.011652
 20
56.73238
 11
-111.998442
 21
56.73238
  0
LINE
  8
型材断面
  6
DASHDOT
 10
119.011652
 20
35.065715
 11
-111.998442
 21
35.065715
  0
POLYLINE
  8
型材断面
  6
CONTINUOUS
 66
     1
 70
     1
  0
VERTEX
  8
型材断面
 10
-35.727048
 20
66.508305
  0
VERTEX
  8
型材断面
 10
-54.498978
 20
66.508305
  0
VERTEX
  8
型材断面
 10
-54.498978
 20
71.245147
  0
VERTEX
  8
型材断面
 10
-35.727048
 20
71.245147
  0
SEQEND
  0
POLYLINE
  8
型材断面
  6
CONTINUOUS
 66
     1
 70
     1
  0
VERTEX
  8
型材断面
 10
-35.727048
 20
3.623125
  0
VERTEX
  8
型材断面
 10
-54.498978
 20
3.623125
  0
VERTEX
  8
型材断面
 10
-54.498978
 20
-1.113717
  0
VERTEX
  8
型材断面
 10
-35.727048
 20
-1.113717
  0
SEQEND
  0
LINE
  8
型材断面
  6
DASHDOT
 10
-45.331778
 20
13.399048
 11
-45.331778
 21
56.73238
  0
LINE
  8
型材断面
  6
CONTINUOUS
 10
-152.85065
 20
94.709852
 11
-152.254595
 21
92.119345
  0
LINE
  8
型材断面
  6
CONTINUOUS
 10
-152.85065
 20
94.709852
 11
-153.446707
 21
92.119345
  0
LINE
  8
型材断面
  6
CONTINUOUS
 10
-153.446707
 20
92.119345
 11
-152.254595
 21
92.119345
  0
LINE
  8
型材断面
  6
CONTINUOUS
 10
-158.873237
 20
88.840452
 11
-112.63146
 21
88.840452
  0
LINE
  8
型材断面
  6
CONTINUOUS
 10
-152.85065
 20
101.239727
 11
-154.34628
 21
98.64922
  0
LINE
  8
型材断面
  6
CONTINUOUS
 10
-152.85065
 20
101.239727
 11
-151.35502
 21
98.64922
  0
LINE
  8
型材断面
  6
CONTINUOUS
 10
-151.35502
 20
98.64922
 11
-154.34628
 21
98.64922
  0
LINE
  8
型材断面
  6
CONTINUOUS
 10
-158.873237
 20
97.710625
 11
-112.63146
 21
97.710625
  0
LINE
  8
型材断面
  6
CONTINUOUS
 10
-158.873237
 20
83.05242
 11
-112.63146
 21
83.05242
  0
LINE
  8
型材断面
  6
CONTINUOUS
 10
-158.873237
 20
77.264387
 11
-112.63146
 21
77.264387
  0
INSERT
  2
*GRP_0011
  8
型材断面
  6
CONTINUOUS
 10
0.0
 20
0.0
  0
INSERT
  2
*GRP_0012
  8
型材断面
  6
CONTINUOUS
 10
0.0
 20
0.0
  0
INSERT
  2
*GRP_0013
  8
型材断面
  6
CONTINUOUS
 10
0.0
 20
0.0
  0
INSERT
  2
*GRP_0014
  8
型材断面
  6
CONTINUOUS
 10
0.0
 20
0.0
  0
LINE
  8
型材断面
  6
CONTINUOUS
 10
24.098225
 20
10.63586
 11
-114.76178
 21
10.63586
  0
LINE
  8
型材断面
  6
CONTINUOUS
 10
24.098225
 20
59.495565
 11
-114.76178
 21
59.495565
  0
LINE
  8
型材断面
  6
CONTINUOUS
 10
-114.76178
 20
35.065712
 11
-117.352287
 21
36.561342
  0
LINE
  8
型材断面
  6
CONTINUOUS
 10
-114.76178
 20
35.065712
 11
-117.352287
 21
33.570082
  0
LINE
  8
型材断面
  6
CONTINUOUS
 10
-117.352287
 20
33.570082
 11
-117.352287
 21
36.561342
  0
LINE
  8
型材断面
  6
CONTINUOUS
 10
-114.761783
 20
53.03238
 11
-117.352293
 21
52.436327
  0
LINE
  8
型材断面
  6
CONTINUOUS
 10
-114.761783
 20
53.03238
 11
-117.35229
 21
53.62844
  0
LINE
  8
型材断面
  6
CONTINUOUS
 10
-117.35229
 20
53.62844
 11
-117.352293
 21
52.436327
  0
LINE
  8
型材断面
  6
CONTINUOUS
 10
-114.761783
 20
17.099045
 11
-117.352293
 21
17.695097
  0
LINE
  8
型材断面
  6
CONTINUOUS
 10
-114.761783
 20
17.099045
 11
-117.35229
 21
16.502985
  0
LINE
  8
型材断面
  6
CONTINUOUS
 10
-117.35229
 20
16.502985
 11
-117.352293
 21
17.695097
  0
LINE
  8
型材断面
  6
CONTINUOUS
 10
-95.331775
 20
59.495565
 11
-96.827405
 21
62.086073
  0
LINE
  8
型材断面
  6
CONTINUOUS
 10
-95.331775
 20
59.495565
 11
-93.836145
 21
62.086073
  0
LINE
  8
型材断面
  6
CONTINUOUS
 10
-93.836145
 20
62.086073
 11
-96.827405
 21
62.086073
  0
LINE
  8
型材断面
  6
CONTINUOUS
 10
4.66822
 20
59.495565
 11
6.16385
 21
62.086073
  0
LINE
  8
型材断面
  6
CONTINUOUS
 10
4.66822
 20
59.495565
 11
3.17259
 21
62.086073
  0
LINE
  8
型材断面
  6
CONTINUOUS
 10
3.17259
 20
62.086073
 11
6.16385
 21
62.086073
  0
LINE
  8
型材断面
  6
CONTINUOUS
 10
24.098225
 20
35.065715
 11
26.688732
 21
36.561345
  0
LINE
  8
型材断面
  6
CONTINUOUS
 10
24.098225
 20
35.065715
 11
26.688732
 21
33.570085
  0
LINE
  8
型材断面
  6
CONTINUOUS
 10
26.688732
 20
33.570085
 11
26.688732
 21
36.561345
  0
LINE
  8
型材断面
  6
CONTINUOUS
 10
24.098228
 20
53.032382
 11
26.688738
 21
52.43633
  0
LINE
  8
型材断面
  6
CONTINUOUS
 10
24.098228
 20
53.032382
 11
26.688735
 21
53.628442
  0
LINE
  8
型材断面
  6
CONTINUOUS
 10
26.688735
 20
53.628442
 11
26.688738
 21
52.43633
  0
LINE
  8
型材断面
  6
CONTINUOUS
 10
24.098228
 20
17.099048
 11
26.688738
 21
17.6951
  0
LINE
  8
型材断面
  6
CONTINUOUS
 10
24.098228
 20
17.099048
 11
26.688735
 21
16.502988
  0
LINE
  8
型材断面
  6
CONTINUOUS
 10
26.688735
 20
16.502988
 11
26.688738
 21
17.6951
  0
LINE
  8
型材断面
  6
CONTINUOUS
 10
-95.331775
 20
10.63586
 11
-96.827405
 21
8.045353
  0
LINE
  8
型材断面
  6
CONTINUOUS
 10
-95.331775
 20
10.63586
 11
-93.836145
 21
8.045353
  0
LINE
  8
型材断面
  6
CONTINUOUS
 10
-93.836145
 20
8.045353
 11
-96.827405
 21
8.045353
  0
LINE
  8
型材断面
  6
CONTINUOUS
 10
4.66822
 20
10.63586
 11
6.16385
 21
8.045353
  0
LINE
  8
型材断面
  6
CONTINUOUS
 10
4.66822
 20
10.63586
 11
3.17259
 21
8.045353
  0
LINE
  8
型材断面
  6
CONTINUOUS
 10
3.17259
 20
8.045353
 11
6.16385
 21
8.045353
  0
LINE
  8
型材断面
  6
DASHDOT
 10
-78.955108
 20
13.399048
 11
-78.955108
 21
56.73238
  0
LINE
  8
型材断面
  6
DASHDOT
 10
-11.708447
 20
13.399048
 11
-11.708447
 21
56.73238
  0
LINE
  8
型材断面
  6
CONTINUOUS
 10
-10.458447
 20
14.899048
 11
-12.958447
 21
14.89905
  0
LINE
  8
型材断面
  6
CONTINUOUS
 10
-10.458447
 20
55.232382
 11
-12.958447
 21
55.23238
  0
LINE
  8
型材断面
  6
CONTINUOUS
 10
-10.458447
 20
14.899048
 11
-10.458447
 21
55.232382
  0
LINE
  8
型材断面
  6
CONTINUOUS
 10
-12.958447
 20
14.89905
 11
-12.958447
 21
55.23238
  0
LINE
  8
型材断面
  6
CONTINUOUS
 10
-44.081778
 20
14.899048
 11
-46.581778
 21
14.89905
  0
LINE
  8
型材断面
  6
CONTINUOUS
 10
-44.081778
 20
55.232382
 11
-46.581778
 21
55.23238
  0
LINE
  8
型材断面
  6
CONTINUOUS
 10
-44.081778
 20
14.899048
 11
-44.081778
 21
55.232382
  0
LINE
  8
型材断面
  6
CONTINUOUS
 10
-46.581778
 20
14.89905
 11
-46.581778
 21
55.23238
  0
LINE
  8
型材断面
  6
CONTINUOUS
 10
-77.705108
 20
14.899048
 11
-80.205108
 21
14.89905
  0
LINE
  8
型材断面
  6
CONTINUOUS
 10
-77.705108
 20
55.232382
 11
-80.205108
 21
55.23238
  0
LINE
  8
型材断面
  6
CONTINUOUS
 10
-77.705108
 20
14.899048
 11
-77.705108
 21
55.232382
  0
LINE
  8
型材断面
  6
CONTINUOUS
 10
-80.205108
 20
14.89905
 11
-80.205108
 21
55.23238
  0
LINE
  8
型材断面
  6
CONTINUOUS
 10
4.396555
 20
14.065705
 11
4.396555
 21
11.565705
  0
LINE
  8
型材断面
  6
CONTINUOUS
 10
5.22989
 20
14.065705
 11
5.22989
 21
11.565705
  0
LINE
  8
型材断面
  6
CONTINUOUS
 10
-28.93678
 20
14.065705
 11
-28.93678
 21
11.565705
  0
LINE
  8
型材断面
  6
CONTINUOUS
 10
-28.103445
 20
14.065705
 11
-28.103445
 21
11.565705
  0
LINE
  8
型材断面
  6
CONTINUOUS
 10
4.396555
 20
56.065725
 11
4.396555
 21
58.565725
  0
LINE
  8
型材断面
  6
CONTINUOUS
 10
5.22989
 20
56.065725
 11
5.22989
 21
58.565725
  0
LINE
  8
型材断面
  6
CONTINUOUS
 10
-28.93678
 20
56.065725
 11
-28.93678
 21
58.565725
  0
LINE
  8
型材断面
  6
CONTINUOUS
 10
-28.103445
 20
56.065725
 11
-28.103445
 21
58.565725
  0
LINE
  8
型材断面
  6
CONTINUOUS
 10
4.396555
 20
14.065705
 11
-28.103445
 21
14.06573
  0
LINE
  8
型材断面
  6
CONTINUOUS
 10
-28.93678
 20
14.06573
 11
-45.331778
 21
14.065742
  0
LINE
  8
型材断面
  6
CONTINUOUS
 10
4.396555
 20
56.065725
 11
-28.103445
 21
56.0657
  0
LINE
  8
型材断面
  6
CONTINUOUS
 10
-28.93678
 20
56.0657
 11
-45.331778
 21
56.065688
  0
LINE
  8
型材断面
  6
CONTINUOUS
 10
24.098228
 20
10.63586
 11
24.098228
 21
59.495565
  0
LINE
  8
型材断面
  6
CONTINUOUS
 10
22.932547
 20
11.565692
 11
23.168247
 21
11.801392
  0
LINE
  8
型材断面
  6
CONTINUOUS
 10
20.432545
 20
14.065692
 11
20.668245
 21
14.301392
  0
LINE
  8
型材断面
  6
CONTINUOUS
 10
20.668245
 20
14.301392
 11
23.168247
 21
11.801392
  0
LINE
  8
型材断面
  6
CONTINUOUS
 10
23.168217
 20
35.065715
 11
23.168247
 21
11.801392
  0
LINE
  8
型材断面
  6
CONTINUOUS
 10
20.432545
 20
14.065692
 11
22.932547
 21
11.565692
  0
LINE
  8
型材断面
  6
CONTINUOUS
 10
24.09808
 20
10.63586
 11
23.050395
 21
11.68354
  0
LINE
  8
型材断面
  6
CONTINUOUS
 10
20.668217
 20
34.649048
 11
23.168217
 21
34.649048
  0
LINE
  8
型材断面
  6
CONTINUOUS
 10
20.668217
 20
35.482382
 11
23.168217
 21
35.482382
  0
LINE
  8
型材断面
  6
CONTINUOUS
 10
20.668217
 20
34.649048
 11
20.668245
 21
14.301392
  0
LINE
  8
型材断面
  6
CONTINUOUS
 10
22.932547
 20
58.565738
 11
23.168247
 21
58.330038
  0
LINE
  8
型材断面
  6
CONTINUOUS
 10
20.432545
 20
56.065738
 11
20.668245
 21
55.830038
  0
LINE
  8
型材断面
  6
CONTINUOUS
 10
20.432545
 20
56.065738
 11
22.932547
 21
58.565738
  0
LINE
  8
型材断面
  6
CONTINUOUS
 10
24.09808
 20
59.49557
 11
23.050395
 21
58.44789
  0
LINE
  8
型材断面
  6
CONTINUOUS
 10
20.668245
 20
55.830038
 11
23.168247
 21
58.330038
  0
LINE
  8
型材断面
  6
CONTINUOUS
 10
23.168217
 20
35.065715
 11
23.168247
 21
58.330038
  0
LINE
  8
型材断面
  6
CONTINUOUS
 10
20.668217
 20
35.482382
 11
20.668245
 21
55.830038
  0
LINE
  8
型材断面
  6
CONTINUOUS
 10
-45.331778
 20
58.565688
 11
22.932547
 21
58.565738
  0
LINE
  8
型材断面
  6
CONTINUOUS
 10
5.22989
 20
56.065725
 11
20.432545
 21
56.065738
  0
LINE
  8
型材断面
  6
CONTINUOUS
 10
5.22989
 20
14.065705
 11
20.432545
 21
14.065692
  0
LINE
  8
型材断面
  6
CONTINUOUS
 10
-45.331778
 20
11.565742
 11
22.932547
 21
11.565692
  0
LINE
  8
型材断面
  6
DASHDOT
 10
-78.955108
 20
13.399048
 11
-78.955108
 21
56.73238
  0
LINE
  8
型材断面
  6
CONTINUOUS
 10
-80.205108
 20
14.899048
 11
-77.705108
 21
14.89905
  0
LINE
  8
型材断面
  6
CONTINUOUS
 10
-80.205108
 20
55.232382
 11
-77.705108
 21
55.23238
  0
LINE
  8
型材断面
  6
CONTINUOUS
 10
-80.205108
 20
14.899048
 11
-80.205108
 21
55.232382
  0
LINE
  8
型材断面
  6
CONTINUOUS
 10
-77.705108
 20
14.89905
 11
-77.705108
 21
55.23238
  0
LINE
  8
型材断面
  6
CONTINUOUS
 10
-95.06011
 20
14.065705
 11
-95.06011
 21
11.565705
  0
LINE
  8
型材断面
  6
CONTINUOUS
 10
-95.893445
 20
14.065705
 11
-95.893445
 21
11.565705
  0
LINE
  8
型材断面
  6
CONTINUOUS
 10
-61.726775
 20
14.065705
 11
-61.726775
 21
11.565705
  0
LINE
  8
型材断面
  6
CONTINUOUS
 10
-62.56011
 20
14.065705
 11
-62.56011
 21
11.565705
  0
LINE
  8
型材断面
  6
CONTINUOUS
 10
-95.06011
 20
56.065725
 11
-95.06011
 21
58.565725
  0
LINE
  8
型材断面
  6
CONTINUOUS
 10
-95.893445
 20
56.065725
 11
-95.893445
 21
58.565725
  0
LINE
  8
型材断面
  6
CONTINUOUS
 10
-61.726775
 20
56.065725
 11
-61.726775
 21
58.565725
  0
LINE
  8
型材断面
  6
CONTINUOUS
 10
-62.56011
 20
56.065725
 11
-62.56011
 21
58.565725
  0
LINE
  8
型材断面
  6
CONTINUOUS
 10
-95.06011
 20
14.065705
 11
-62.56011
 21
14.06573
  0
LINE
  8
型材断面
  6
CONTINUOUS
 10
-95.06011
 20
56.065725
 11
-62.56011
 21
56.0657
  0
LINE
  8
型材断面
  6
CONTINUOUS
 10
-114.761783
 20
10.63586
 11
-114.761783
 21
59.495565
  0
LINE
  8
型材断面
  6
CONTINUOUS
 10
-113.596102
 20
11.565692
 11
-113.831802
 21
11.801392
  0
LINE
  8
型材断面
  6
CONTINUOUS
 10
-111.0961
 20
14.065692
 11
-111.3318
 21
14.301392
  0
LINE
  8
型材断面
  6
CONTINUOUS
 10
-111.3318
 20
14.301392
 11
-113.831802
 21
11.801392
  0
LINE
  8
型材断面
  6
CONTINUOUS
 10
-113.831772
 20
35.065715
 11
-113.831802
 21
11.801392
  0
LINE
  8
型材断面
  6
CONTINUOUS
 10
-111.0961
 20
14.065692
 11
-113.596102
 21
11.565692
  0
LINE
  8
型材断面
  6
CONTINUOUS
 10
-114.761635
 20
10.63586
 11
-113.71395
 21
11.68354
  0
LINE
  8
型材断面
  6
CONTINUOUS
 10
-111.331772
 20
34.649048
 11
-113.831772
 21
34.649048
  0
LINE
  8
型材断面
  6
CONTINUOUS
 10
-111.331772
 20
35.482382
 11
-113.831772
 21
35.482382
  0
LINE
  8
型材断面
  6
CONTINUOUS
 10
-111.331772
 20
34.649048
 11
-111.3318
 21
14.301392
  0
LINE
  8
型材断面
  6
CONTINUOUS
 10
-113.596102
 20
58.565738
 11
-113.831802
 21
58.330038
  0
LINE
  8
型材断面
  6
CONTINUOUS
 10
-111.0961
 20
56.065738
 11
-111.3318
 21
55.830038
  0
LINE
  8
型材断面
  6
CONTINUOUS
 10
-111.0961
 20
56.065738
 11
-113.596102
 21
58.565738
  0
LINE
  8
型材断面
  6
CONTINUOUS
 10
-114.761635
 20
59.49557
 11
-113.71395
 21
58.44789
  0
LINE
  8
型材断面
  6
CONTINUOUS
 10
-111.3318
 20
55.830038
 11
-113.831802
 21
58.330038
  0
LINE
  8
型材断面
  6
CONTINUOUS
 10
-113.831772
 20
35.065715
 11
-113.831802
 21
58.330038
  0
LINE
  8
型材断面
  6
CONTINUOUS
 10
-111.331772
 20
35.482382
 11
-111.3318
 21
55.830038
  0
LINE
  8
型材断面
  6
CONTINUOUS
 10
-95.893445
 20
56.065725
 11
-111.0961
 21
56.065738
  0
LINE
  8
型材断面
  6
CONTINUOUS
 10
-95.893445
 20
14.065705
 11
-111.0961
 21
14.065692
  0
LINE
  8
型材断面
  6
CONTINUOUS
 10
-45.331778
 20
14.065742
 11
-61.726775
 21
14.06573
  0
LINE
  8
型材断面
  6
CONTINUOUS
 10
-45.331778
 20
56.065688
 11
-61.726775
 21
56.0657
  0
LINE
  8
型材断面
  6
CONTINUOUS
 10
-45.331778
 20
58.565688
 11
-113.596102
 21
58.565738
  0
LINE
  8
型材断面
  6
CONTINUOUS
 10
-45.331778
 20
11.565742
 11
-113.596102
 21
11.565692
  0
LINE
  8
型材断面
  6
CONTINUOUS
 10
118.368158
 20
58.995567
 11
118.704823
 21
58.995567
  0
LINE
  8
型材断面
  6
CONTINUOUS
 10
114.271608
 20
59.2989
 11
114.468275
 21
59.495567
  0
LINE
  8
型材断面
  6
CONTINUOUS
 10
114.468275
 20
59.495567
 11
118.368158
 21
59.495567
  0
LINE
  8
型材断面
  6
CONTINUOUS
 62
    47
 10
114.271652
 20
59.298942
 11
114.271652
 21
35.065715
  0
LINE
  8
型材断面
  6
CONTINUOUS
 10
114.468275
 20
59.495567
 11
114.468275
 21
35.065715
  0
LINE
  8
型材断面
  6
CONTINUOUS
 10
118.368158
 20
59.495567
 11
118.368158
 21
35.065715
  0
LINE
  8
型材断面
  6
CONTINUOUS
 10
118.704823
 20
58.995567
 11
118.704823
 21
35.065715
  0
LINE
  8
型材断面
  6
CONTINUOUS
 10
118.368158
 20
11.135863
 11
118.704823
 21
11.135863
  0
LINE
  8
型材断面
  6
CONTINUOUS
 10
114.271608
 20
10.83253
 11
114.468275
 21
10.635863
  0
LINE
  8
型材断面
  6
CONTINUOUS
 10
114.468275
 20
10.635863
 11
118.368158
 21
10.635863
  0
LINE
  8
型材断面
  6
CONTINUOUS
 62
    47
 10
114.271652
 20
10.832488
 11
114.271652
 21
35.065715
  0
LINE
  8
型材断面
  6
CONTINUOUS
 10
114.468275
 20
10.635863
 11
114.468275
 21
35.065715
  0
LINE
  8
型材断面
  6
CONTINUOUS
 10
118.368158
 20
10.635863
 11
118.368158
 21
35.065715
  0
LINE
  8
型材断面
  6
CONTINUOUS
 10
118.704823
 20
11.135863
 11
118.704823
 21
35.065715
  0
LINE
  8
型材断面
  6
CONTINUOUS
 10
23.598228
 20
-86.607932
 11
23.598228
 21
-86.944597
  0
LINE
  8
型材断面
  6
CONTINUOUS
 10
23.90156
 20
-82.511383
 11
24.098228
 21
-82.70805
  0
LINE
  8
型材断面
  6
CONTINUOUS
 10
24.098228
 20
-82.70805
 11
24.098228
 21
-86.607932
  0
LINE
  8
型材断面
  6
CONTINUOUS
 10
23.598228
 20
-86.944597
 11
-45.331778
 21
-86.944597
  0
LINE
  8
型材断面
  6
CONTINUOUS
 10
24.098228
 20
-86.607932
 11
-45.331778
 21
-86.607932
  0
LINE
  8
型材断面
  6
CONTINUOUS
 62
    47
 10
23.901603
 20
-82.511427
 11
-45.331778
 21
-82.511427
  0
LINE
  8
型材断面
  6
CONTINUOUS
 10
24.098228
 20
-82.70805
 11
-45.331778
 21
-82.70805
  0
LINE
  8
型材断面
  6
CONTINUOUS
 10
-114.261783
 20
-86.607932
 11
-114.261783
 21
-86.944597
  0
LINE
  8
型材断面
  6
CONTINUOUS
 10
-114.565115
 20
-82.511383
 11
-114.761783
 21
-82.70805
  0
LINE
  8
型材断面
  6
CONTINUOUS
 10
-114.761783
 20
-82.70805
 11
-114.761783
 21
-86.607932
  0
LINE
  8
型材断面
  6
CONTINUOUS
 10
-114.261783
 20
-86.944597
 11
-45.331778
 21
-86.944597
  0
LINE
  8
型材断面
  6
CONTINUOUS
 10
-114.761783
 20
-86.607932
 11
-45.331778
 21
-86.607932
  0
LINE
  8
型材断面
  6
CONTINUOUS
 62
    47
 10
-114.565157
 20
-82.511427
 11
-45.331778
 21
-82.511427
  0
LINE
  8
型材断面
  6
CONTINUOUS
 10
-114.761783
 20
-82.70805
 11
-45.331778
 21
-82.70805
  0
TEXT
  7
TextStyle03
  8
文字
  6
CONTINUOUS
 10
-53.425
 20
67.2
  1
可動装置側
 40
3.0
 72
     5
 11
-36.925
 21
67.2
  0
TEXT
  7
TextStyle03
  8
文字
  6
CONTINUOUS
 10
-53.425
 20
-0.075
  1
可動装置側
 40
3.0
 72
     5
 11
-36.925
 21
-0.075
  0
TEXT
  7
TextStyle03
  8
文字
  6
CONTINUOUS
 10
-150.05
 20
93.325
  1
はケーシング位置を示す
 40
3.0
 72
     5
 11
-113.3
 21
93.325
  0
TEXT
  7
TextStyle03
  8
文字
  6
CONTINUOUS
 10
-150.05
 20
89.95
  1
４ヶ所中1ヶ所に設定
 40
3.0
 72
     5
 11
-118.3625
 21
89.95
  0
TEXT
  7
TextStyle03
  8
文字
  6
CONTINUOUS
 10
-150.05
 20
98.85
  1
は排水穴位置を示す
 40
3.0
 72
     5
 11
-120.05
 21
98.85
  0
TEXT
  7
TextStyle03
  8
文字
  6
CONTINUOUS
 10
-149.55
 20
23.975
  1
アンカーピッチ
 40
3.0
 50
90.0
 72
     5
 11
-149.55
 21
47.225
  0
TEXT
  7
TextStyle03
  8
文字
  6
CONTINUOUS
 10
-103.9
 20
94.75
  1
アンカーピッチ
 40
3.0
 72
     5
 11
-80.65
 21
94.75
  0
TEXT
  7
TextStyle03
  8
文字
  6
CONTINUOUS
 10
-153.775
 20
83.975
  1
アンカー数量　１６ヶ所
 40
3.0
 72
     5
 11
-117.025
 21
83.975
  0
TEXT
  7
TextStyle03
  8
文字
  6
CONTINUOUS
 10
-153.775
 20
78.2
  1
アームユニット数　４ヶ所
 40
3.0
 72
     5
 11
-113.65
 21
78.2
  0
LINE
  8
文字
  6
CONTINUOUS
 10
-114.76178
 20
-80.158047
 11
-114.76178
 21
-22.024302
  0
LINE
  8
文字
  6
CONTINUOUS
 10
24.098225
 20
-80.158047
 11
24.098225
 21
-22.024302
  0
LINE
  8
文字
  6
CONTINUOUS
 10
40.511713
 20
-63.49138
 11
26.892175
 21
-63.49138
  0
LINE
  8
文字
  6
CONTINUOUS
 10
112.463918
 20
59.495565
 11
55.35454
 21
59.495565
  0
LINE
  8
文字
  6
CONTINUOUS
 10
112.463918
 20
10.63586
 11
55.35454
 21
10.63586
  0
LINE
  8
文字
  6
CONTINUOUS
 10
95.251605
 20
65.733497
 11
95.251605
 21
60.820725
  0
LINE
  8
文字
  6
CONTINUOUS
 10
116.421445
 20
-40.456
 11
116.421445
 21
-48.725
  0
LINE
  8
文字
  6
CONTINUOUS
 10
83.988112
 20
-40.456
 11
83.988112
 21
-48.725
  0
TEXT
  7
TextStyle03
  8
文字
  6
CONTINUOUS
 10
97.9
 20
-86.75
  1
網入り6.8t
 40
3.0
 72
     5
 11
114.5875
 21
-86.75
  0
TEXT
  7
TextStyle03
  8
文字
  6
CONTINUOUS
 10
104.575
 20
-91.425
  1
×４枚
 40
3.0
 72
     5
 11
114.325
 21
-91.425
  0
TEXT
  7
TextStyle03
  8
文字
  6
CONTINUOUS
 10
63.975
 20
125.25
  1
シリーズ：ＴＦＦＬ
 40
5.0
 72
     5
 11
113.975
 21
125.25
  0
TEXT
  7
TextStyle03
  8
文字
  6
CONTINUOUS
 10
63.975
 20
119.625
  1
　　　　　（上下可動）1300×4000タイプ
 40
5.0
 72
     5
 11
170.225
 21
119.625
  0
TEXT
  7
TextStyle03
  8
文字
  6
CONTINUOUS
 10
63.975
 20
114.0
  1
図面名　：外観姿図
 40
5.0
 72
     5
 11
113.975
 21
114.0
  0
TEXT
  7
TextStyle03
  8
文字
  6
CONTINUOUS
 10
63.975
 20
108.375
  1
　　　　　　
 40
5.0
 72
     5
 11
97.1
 21
108.375
  0
TEXT
  7
TextStyle03
  8
文字
  6
CONTINUOUS
 10
64.125
 20
104.525
  1
ＮＳコード：ＮＳＦＬ
 40
5.0
 72
     5
 11
119.75
 21
104.525
  0
INSERT
  2
*DIM_0002
  8
寸法
  6
CONTINUOUS
 10
0.0
 20
0.0
  0
INSERT
  2
*DIM_0003
  8
寸法
  6
CONTINUOUS
 10
0.0
 20
0.0
  0
INSERT
  2
*DIM_0004
  8
寸法
  6
CONTINUOUS
 10
0.0
 20
0.0
  0
INSERT
  2
*DIM_0005
  8
寸法
  6
CONTINUOUS
 10
0.0
 20
0.0
  0
INSERT
  2
*DIM_0006
  8
寸法
  6
CONTINUOUS
 10
0.0
 20
0.0
  0
INSERT
  2
*DIM_0007
  8
寸法
  6
CONTINUOUS
 10
0.0
 20
0.0
  0
INSERT
  2
*DIM_0008
  8
寸法
  6
CONTINUOUS
 10
0.0
 20
0.0
  0
INSERT
  2
*DIM_0009
  8
寸法
  6
CONTINUOUS
 10
0.0
 20
0.0
  0
INSERT
  2
*DIM_0010
  8
寸法
  6
CONTINUOUS
 10
0.0
 20
0.0
  0
INSERT
  2
*DIM_0015
  8
寸法
  6
CONTINUOUS
 10
0.0
 20
0.0
  0
INSERT
  2
*DIM_0016
  8
寸法
  6
CONTINUOUS
 10
0.0
 20
0.0
  0
INSERT
  2
*DIM_0017
  8
寸法
  6
CONTINUOUS
 10
0.0
 20
0.0
  0
INSERT
  2
*DIM_0018
  8
寸法
  6
CONTINUOUS
 10
0.0
 20
0.0
  0
INSERT
  2
*DIM_0019
  8
寸法
  6
CONTINUOUS
 10
0.0
 20
0.0
  0
INSERT
  2
*DIM_0020
  8
寸法
  6
CONTINUOUS
 10
0.0
 20
0.0
  0
INSERT
  2
*DIM_0021
  8
寸法
  6
CONTINUOUS
 10
0.0
 20
0.0
  0
INSERT
  2
*DIM_0022
  8
寸法
  6
CONTINUOUS
 10
0.0
 20
0.0
  0
INSERT
  2
*DIM_0023
  8
寸法
  6
CONTINUOUS
 10
0.0
 20
0.0
  0
INSERT
  2
*DIM_0024
  8
寸法
  6
CONTINUOUS
 10
0.0
 20
0.0
  0
INSERT
  2
*DIM_0025
  8
寸法
  6
CONTINUOUS
 10
0.0
 20
0.0
  0
INSERT
  2
*DIM_0026
  8
寸法
  6
CONTINUOUS
 10
0.0
 20
0.0
  0
LINE
  8
別途部材
  6
CONTINUOUS
 62
    47
 10
-113.831783
 20
-78.59138
 11
-113.831783
 21
-78.658047
  0
ARC
  8
別途部材
  6
CONTINUOUS
 62
    47
 10
-113.73178
 20
-78.591384
 40
0.1
 50
90.0
 51
180.0
  0
LINE
  8
別途部材
  6
CONTINUOUS
 62
    47
 10
-113.67526
 20
-78.658047
 11
-113.67526
 21
-80.158047
  0
LINE
  8
別途部材
  6
CONTINUOUS
 62
    47
 10
23.168227
 20
-78.59138
 11
23.168227
 21
-78.658047
  0
ARC
  8
別途部材
  6
CONTINUOUS
 62
    47
 10
23.068222
 20
-78.591384
 40
0.1
 50
0.0
 51
90.0
  0
LINE
  8
別途部材
  6
CONTINUOUS
 62
    47
 10
23.011705
 20
-78.658047
 11
23.011705
 21
-80.158047
  0
LINE
  8
別途部材
  6
CONTINUOUS
 62
    47
 10
-113.67526
 20
-80.158047
 11
-45.331778
 21
-80.158047
  0
LINE
  8
別途部材
  6
CONTINUOUS
 62
    47
 10
-113.731783
 20
-78.49138
 11
-45.331778
 21
-78.49138
  0
LINE
  8
別途部材
  6
CONTINUOUS
 62
    47
 10
-113.831783
 20
-78.658047
 11
-45.331778
 21
-78.658047
  0
LINE
  8
別途部材
  6
CONTINUOUS
 62
    47
 10
-114.76178
 20
-82.474715
 11
-45.331778
 21
-82.474715
  0
LINE
  8
別途部材
  6
CONTINUOUS
 62
    47
 10
-114.76178
 20
-81.30805
 11
-45.331778
 21
-81.30805
  0
LINE
  8
別途部材
  6
CONTINUOUS
 62
    47
 10
24.098225
 20
-82.474715
 11
-45.331778
 21
-82.474715
  0
LINE
  8
別途部材
  6
CONTINUOUS
 62
    47
 10
24.098225
 20
-81.30805
 11
-45.331778
 21
-81.30805
  0
LINE
  8
別途部材
  6
CONTINUOUS
 62
    47
 10
23.011705
 20
-80.158047
 11
-45.331778
 21
-80.158047
  0
LINE
  8
別途部材
  6
CONTINUOUS
 62
    47
 10
23.068227
 20
-78.49138
 11
-45.331778
 21
-78.49138
  0
LINE
  8
別途部材
  6
CONTINUOUS
 62
    47
 10
23.168227
 20
-78.658047
 11
-45.331778
 21
-78.658047
  0
LINE
  8
別途部材
  6
DOT
 62
    47
 10
-113.831783
 20
-63.59138
 11
-113.831783
 21
-63.658047
  0
ARC
  8
別途部材
  6
DOT
 62
    47
 10
-113.73178
 20
-63.591383
 40
0.1
 50
90.0
 51
180.0
  0
LINE
  8
別途部材
  6
DOT
 62
    47
 10
-113.67526
 20
-63.658047
 11
-113.67526
 21
-65.158047
  0
LINE
  8
別途部材
  6
DOT
 62
    47
 10
23.168227
 20
-63.59138
 11
23.168227
 21
-63.658047
  0
ARC
  8
別途部材
  6
DOT
 62
    47
 10
23.068222
 20
-63.591383
 40
0.1
 50
0.0
 51
90.0
  0
LINE
  8
別途部材
  6
DOT
 62
    47
 10
23.011705
 20
-63.658047
 11
23.011705
 21
-65.158047
  0
LINE
  8
別途部材
  6
DOT
 62
    47
 10
-113.831783
 20
-63.658047
 11
-45.331778
 21
-63.658047
  0
LINE
  8
別途部材
  6
DOT
 62
    47
 10
-113.731783
 20
-63.49138
 11
-45.331778
 21
-63.49138
  0
LINE
  8
別途部材
  6
DOT
 62
    47
 10
-114.76178
 20
-67.474715
 11
-45.331778
 21
-67.474715
  0
LINE
  8
別途部材
  6
DOT
 62
    47
 10
-114.76178
 20
-66.30805
 11
-45.331778
 21
-66.30805
  0
LINE
  8
別途部材
  6
DOT
 62
    47
 10
-113.67526
 20
-65.158047
 11
-45.331778
 21
-65.158047
  0
LINE
  8
別途部材
  6
DOT
 62
    47
 10
24.098225
 20
-66.30805
 11
-45.331778
 21
-66.30805
  0
LINE
  8
別途部材
  6
DOT
 62
    47
 10
24.098225
 20
-67.474715
 11
-45.331778
 21
-67.474715
  0
LINE
  8
別途部材
  6
DOT
 62
    47
 10
23.011705
 20
-65.158047
 11
-45.331778
 21
-65.158047
  0
LINE
  8
別途部材
  6
DOT
 62
    47
 10
23.168227
 20
-63.658047
 11
-45.331778
 21
-63.658047
  0
LINE
  8
別途部材
  6
DOT
 62
    47
 10
23.068227
 20
-63.49138
 11
-45.331778
 21
-63.49138
  0
LINE
  8
別途部材
  6
CONTINUOUS
 62
    47
 10
110.351605
 20
58.565568
 11
110.418273
 21
58.565568
  0
ARC
  8
別途部材
  6
CONTINUOUS
 62
    47
 10
110.351605
 20
58.465567
 40
0.1
 50
90.0
 51
180.0
  0
LINE
  8
別途部材
  6
CONTINUOUS
 62
    47
 10
110.418273
 20
58.409045
 11
111.918273
 21
58.409045
  0
LINE
  8
別途部材
  6
CONTINUOUS
 62
    47
 10
110.351605
 20
11.565857
 11
110.418273
 21
11.565857
  0
ARC
  8
別途部材
  6
CONTINUOUS
 62
    47
 10
110.351605
 20
11.665857
 40
0.1
 50
180.0
 51
270.0
  0
LINE
  8
別途部材
  6
CONTINUOUS
 62
    47
 10
110.418273
 20
11.72238
 11
111.918273
 21
11.72238
  0
LINE
  8
別途部材
  6
CONTINUOUS
 62
    47
 10
110.418273
 20
11.565857
 11
110.418273
 21
35.198768
  0
LINE
  8
別途部材
  6
CONTINUOUS
 62
    47
 10
110.251605
 20
11.665857
 11
110.251605
 21
35.198768
  0
LINE
  8
別途部材
  6
CONTINUOUS
 62
    47
 10
111.918273
 20
11.72238
 11
111.918273
 21
35.198768
  0
LINE
  8
別途部材
  6
CONTINUOUS
 62
    47
 10
113.068275
 20
10.63586
 11
113.068275
 21
35.198768
  0
LINE
  8
別途部材
  6
CONTINUOUS
 62
    47
 10
114.23494
 20
10.63586
 11
114.23494
 21
35.198768
  0
LINE
  8
別途部材
  6
CONTINUOUS
 62
    47
 10
114.23494
 20
59.495565
 11
114.23494
 21
35.198768
  0
LINE
  8
別途部材
  6
CONTINUOUS
 62
    47
 10
113.068275
 20
59.495565
 11
113.068275
 21
35.198768
  0
LINE
  8
別途部材
  6
CONTINUOUS
 62
    47
 10
111.918273
 20
58.409045
 11
111.918273
 21
35.198768
  0
LINE
  8
別途部材
  6
CONTINUOUS
 62
    47
 10
110.418273
 20
58.565568
 11
110.418273
 21
35.198768
  0
LINE
  8
別途部材
  6
CONTINUOUS
 62
    47
 10
110.251605
 20
58.465567
 11
110.251605
 21
35.198768
  0
LINE
  8
別途部材
  6
DOT
 62
    47
 10
95.351605
 20
58.565568
 11
95.418273
 21
58.565568
  0
ARC
  8
別途部材
  6
DOT
 62
    47
 10
95.351604
 20
58.465567
 40
0.1
 50
90.0
 51
180.0
  0
LINE
  8
別途部材
  6
DOT
 62
    47
 10
95.418273
 20
58.409045
 11
96.918273
 21
58.409045
  0
LINE
  8
別途部材
  6
DOT
 62
    47
 10
95.351605
 20
11.565857
 11
95.418273
 21
11.565857
  0
ARC
  8
別途部材
  6
DOT
 62
    47
 10
95.351604
 20
11.665857
 40
0.1
 50
180.0
 51
270.0
  0
LINE
  8
別途部材
  6
DOT
 62
    47
 10
95.418273
 20
11.72238
 11
96.918273
 21
11.72238
  0
LINE
  8
別途部材
  6
DOT
 62
    47
 10
98.068275
 20
10.63586
 11
98.068275
 21
35.198768
  0
LINE
  8
別途部材
  6
DOT
 62
    47
 10
95.251605
 20
11.665857
 11
95.251605
 21
35.198768
  0
LINE
  8
別途部材
  6
DOT
 62
    47
 10
96.918273
 20
11.72238
 11
96.918273
 21
35.198768
  0
LINE
  8
別途部材
  6
DOT
 62
    47
 10
99.23494
 20
10.63586
 11
99.23494
 21
35.198768
  0
LINE
  8
別途部材
  6
DOT
 62
    47
 10
95.418273
 20
11.565857
 11
95.418273
 21
35.198768
  0
LINE
  8
別途部材
  6
DOT
 62
    47
 10
99.23494
 20
59.495565
 11
99.23494
 21
35.198768
  0
LINE
  8
別途部材
  6
DOT
 62
    47
 10
98.068275
 20
59.495565
 11
98.068275
 21
35.198768
  0
LINE
  8
別途部材
  6
DOT
 62
    47
 10
96.918273
 20
58.409045
 11
96.918273
 21
35.198768
  0
LINE
  8
別途部材
  6
DOT
 62
    47
 10
95.251605
 20
58.465567
 11
95.251605
 21
35.198768
  0
LINE
  8
別途部材
  6
DOT
 62
    47
 10
95.418273
 20
58.565568
 11
95.418273
 21
35.198768
  0
LINE
  8
曲げ物
  6
CONTINUOUS
 10
6.06062
 20
37.022003
 11
2.365308
 21
33.32669
  0
LINE
  8
曲げ物
  6
CONTINUOUS
 10
5.35715
 20
35.485893
 11
3.90142
 21
34.030163
  0
LINE
  8
曲げ物
  6
CONTINUOUS
 10
4.52451
 20
36.318533
 11
3.06878
 21
34.862803
  0
LINE
  8
曲げ物
  6
CONTINUOUS
 10
-25.093697
 20
37.022003
 11
-28.78901
 21
33.32669
  0
LINE
  8
曲げ物
  6
CONTINUOUS
 10
-25.797167
 20
35.485893
 11
-27.252898
 21
34.030163
  0
LINE
  8
曲げ物
  6
CONTINUOUS
 10
-26.629807
 20
36.318533
 11
-28.085538
 21
34.862803
  0
LINE
  8
曲げ物
  6
CONTINUOUS
 10
-59.757963
 20
37.022003
 11
-63.453275
 21
33.32669
  0
LINE
  8
曲げ物
  6
CONTINUOUS
 10
-60.461432
 20
35.485893
 11
-61.917162
 21
34.030163
  0
LINE
  8
曲げ物
  6
CONTINUOUS
 10
-61.294073
 20
36.318533
 11
-62.749802
 21
34.862803
  0
LINE
  8
曲げ物
  6
CONTINUOUS
 10
-92.98952
 20
37.022003
 11
-96.684832
 21
33.32669
  0
LINE
  8
曲げ物
  6
CONTINUOUS
 10
-93.69299
 20
35.485893
 11
-95.14872
 21
34.030163
  0
LINE
  8
曲げ物
  6
CONTINUOUS
 10
-94.52563
 20
36.318533
 11
-95.98136
 21
34.862803
  0
LINE
  8
曲げ物
  6
CONTINUOUS
 10
116.421445
 20
-49.867045
 11
83.988112
 21
-49.867045
  0
LINE
  8
曲げ物
  6
CONTINUOUS
 10
116.421445
 20
-93.20038
 11
83.988112
 21
-93.20038
  0
LINE
  8
曲げ物
  6
CONTINUOUS
 10
83.988112
 20
-49.867045
 11
83.988112
 21
-93.20038
  0
LINE
  8
曲げ物
  6
CONTINUOUS
 10
116.421445
 20
-49.867045
 11
116.421445
 21
-93.20038
  0
LINE
  8
鉄骨等
  6
CONTINUOUS
 62
    47
 10
-114.76178
 20
-82.474715
 11
-114.76178
 21
-81.30805
  0
LINE
  8
鉄骨等
  6
CONTINUOUS
 62
    47
 10
-114.76178
 20
-81.30805
 11
-113.358595
 21
-80.15805
  0
LINE
  8
鉄骨等
  6
CONTINUOUS
 62
    47
 10
24.098225
 20
-82.474715
 11
24.098225
 21
-81.30805
  0
LINE
  8
鉄骨等
  6
CONTINUOUS
 62
    47
 10
24.098225
 20
-81.30805
 11
22.69504
 21
-80.15805
  0
LINE
  8
鉄骨等
  6
DOT
 62
    47
 10
-114.76178
 20
-67.474715
 11
-114.76178
 21
-66.30805
  0
LINE
  8
鉄骨等
  6
DOT
 62
    47
 10
-114.76178
 20
-66.30805
 11
-113.358595
 21
-65.15805
  0
LINE
  8
鉄骨等
  6
DOT
 62
    47
 10
24.098225
 20
-67.474715
 11
24.098225
 21
-66.30805
  0
LINE
  8
鉄骨等
  6
DOT
 62
    47
 10
24.098225
 20
-66.30805
 11
22.69504
 21
-65.15805
  0
LINE
  8
鉄骨等
  6
CONTINUOUS
 62
    47
 10
114.23494
 20
59.495565
 11
113.068275
 21
59.495565
  0
LINE
  8
鉄骨等
  6
CONTINUOUS
 62
    47
 10
113.068275
 20
59.495565
 11
111.918275
 21
58.092377
  0
LINE
  8
鉄骨等
  6
CONTINUOUS
 62
    47
 10
114.23494
 20
10.63586
 11
113.068275
 21
10.63586
  0
LINE
  8
鉄骨等
  6
CONTINUOUS
 62
    47
 10
113.068275
 20
10.63586
 11
111.918275
 21
12.039045
  0
LINE
  8
鉄骨等
  6
DOT
 62
    47
 10
99.23494
 20
59.495565
 11
98.068275
 21
59.495565
  0
LINE
  8
鉄骨等
  6
DOT
 62
    47
 10
98.068275
 20
59.495565
 11
96.918275
 21
58.092377
  0
LINE
  8
鉄骨等
  6
DOT
 62
    47
 10
99.23494
 20
10.63586
 11
98.068275
 21
10.63586
  0
LINE
  8
鉄骨等
  6
DOT
 62
    47
 10
98.068275
 20
10.63586
 11
96.918275
 21
12.039045
  0
ENDSEC
  0
EOF
