  0
SECTION
  2
HEADER
  9
$EXTMIN
 10
-210.0
 20
-148.5
  9
$EXTMAX
 10
210.0
 20
148.5
  9
$PDMODE
 70
    32
  9
$PDSIZE
 40
1.5
  9
$LTSCALE
 40
10.0
  0
ENDSEC
  0
SECTION
  2
TABLES
  0
TABLE
  2
LTYPE
 70
    15
  0
LTYPE
  2
CONTINUOUS
 70
    64
  3
実線
 72
    65
 73
     0
 40
0.0
  0
LTYPE
  2
DASHED
 70
    64
  3
破線A
 72
    65
 73
     2
 40
0.6
 49
0.4
 49
-0.2
  0
LTYPE
  2
DASHEDX2
 70
    64
  3
破線B
 72
    65
 73
     2
 40
1.3
 49
0.9
 49
-0.4
  0
LTYPE
  2
DASHDOT
 70
    64
  3
１点鎖線A
 72
    65
 73
     4
 40
0.5375
 49
0.375
 49
-0.05
 49
0.0625
 49
-0.05
  0
LTYPE
  2
DASHDOTX2
 70
    64
  3
１点鎖線B
 72
    65
 73
     4
 40
1.075
 49
0.75
 49
-0.1
 49
0.125
 49
-0.1
  0
LTYPE
  2
DIVIDE2
 70
    64
  3
２点鎖線A
 72
    65
 73
     6
 40
0.5125
 49
0.3
 49
-0.0375
 49
0.05
 49
-0.0375
 49
0.05
 49
-0.0375
  0
LTYPE
  2
DIVIDE
 70
    64
  3
２点鎖線B
 72
    65
 73
     6
 40
1.05
 49
0.55
 49
-0.1
 49
0.1
 49
-0.1
 49
0.1
 49
-0.1
  0
LTYPE
  2
DOT
 70
    64
  3
点線A
 72
    65
 73
     2
 40
0.1125
 49
0.0625
 49
-0.05
  0
LTYPE
  2
DOTX2
 70
    64
  3
点線B
 72
    65
 73
     2
 40
0.275
 49
0.15
 49
-0.125
  0
LTYPE
  2
CONTINUOUS
 70
    64
  3
実線
 72
    65
 73
     0
 40
0.0
  0
LTYPE
  2
CONTINUOUS
 70
    64
  3
実線
 72
    65
 73
     0
 40
0.0
  0
LTYPE
  2
CONTINUOUS
 70
    64
  3
実線
 72
    65
 73
     0
 40
0.0
  0
LTYPE
  2
CONTINUOUS
 70
    64
  3
実線
 72
    65
 73
     0
 40
0.0
  0
LTYPE
  2
CONTINUOUS
 70
    64
  3
実線
 72
    65
 73
     0
 40
0.0
  0
LTYPE
  2
CONTINUOUS
 70
    64
  3
実線
 72
    65
 73
     0
 40
0.0
  0
ENDTAB
  0
TABLE
  2
LAYER
 70
    34
  0
LAYER
  2
通り芯
 70
     0
 62
    15
  6
CONTINUOUS
  0
LAYER
  2
補助線
 70
     0
 62
    16
  6
DOT
  0
LAYER
  2
躯体
 70
     0
 62
    31
  6
CONTINUOUS
  0
LAYER
  2
型材
 70
     0
 62
    32
  6
CONTINUOUS
  0
LAYER
  2
型材断面
 70
     0
 62
    47
  6
CONTINUOUS
  0
LAYER
  2
ガラス
 70
     0
 62
    48
  6
CONTINUOUS
  0
LAYER
  2
ゴム等
 70
     0
 62
    63
  6
CONTINUOUS
  0
LAYER
  2
ボルト／ビス
 70
     0
 62
    64
  6
CONTINUOUS
  0
LAYER
  2
文字
 70
     0
 62
    79
  6
CONTINUOUS
  0
LAYER
  2
寸法
 70
     0
 62
    80
  6
CONTINUOUS
  0
LAYER
  2
ﾊｯﾁﾝｸﾞ
 70
     0
 62
    95
  6
CONTINUOUS
  0
LAYER
  2
別途部材
 70
     0
 62
    96
  6
CONTINUOUS
  0
LAYER
  2
曲げ物
 70
     0
 62
   111
  6
CONTINUOUS
  0
LAYER
  2
鉄骨等
 70
     0
 62
   112
  6
CONTINUOUS
  0
LAYER
  2
St
 70
     0
 62
   127
  6
CONTINUOUS
  0
LAYER
  2
その他部品等
 70
     0
 62
   128
  6
CONTINUOUS
  0
LAYER
  2
ｶﾞｽｹｯﾄ
 70
     0
 62
   143
  6
CONTINUOUS
  0
LAYER
  2
ｽｹｯﾁ
 70
     0
 62
    14
  6
CONTINUOUS
  0
LAYER
  2
0
 70
     0
 62
    17
  6
CONTINUOUS
  0
LAYER
  2
1
 70
     0
 62
    30
  6
CONTINUOUS
  0
LAYER
  2
4
 70
     0
 62
    33
  6
CONTINUOUS
  0
LAYER
  2
ﾚｲﾔ3
 70
     0
 62
    46
  6
CONTINUOUS
  0
LAYER
  2
外形線
 70
     0
 62
    49
  6
CONTINUOUS
  0
LAYER
  2
部品
 70
     0
 62
    14
  6
CONTINUOUS
  0
LAYER
  2
サッシ芯
 70
     0
 62
    17
  6
DASHDOTX2
  0
LAYER
  2
寸法線
 70
     0
 62
    62
  6
CONTINUOUS
  0
LAYER
  2
姿図外形線
 70
     0
 62
    65
  6
CONTINUOUS
  0
LAYER
  2
姿補助線
 70
     0
 62
    30
  6
CONTINUOUS
  0
LAYER
  2
透視線
 70
     0
 62
    78
  6
DOT
  0
LAYER
  2
用紙
 70
     0
 62
    81
  6
CONTINUOUS
  0
LAYER
  2
実線図枠
 70
     0
 62
    94
  6
CONTINUOUS
  0
LAYER
  2
補助図枠
 70
     0
 62
    97
  6
CONTINUOUS
  0
LAYER
  2
建具記号
 70
     0
 62
   110
  6
CONTINUOUS
  0
LAYER
  2
補助文字
 70
     0
 62
   113
  6
CONTINUOUS
  0
ENDTAB
  0
TABLE
  2
STYLE
 70
    10
  0
STYLE
  2
STANDARD
 70
     0
 40
1.0
 41
1.0
 42
1.0
 50
0.0
 71
     0
  3
TXT
  4
BIGFONT
  0
STYLE
  2
TATE
 70
     4
 40
1.0
 41
1.0
 42
1.0
 50
0.0
 71
     0
  3
TXT
  4
BIGFONT
  0
STYLE
  2
TextStyle03
 70
     0
 40
1.0
 41
1.0
 42
1.0
 50
0.0
 71
     0
  3
MONOTXT
  4
BIGFONT
  0
STYLE
  2
TextStyle04
 70
     0
 40
1.0
 41
1.0
 42
1.0
 50
0.0
 71
     0
  3
MONOTXT
  4
BIGFONT
  0
STYLE
  2
TextStyle05
 70
     0
 40
1.0
 41
1.0
 42
1.0
 50
0.0
 71
     0
  3
MONOTXT
  4
BIGFONT
  0
STYLE
  2
TextStyle06
 70
     0
 40
1.0
 41
1.0
 42
1.0
 50
0.0
 71
     0
  3
MONOTXT
  4
BIGFONT
  0
STYLE
  2
TextStyle07
 70
     0
 40
1.0
 41
1.0
 42
1.0
 50
0.0
 71
     0
  3
MONOTXT
  4
BIGFONT
  0
STYLE
  2
TextStyle08
 70
     0
 40
1.0
 41
1.0
 42
1.0
 50
0.0
 71
     0
  3
MONOTXT
  4
BIGFONT
  0
STYLE
  2
TextStyle09
 70
     0
 40
1.0
 41
1.0
 42
1.0
 50
0.0
 71
     0
  3
MONOTXT
  4
BIGFONT
  0
STYLE
  2
TextStyle10
 70
     0
 40
1.0
 41
1.0
 42
1.0
 50
0.0
 71
     0
  3
MONOTXT
  4
BIGFONT
  0
ENDTAB
  0
ENDSEC
  0
SECTION
  2
BLOCKS
  0
BLOCK
  2
*GRP_0001
 70
    65
 10
0.0
 20
0.0
  0
LINE
  8
型材断面
  6
CONTINUOUS
 10
195.0
 20
133.5
 11
195.0
 21
-133.5
  0
LINE
  8
型材断面
  6
CONTINUOUS
 10
195.0
 20
-133.5
 11
-185.0
 21
-133.5
  0
LINE
  8
型材断面
  6
CONTINUOUS
 10
-185.0
 20
-133.5
 11
-185.0
 21
133.5
  0
LINE
  8
型材断面
  6
CONTINUOUS
 10
195.0
 20
133.5
 11
-185.0
 21
133.5
  0
LINE
  8
型材断面
  6
CONTINUOUS
 10
145.0
 20
-133.5
 11
145.0
 21
-118.5
  0
LINE
  8
型材断面
  6
CONTINUOUS
 10
195.0
 20
-118.5
 11
145.0
 21
-118.5
  0
ENDBLK
  0
BLOCK
  2
*DIM_0002
 70
    65
 10
0.0
 20
0.0
  0
LINE
  8
寸法
  6
BYBLOCK
 62
     0
 10
-96.717055
 20
9.76892
 11
-96.717055
 21
4.857895
  0
LINE
  8
寸法
  6
BYBLOCK
 62
     0
 10
-30.050388
 20
9.76892
 11
-30.050388
 21
4.857895
  0
LINE
  8
寸法
  6
BYBLOCK
 62
     0
 10
-96.717055
 20
4.857895
 11
-30.050388
 21
4.857895
  0
POINT
  8
寸法
 62
     0
 10
-96.717055
 20
4.857895
  0
POINT
  8
寸法
 62
     0
 10
-30.050388
 20
4.857895
  0
TEXT
  7
TextStyle03
  8
寸法
  6
CONTINUOUS
 62
     0
 10
-66.68125
 20
5.225
  1
2000
 40
3.0
 72
     5
 11
-60.11875
 21
5.225
  0
ENDBLK
  0
BLOCK
  2
*DIM_0003
 70
    65
 10
0.0
 20
0.0
  0
LINE
  8
寸法
  6
BYBLOCK
 62
     0
 10
36.61628
 20
9.76892
 11
36.61628
 21
4.857895
  0
LINE
  8
寸法
  6
BYBLOCK
 62
     0
 10
-30.050388
 20
4.857895
 11
36.61628
 21
4.857895
  0
POINT
  8
寸法
 62
     0
 10
36.61628
 20
4.857895
  0
TEXT
  7
TextStyle03
  8
寸法
  6
CONTINUOUS
 62
     0
 10
-0.00625
 20
5.225
  1
2000
 40
3.0
 72
     5
 11
6.55625
 21
5.225
  0
ENDBLK
  0
BLOCK
  2
*DIM_0004
 70
    65
 10
0.0
 20
0.0
  0
LINE
  8
寸法
  6
BYBLOCK
 62
     0
 10
54.282945
 20
56.732382
 11
64.007228
 21
56.732382
  0
LINE
  8
寸法
  6
BYBLOCK
 62
     0
 10
56.913075
 20
53.032382
 11
64.007228
 21
53.032382
  0
LINE
  8
寸法
  6
BYBLOCK
 62
     0
 10
64.007228
 20
56.732382
 11
64.007228
 21
53.032382
  0
POINT
  8
寸法
 62
     0
 10
64.007228
 20
56.732382
  0
POINT
  8
寸法
 62
     0
 10
64.007228
 20
53.032382
  0
TEXT
  7
TextStyle03
  8
寸法
  6
CONTINUOUS
 62
     0
 10
63.675
 20
57.7125
  1
111
 40
3.0
 50
90.0
 72
     5
 11
63.675
 21
62.5875
  0
ENDBLK
  0
BLOCK
  2
*DIM_0005
 70
    65
 10
0.0
 20
0.0
  0
LINE
  8
寸法
  6
BYBLOCK
 62
     0
 10
54.282945
 20
13.399048
 11
64.007228
 21
13.399045
  0
LINE
  8
寸法
  6
BYBLOCK
 62
     0
 10
56.913075
 20
17.099048
 11
64.007228
 21
17.099045
  0
LINE
  8
寸法
  6
BYBLOCK
 62
     0
 10
64.007228
 20
13.399045
 11
64.007228
 21
17.099045
  0
POINT
  8
寸法
 62
     0
 10
64.007228
 20
13.399045
  0
POINT
  8
寸法
 62
     0
 10
64.007228
 20
17.099045
  0
TEXT
  7
TextStyle03
  8
寸法
  6
CONTINUOUS
 62
     0
 10
63.65
 20
7.5375
  1
111
 40
3.0
 50
90.0
 72
     5
 11
63.65
 21
12.4125
  0
ENDBLK
  0
BLOCK
  2
*DIM_0006
 70
    65
 10
0.0
 20
0.0
  0
LINE
  8
寸法
  6
BYBLOCK
 62
     0
 10
-116.383723
 20
23.399048
 11
-145.328888
 21
23.399048
  0
LINE
  8
寸法
  6
BYBLOCK
 62
     0
 10
-116.383723
 20
46.732382
 11
-145.328888
 21
46.732382
  0
LINE
  8
寸法
  6
BYBLOCK
 62
     0
 10
-145.328888
 20
23.399048
 11
-145.328888
 21
46.732382
  0
POINT
  8
寸法
 62
     0
 10
-145.328888
 20
23.399048
  0
POINT
  8
寸法
 62
     0
 10
-145.328888
 20
46.732382
  0
TEXT
  7
TextStyle03
  8
寸法
  6
CONTINUOUS
 62
     0
 10
-145.725
 20
32.6125
  1
700
 40
3.0
 50
90.0
 72
     5
 11
-145.725
 21
37.4875
  0
ENDBLK
  0
BLOCK
  2
*DIM_0007
 70
    65
 10
0.0
 20
0.0
  0
LINE
  8
寸法
  6
BYBLOCK
 62
     0
 10
-105.050388
 20
59.73238
 11
-105.050388
 21
88.840452
  0
LINE
  8
寸法
  6
BYBLOCK
 62
     0
 10
-80.050388
 20
59.73238
 11
-80.050388
 21
88.840452
  0
LINE
  8
寸法
  6
BYBLOCK
 62
     0
 10
-105.050388
 20
88.840452
 11
-80.050388
 21
88.840452
  0
POINT
  8
寸法
 62
     0
 10
-105.050388
 20
88.840452
  0
POINT
  8
寸法
 62
     0
 10
-80.050388
 20
88.840452
  0
TEXT
  7
TextStyle03
  8
寸法
  6
CONTINUOUS
 62
     0
 10
-95.0125
 20
89.2
  1
750
 40
3.0
 72
     5
 11
-90.1375
 21
89.2
  0
ENDBLK
  0
BLOCK
  2
*DIM_0008
 70
    65
 10
0.0
 20
0.0
  0
LINE
  8
寸法
  6
BYBLOCK
 62
     0
 10
-55.050388
 20
59.73238
 11
-55.050388
 21
88.840452
  0
LINE
  8
寸法
  6
BYBLOCK
 62
     0
 10
-80.050388
 20
88.840452
 11
-55.050388
 21
88.840452
  0
POINT
  8
寸法
 62
     0
 10
-55.050388
 20
88.840452
  0
TEXT
  7
TextStyle03
  8
寸法
  6
CONTINUOUS
 62
     0
 10
-70.0125
 20
89.2
  1
750
 40
3.0
 72
     5
 11
-65.1375
 21
89.2
  0
ENDBLK
  0
BLOCK
  2
*DIM_0009
 70
    65
 10
0.0
 20
0.0
  0
LINE
  8
寸法
  6
BYBLOCK
 62
     0
 10
-30.050388
 20
59.73238
 11
-30.050388
 21
88.840452
  0
LINE
  8
寸法
  6
BYBLOCK
 62
     0
 10
-55.050388
 20
88.840452
 11
-30.050388
 21
88.840452
  0
POINT
  8
寸法
 62
     0
 10
-30.050388
 20
88.840452
  0
TEXT
  7
TextStyle03
  8
寸法
  6
CONTINUOUS
 62
     0
 10
-45.0125
 20
89.2
  1
750
 40
3.0
 72
     5
 11
-40.1375
 21
89.2
  0
ENDBLK
  0
BLOCK
  2
*DIM_0010
 70
    65
 10
0.0
 20
0.0
  0
LINE
  8
寸法
  6
BYBLOCK
 62
     0
 10
-5.050388
 20
59.73238
 11
-5.050388
 21
88.840452
  0
LINE
  8
寸法
  6
BYBLOCK
 62
     0
 10
-30.050388
 20
88.840452
 11
-5.050388
 21
88.840452
  0
POINT
  8
寸法
 62
     0
 10
-5.050388
 20
88.840452
  0
TEXT
  7
TextStyle03
  8
寸法
  6
CONTINUOUS
 62
     0
 10
-20.0125
 20
89.2
  1
750
 40
3.0
 72
     5
 11
-15.1375
 21
89.2
  0
ENDBLK
  0
BLOCK
  2
*DIM_0011
 70
    65
 10
0.0
 20
0.0
  0
LINE
  8
寸法
  6
BYBLOCK
 62
     0
 10
19.949612
 20
59.73238
 11
19.949612
 21
88.840452
  0
LINE
  8
寸法
  6
BYBLOCK
 62
     0
 10
-5.050388
 20
88.840452
 11
19.949612
 21
88.840452
  0
POINT
  8
寸法
 62
     0
 10
19.949612
 20
88.840452
  0
TEXT
  7
TextStyle03
  8
寸法
  6
CONTINUOUS
 62
     0
 10
4.9875
 20
89.2
  1
750
 40
3.0
 72
     5
 11
9.8625
 21
89.2
  0
ENDBLK
  0
BLOCK
  2
*DIM_0012
 70
    65
 10
0.0
 20
0.0
  0
LINE
  8
寸法
  6
BYBLOCK
 62
     0
 10
44.949612
 20
59.73238
 11
44.949612
 21
88.840452
  0
LINE
  8
寸法
  6
BYBLOCK
 62
     0
 10
19.949612
 20
88.840452
 11
44.949612
 21
88.840452
  0
POINT
  8
寸法
 62
     0
 10
44.949612
 20
88.840452
  0
TEXT
  7
TextStyle03
  8
寸法
  6
CONTINUOUS
 62
     0
 10
29.9875
 20
89.2
  1
750
 40
3.0
 72
     5
 11
34.8625
 21
89.2
  0
ENDBLK
  0
BLOCK
  2
*DIM_0013
 70
    65
 10
0.0
 20
0.0
  0
LINE
  8
寸法
  6
CONTINUOUS
 10
87.302595
 20
59.495565
 11
87.302595
 21
56.73238
  0
POINT
  8
寸法
 10
87.302595
 20
59.495565
  0
POINT
  8
寸法
 10
87.302595
 20
56.73238
  0
TEXT
  7
TextStyle03
  8
寸法
  6
CONTINUOUS
 10
88.725
 20
60.54375
  1
82.9
 40
3.0
 50
90.0
 72
     5
 11
88.725
 21
67.10625
  0
ENDBLK
  0
BLOCK
  2
*DIM_0014
 70
    65
 10
0.0
 20
0.0
  0
LINE
  8
寸法
  6
CONTINUOUS
 10
87.302595
 20
13.399048
 11
87.302595
 21
10.63586
  0
POINT
  8
寸法
 10
87.302595
 20
13.399048
  0
POINT
  8
寸法
 10
87.302595
 20
10.63586
  0
TEXT
  7
TextStyle03
  8
寸法
  6
CONTINUOUS
 10
88.725
 20
2.99375
  1
82.9
 40
3.0
 50
90.0
 72
     5
 11
88.725
 21
9.55625
  0
ENDBLK
  0
BLOCK
  2
*DIM_0015
 70
    65
 10
0.0
 20
0.0
  0
LINE
  8
寸法
  6
CONTINUOUS
 10
87.302595
 20
56.73238
 11
87.302595
 21
13.399048
  0
POINT
  8
寸法
 10
87.302595
 20
56.73238
  0
POINT
  8
寸法
 10
87.302595
 20
13.399048
  0
TEXT
  7
TextStyle03
  8
寸法
  6
CONTINUOUS
 10
86.95
 20
24.175
  1
呼称寸法=1300
 40
3.0
 50
90.0
 72
     5
 11
86.95
 21
45.925
  0
ENDBLK
  0
BLOCK
  2
*DIM_0016
 70
    65
 10
0.0
 20
0.0
  0
LINE
  8
寸法
  6
CONTINUOUS
 10
-113.383725
 20
-22.024302
 11
-116.147058
 21
-22.024302
  0
POINT
  8
寸法
 10
-113.383725
 20
-22.024302
  0
POINT
  8
寸法
 10
-116.147058
 20
-22.024302
  0
TEXT
  7
TextStyle03
  8
寸法
  6
CONTINUOUS
 10
-120.73125
 20
-21.1
  1
82.9
 40
3.0
 72
     5
 11
-114.16875
 21
-21.1
  0
ENDBLK
  0
BLOCK
  2
*DIM_0017
 70
    65
 10
0.0
 20
0.0
  0
LINE
  8
寸法
  6
CONTINUOUS
 10
56.046283
 20
-22.024302
 11
53.282948
 21
-22.024302
  0
POINT
  8
寸法
 10
56.046283
 20
-22.024302
  0
POINT
  8
寸法
 10
53.282948
 20
-22.024302
  0
TEXT
  7
TextStyle03
  8
寸法
  6
CONTINUOUS
 10
54.29375
 20
-21.15
  1
82.9
 40
3.0
 72
     5
 11
60.85625
 21
-21.15
  0
ENDBLK
  0
BLOCK
  2
*GRP_0018
 70
    65
 10
0.0
 20
0.0
  0
LINE
  8
補助線
  6
BYBLOCK
 62
    64
 10
-109.98846
 20
-84.012327
 11
-110.112305
 21
-84.123863
  0
LINE
  8
補助線
  6
BYBLOCK
 62
    64
 10
-110.106153
 20
-84.00617
 11
-109.994615
 21
-84.130018
  0
LINE
  8
補助線
  6
BYBLOCK
 62
    64
 10
-99.273358
 20
-74.362302
 11
-99.397203
 21
-74.473837
  0
LINE
  8
補助線
  6
BYBLOCK
 62
    64
 10
-99.391047
 20
-74.356145
 11
-99.279512
 21
-74.479993
  0
LINE
  8
補助線
  6
BYBLOCK
 62
    64
 10
-88.6821
 20
-64.823812
 11
-88.558258
 21
-64.712277
  0
LINE
  8
補助線
  6
BYBLOCK
 62
    64
 10
-88.675947
 20
-64.70612
 11
-88.56441
 21
-64.829968
  0
LINE
  8
型材断面
  6
CONTINUOUS
 10
-110.85575
 20
-83.67194
 11
-110.892677
 21
-84.37808
  0
LINE
  8
型材断面
  6
CONTINUOUS
 10
-110.892677
 20
-84.37808
 11
-110.446537
 21
-84.873463
  0
LINE
  8
型材断面
  6
CONTINUOUS
 10
-110.446537
 20
-84.873463
 11
-109.740395
 21
-84.910393
  0
LINE
  8
型材断面
  6
CONTINUOUS
 10
-88.930163
 20
-63.92575
 11
-88.224022
 21
-63.96268
  0
LINE
  8
型材断面
  6
CONTINUOUS
 10
-88.224022
 20
-63.96268
 11
-87.77788
 21
-64.45806
  0
LINE
  8
型材断面
  6
CONTINUOUS
 10
-87.77788
 20
-64.45806
 11
-87.81481
 21
-65.164205
  0
LINE
  8
型材断面
  6
CONTINUOUS
 10
-109.740395
 20
-84.910393
 11
-87.81481
 21
-65.164205
  0
LINE
  8
型材断面
  6
CONTINUOUS
 10
-110.85575
 20
-83.67194
 11
-88.930163
 21
-63.92575
  0
CIRCLE
  8
ボルト／ビス
  6
CONTINUOUS
 10
-110.050382
 20
-84.068095
 40
0.250185
  0
CIRCLE
  8
ボルト／ビス
  6
CONTINUOUS
 10
-110.050382
 20
-84.068095
 40
0.301025
  0
LINE
  8
ボルト／ビス
  6
CONTINUOUS
 62
    64
 10
-110.295095
 20
-84.12014
 11
-110.21781
 21
-83.88219
  0
LINE
  8
ボルト／ビス
  6
CONTINUOUS
 62
    64
 10
-109.973098
 20
-83.830145
 11
-110.21781
 21
-83.88219
  0
LINE
  8
ボルト／ビス
  6
CONTINUOUS
 62
    64
 10
-110.127668
 20
-84.306045
 11
-109.882955
 21
-84.254
  0
LINE
  8
ボルト／ビス
  6
CONTINUOUS
 62
    64
 10
-109.80567
 20
-84.01605
 11
-109.882955
 21
-84.254
  0
LINE
  8
ボルト／ビス
  6
CONTINUOUS
 62
    64
 10
-110.295095
 20
-84.12014
 11
-110.127668
 21
-84.306045
  0
LINE
  8
ボルト／ビス
  6
CONTINUOUS
 62
    64
 10
-109.973098
 20
-83.830145
 11
-109.80567
 21
-84.01605
  0
CIRCLE
  8
ボルト／ビス
  6
CONTINUOUS
 62
    64
 10
-110.050382
 20
-84.068095
 40
0.216668
  0
CIRCLE
  8
ボルト／ビス
  6
CONTINUOUS
 10
-99.33528
 20
-74.418073
 40
0.250185
  0
CIRCLE
  8
ボルト／ビス
  6
CONTINUOUS
 10
-99.33528
 20
-74.418073
 40
0.301025
  0
LINE
  8
ボルト／ビス
  6
CONTINUOUS
 62
    64
 10
-99.579995
 20
-74.470115
 11
-99.502708
 21
-74.232165
  0
LINE
  8
ボルト／ビス
  6
CONTINUOUS
 62
    64
 10
-99.257995
 20
-74.180123
 11
-99.502708
 21
-74.232165
  0
LINE
  8
ボルト／ビス
  6
CONTINUOUS
 62
    64
 10
-99.412568
 20
-74.65602
 11
-99.167855
 21
-74.603975
  0
LINE
  8
ボルト／ビス
  6
CONTINUOUS
 62
    64
 10
-99.090567
 20
-74.366028
 11
-99.167855
 21
-74.603975
  0
LINE
  8
ボルト／ビス
  6
CONTINUOUS
 62
    64
 10
-99.579995
 20
-74.470115
 11
-99.412568
 21
-74.65602
  0
LINE
  8
ボルト／ビス
  6
CONTINUOUS
 62
    64
 10
-99.257995
 20
-74.180123
 11
-99.090567
 21
-74.366028
  0
CIRCLE
  8
ボルト／ビス
  6
CONTINUOUS
 62
    64
 10
-99.33528
 20
-74.418073
 40
0.216668
  0
CIRCLE
  8
ボルト／ビス
  6
CONTINUOUS
 10
-88.62018
 20
-64.768045
 40
0.250185
  0
CIRCLE
  8
ボルト／ビス
  6
CONTINUOUS
 10
-88.62018
 20
-64.768045
 40
0.301025
  0
LINE
  8
ボルト／ビス
  6
CONTINUOUS
 62
    64
 10
-88.542893
 20
-64.530095
 11
-88.787605
 21
-64.58214
  0
LINE
  8
ボルト／ビス
  6
CONTINUOUS
 62
    64
 10
-88.86489
 20
-64.82009
 11
-88.787605
 21
-64.58214
  0
LINE
  8
ボルト／ビス
  6
CONTINUOUS
 62
    64
 10
-88.375465
 20
-64.716
 11
-88.452753
 21
-64.95395
  0
LINE
  8
ボルト／ビス
  6
CONTINUOUS
 62
    64
 10
-88.697465
 20
-65.005995
 11
-88.452753
 21
-64.95395
  0
LINE
  8
ボルト／ビス
  6
CONTINUOUS
 62
    64
 10
-88.542893
 20
-64.530095
 11
-88.375465
 21
-64.716
  0
LINE
  8
ボルト／ビス
  6
CONTINUOUS
 62
    64
 10
-88.86489
 20
-64.82009
 11
-88.697465
 21
-65.005995
  0
CIRCLE
  8
ボルト／ビス
  6
CONTINUOUS
 62
    64
 10
-88.62018
 20
-64.768045
 40
0.216668
  0
ENDBLK
  0
BLOCK
  2
*GRP_0019
 70
    65
 10
0.0
 20
0.0
  0
LINE
  8
補助線
  6
BYBLOCK
 62
    64
 10
-88.6821
 20
-84.012327
 11
-88.558255
 21
-84.123863
  0
LINE
  8
補助線
  6
BYBLOCK
 62
    64
 10
-88.564408
 20
-84.00617
 11
-88.675945
 21
-84.130018
  0
LINE
  8
補助線
  6
BYBLOCK
 62
    64
 10
-99.397203
 20
-74.362302
 11
-99.273358
 21
-74.473837
  0
LINE
  8
補助線
  6
BYBLOCK
 62
    64
 10
-99.279512
 20
-74.356145
 11
-99.391047
 21
-74.479993
  0
LINE
  8
補助線
  6
BYBLOCK
 62
    64
 10
-109.98846
 20
-64.823812
 11
-110.112302
 21
-64.712277
  0
LINE
  8
補助線
  6
BYBLOCK
 62
    64
 10
-109.994613
 20
-64.70612
 11
-110.10615
 21
-64.829968
  0
LINE
  8
型材断面
  6
CONTINUOUS
 10
-87.81481
 20
-83.67194
 11
-87.777883
 21
-84.37808
  0
LINE
  8
型材断面
  6
CONTINUOUS
 10
-87.777883
 20
-84.37808
 11
-88.224022
 21
-84.873463
  0
LINE
  8
型材断面
  6
CONTINUOUS
 10
-88.224022
 20
-84.873463
 11
-88.930165
 21
-84.910393
  0
LINE
  8
型材断面
  6
CONTINUOUS
 10
-109.740398
 20
-63.92575
 11
-110.446537
 21
-63.96268
  0
LINE
  8
型材断面
  6
CONTINUOUS
 10
-110.446537
 20
-63.96268
 11
-110.89268
 21
-64.45806
  0
LINE
  8
型材断面
  6
CONTINUOUS
 10
-110.89268
 20
-64.45806
 11
-110.85575
 21
-65.164205
  0
LINE
  8
型材断面
  6
CONTINUOUS
 10
-88.930165
 20
-84.910393
 11
-110.85575
 21
-65.164205
  0
LINE
  8
型材断面
  6
CONTINUOUS
 10
-87.81481
 20
-83.67194
 11
-109.740398
 21
-63.92575
  0
CIRCLE
  8
ボルト／ビス
  6
CONTINUOUS
 10
-88.620178
 20
-84.068095
 40
0.250185
  0
CIRCLE
  8
ボルト／ビス
  6
CONTINUOUS
 10
-88.620178
 20
-84.068095
 40
0.301025
  0
LINE
  8
ボルト／ビス
  6
CONTINUOUS
 62
    64
 10
-88.375465
 20
-84.12014
 11
-88.45275
 21
-83.88219
  0
LINE
  8
ボルト／ビス
  6
CONTINUOUS
 62
    64
 10
-88.697462
 20
-83.830145
 11
-88.45275
 21
-83.88219
  0
LINE
  8
ボルト／ビス
  6
CONTINUOUS
 62
    64
 10
-88.542893
 20
-84.306045
 11
-88.787605
 21
-84.254
  0
LINE
  8
ボルト／ビス
  6
CONTINUOUS
 62
    64
 10
-88.86489
 20
-84.01605
 11
-88.787605
 21
-84.254
  0
LINE
  8
ボルト／ビス
  6
CONTINUOUS
 62
    64
 10
-88.375465
 20
-84.12014
 11
-88.542893
 21
-84.306045
  0
LINE
  8
ボルト／ビス
  6
CONTINUOUS
 62
    64
 10
-88.697462
 20
-83.830145
 11
-88.86489
 21
-84.01605
  0
CIRCLE
  8
ボルト／ビス
  6
CONTINUOUS
 62
    64
 10
-88.620178
 20
-84.068095
 40
0.216668
  0
CIRCLE
  8
ボルト／ビス
  6
CONTINUOUS
 10
-99.33528
 20
-74.418073
 40
0.250185
  0
CIRCLE
  8
ボルト／ビス
  6
CONTINUOUS
 10
-99.33528
 20
-74.418073
 40
0.301025
  0
LINE
  8
ボルト／ビス
  6
CONTINUOUS
 62
    64
 10
-99.090565
 20
-74.470115
 11
-99.167853
 21
-74.232165
  0
LINE
  8
ボルト／ビス
  6
CONTINUOUS
 62
    64
 10
-99.412565
 20
-74.180123
 11
-99.167853
 21
-74.232165
  0
LINE
  8
ボルト／ビス
  6
CONTINUOUS
 62
    64
 10
-99.257993
 20
-74.65602
 11
-99.502705
 21
-74.603975
  0
LINE
  8
ボルト／ビス
  6
CONTINUOUS
 62
    64
 10
-99.579993
 20
-74.366028
 11
-99.502705
 21
-74.603975
  0
LINE
  8
ボルト／ビス
  6
CONTINUOUS
 62
    64
 10
-99.090565
 20
-74.470115
 11
-99.257993
 21
-74.65602
  0
LINE
  8
ボルト／ビス
  6
CONTINUOUS
 62
    64
 10
-99.412565
 20
-74.180123
 11
-99.579993
 21
-74.366028
  0
CIRCLE
  8
ボルト／ビス
  6
CONTINUOUS
 62
    64
 10
-99.33528
 20
-74.418073
 40
0.216668
  0
CIRCLE
  8
ボルト／ビス
  6
CONTINUOUS
 10
-110.05038
 20
-64.768045
 40
0.250185
  0
CIRCLE
  8
ボルト／ビス
  6
CONTINUOUS
 10
-110.05038
 20
-64.768045
 40
0.301025
  0
LINE
  8
ボルト／ビス
  6
CONTINUOUS
 62
    64
 10
-110.127668
 20
-64.530095
 11
-109.882955
 21
-64.58214
  0
LINE
  8
ボルト／ビス
  6
CONTINUOUS
 62
    64
 10
-109.80567
 20
-64.82009
 11
-109.882955
 21
-64.58214
  0
LINE
  8
ボルト／ビス
  6
CONTINUOUS
 62
    64
 10
-110.295095
 20
-64.716
 11
-110.217807
 21
-64.95395
  0
LINE
  8
ボルト／ビス
  6
CONTINUOUS
 62
    64
 10
-109.973095
 20
-65.005995
 11
-110.217807
 21
-64.95395
  0
LINE
  8
ボルト／ビス
  6
CONTINUOUS
 62
    64
 10
-110.127668
 20
-64.530095
 11
-110.295095
 21
-64.716
  0
LINE
  8
ボルト／ビス
  6
CONTINUOUS
 62
    64
 10
-109.80567
 20
-64.82009
 11
-109.973095
 21
-65.005995
  0
CIRCLE
  8
ボルト／ビス
  6
CONTINUOUS
 62
    64
 10
-110.05038
 20
-64.768045
 40
0.216668
  0
ENDBLK
  0
BLOCK
  2
*GRP_0020
 70
    65
 10
0.0
 20
0.0
  0
LINE
  8
補助線
  6
BYBLOCK
 62
    64
 10
49.887695
 20
-84.012327
 11
50.01154
 21
-84.123863
  0
LINE
  8
補助線
  6
BYBLOCK
 62
    64
 10
50.005387
 20
-84.00617
 11
49.89385
 21
-84.130018
  0
LINE
  8
補助線
  6
BYBLOCK
 62
    64
 10
39.172593
 20
-74.362302
 11
39.296437
 21
-74.473837
  0
LINE
  8
補助線
  6
BYBLOCK
 62
    64
 10
39.290282
 20
-74.356145
 11
39.178747
 21
-74.479993
  0
LINE
  8
補助線
  6
BYBLOCK
 62
    64
 10
28.581335
 20
-64.823812
 11
28.457493
 21
-64.712277
  0
LINE
  8
補助線
  6
BYBLOCK
 62
    64
 10
28.575182
 20
-64.70612
 11
28.463645
 21
-64.829968
  0
LINE
  8
型材断面
  6
CONTINUOUS
 10
50.754985
 20
-83.67194
 11
50.791913
 21
-84.37808
  0
LINE
  8
型材断面
  6
CONTINUOUS
 10
50.791913
 20
-84.37808
 11
50.345773
 21
-84.873463
  0
LINE
  8
型材断面
  6
CONTINUOUS
 10
50.345773
 20
-84.873463
 11
49.63963
 21
-84.910393
  0
LINE
  8
型材断面
  6
CONTINUOUS
 10
28.829398
 20
-63.92575
 11
28.123258
 21
-63.96268
  0
LINE
  8
型材断面
  6
CONTINUOUS
 10
28.123258
 20
-63.96268
 11
27.677115
 21
-64.45806
  0
LINE
  8
型材断面
  6
CONTINUOUS
 10
27.677115
 20
-64.45806
 11
27.714045
 21
-65.164205
  0
LINE
  8
型材断面
  6
CONTINUOUS
 10
49.63963
 20
-84.910393
 11
27.714045
 21
-65.164205
  0
LINE
  8
型材断面
  6
CONTINUOUS
 10
50.754985
 20
-83.67194
 11
28.829398
 21
-63.92575
  0
CIRCLE
  8
ボルト／ビス
  6
CONTINUOUS
 10
49.949618
 20
-84.068095
 40
0.250185
  0
CIRCLE
  8
ボルト／ビス
  6
CONTINUOUS
 10
49.949618
 20
-84.068095
 40
0.301025
  0
LINE
  8
ボルト／ビス
  6
CONTINUOUS
 62
    64
 10
50.19433
 20
-84.12014
 11
50.117045
 21
-83.88219
  0
LINE
  8
ボルト／ビス
  6
CONTINUOUS
 62
    64
 10
49.872333
 20
-83.830145
 11
50.117045
 21
-83.88219
  0
LINE
  8
ボルト／ビス
  6
CONTINUOUS
 62
    64
 10
50.026902
 20
-84.306045
 11
49.78219
 21
-84.254
  0
LINE
  8
ボルト／ビス
  6
CONTINUOUS
 62
    64
 10
49.704905
 20
-84.01605
 11
49.78219
 21
-84.254
  0
LINE
  8
ボルト／ビス
  6
CONTINUOUS
 62
    64
 10
50.19433
 20
-84.12014
 11
50.026902
 21
-84.306045
  0
LINE
  8
ボルト／ビス
  6
CONTINUOUS
 62
    64
 10
49.872333
 20
-83.830145
 11
49.704905
 21
-84.01605
  0
CIRCLE
  8
ボルト／ビス
  6
CONTINUOUS
 62
    64
 10
49.949618
 20
-84.068095
 40
0.216668
  0
CIRCLE
  8
ボルト／ビス
  6
CONTINUOUS
 10
39.234515
 20
-74.418073
 40
0.250185
  0
CIRCLE
  8
ボルト／ビス
  6
CONTINUOUS
 10
39.234515
 20
-74.418073
 40
0.301025
  0
LINE
  8
ボルト／ビス
  6
CONTINUOUS
 62
    64
 10
39.47923
 20
-74.470115
 11
39.401943
 21
-74.232165
  0
LINE
  8
ボルト／ビス
  6
CONTINUOUS
 62
    64
 10
39.15723
 20
-74.180123
 11
39.401943
 21
-74.232165
  0
LINE
  8
ボルト／ビス
  6
CONTINUOUS
 62
    64
 10
39.311802
 20
-74.65602
 11
39.06709
 21
-74.603975
  0
LINE
  8
ボルト／ビス
  6
CONTINUOUS
 62
    64
 10
38.989803
 20
-74.366028
 11
39.06709
 21
-74.603975
  0
LINE
  8
ボルト／ビス
  6
CONTINUOUS
 62
    64
 10
39.47923
 20
-74.470115
 11
39.311802
 21
-74.65602
  0
LINE
  8
ボルト／ビス
  6
CONTINUOUS
 62
    64
 10
39.15723
 20
-74.180123
 11
38.989803
 21
-74.366028
  0
CIRCLE
  8
ボルト／ビス
  6
CONTINUOUS
 62
    64
 10
39.234515
 20
-74.418073
 40
0.216668
  0
CIRCLE
  8
ボルト／ビス
  6
CONTINUOUS
 10
28.519415
 20
-64.768045
 40
0.250185
  0
CIRCLE
  8
ボルト／ビス
  6
CONTINUOUS
 10
28.519415
 20
-64.768045
 40
0.301025
  0
LINE
  8
ボルト／ビス
  6
CONTINUOUS
 62
    64
 10
28.442128
 20
-64.530095
 11
28.68684
 21
-64.58214
  0
LINE
  8
ボルト／ビス
  6
CONTINUOUS
 62
    64
 10
28.764125
 20
-64.82009
 11
28.68684
 21
-64.58214
  0
LINE
  8
ボルト／ビス
  6
CONTINUOUS
 62
    64
 10
28.2747
 20
-64.716
 11
28.351987
 21
-64.95395
  0
LINE
  8
ボルト／ビス
  6
CONTINUOUS
 62
    64
 10
28.5967
 20
-65.005995
 11
28.351987
 21
-64.95395
  0
LINE
  8
ボルト／ビス
  6
CONTINUOUS
 62
    64
 10
28.442128
 20
-64.530095
 11
28.2747
 21
-64.716
  0
LINE
  8
ボルト／ビス
  6
CONTINUOUS
 62
    64
 10
28.764125
 20
-64.82009
 11
28.5967
 21
-65.005995
  0
CIRCLE
  8
ボルト／ビス
  6
CONTINUOUS
 62
    64
 10
28.519415
 20
-64.768045
 40
0.216668
  0
ENDBLK
  0
BLOCK
  2
*GRP_0021
 70
    65
 10
0.0
 20
0.0
  0
LINE
  8
補助線
  6
BYBLOCK
 62
    64
 10
28.581335
 20
-84.012327
 11
28.45749
 21
-84.123863
  0
LINE
  8
補助線
  6
BYBLOCK
 62
    64
 10
28.463643
 20
-84.00617
 11
28.57518
 21
-84.130018
  0
LINE
  8
補助線
  6
BYBLOCK
 62
    64
 10
39.296437
 20
-74.362302
 11
39.172593
 21
-74.473837
  0
LINE
  8
補助線
  6
BYBLOCK
 62
    64
 10
39.178747
 20
-74.356145
 11
39.290282
 21
-74.479993
  0
LINE
  8
補助線
  6
BYBLOCK
 62
    64
 10
49.887695
 20
-64.823812
 11
50.011537
 21
-64.712277
  0
LINE
  8
補助線
  6
BYBLOCK
 62
    64
 10
49.893848
 20
-64.70612
 11
50.005385
 21
-64.829968
  0
LINE
  8
型材断面
  6
CONTINUOUS
 10
27.714045
 20
-83.67194
 11
27.677117
 21
-84.37808
  0
LINE
  8
型材断面
  6
CONTINUOUS
 10
27.677117
 20
-84.37808
 11
28.123258
 21
-84.873463
  0
LINE
  8
型材断面
  6
CONTINUOUS
 10
28.123258
 20
-84.873463
 11
28.8294
 21
-84.910393
  0
LINE
  8
型材断面
  6
CONTINUOUS
 10
49.639632
 20
-63.92575
 11
50.345773
 21
-63.96268
  0
LINE
  8
型材断面
  6
CONTINUOUS
 10
50.345773
 20
-63.96268
 11
50.791915
 21
-64.45806
  0
LINE
  8
型材断面
  6
CONTINUOUS
 10
50.791915
 20
-64.45806
 11
50.754985
 21
-65.164205
  0
LINE
  8
型材断面
  6
CONTINUOUS
 10
28.8294
 20
-84.910393
 11
50.754985
 21
-65.164205
  0
LINE
  8
型材断面
  6
CONTINUOUS
 10
27.714045
 20
-83.67194
 11
49.639632
 21
-63.92575
  0
CIRCLE
  8
ボルト／ビス
  6
CONTINUOUS
 10
28.519412
 20
-84.068095
 40
0.250185
  0
CIRCLE
  8
ボルト／ビス
  6
CONTINUOUS
 10
28.519412
 20
-84.068095
 40
0.301025
  0
LINE
  8
ボルト／ビス
  6
CONTINUOUS
 62
    64
 10
28.2747
 20
-84.12014
 11
28.351985
 21
-83.88219
  0
LINE
  8
ボルト／ビス
  6
CONTINUOUS
 62
    64
 10
28.596697
 20
-83.830145
 11
28.351985
 21
-83.88219
  0
LINE
  8
ボルト／ビス
  6
CONTINUOUS
 62
    64
 10
28.442128
 20
-84.306045
 11
28.68684
 21
-84.254
  0
LINE
  8
ボルト／ビス
  6
CONTINUOUS
 62
    64
 10
28.764125
 20
-84.01605
 11
28.68684
 21
-84.254
  0
LINE
  8
ボルト／ビス
  6
CONTINUOUS
 62
    64
 10
28.2747
 20
-84.12014
 11
28.442128
 21
-84.306045
  0
LINE
  8
ボルト／ビス
  6
CONTINUOUS
 62
    64
 10
28.596697
 20
-83.830145
 11
28.764125
 21
-84.01605
  0
CIRCLE
  8
ボルト／ビス
  6
CONTINUOUS
 62
    64
 10
28.519412
 20
-84.068095
 40
0.216668
  0
CIRCLE
  8
ボルト／ビス
  6
CONTINUOUS
 10
39.234515
 20
-74.418073
 40
0.250185
  0
CIRCLE
  8
ボルト／ビス
  6
CONTINUOUS
 10
39.234515
 20
-74.418073
 40
0.301025
  0
LINE
  8
ボルト／ビス
  6
CONTINUOUS
 62
    64
 10
38.9898
 20
-74.470115
 11
39.067087
 21
-74.232165
  0
LINE
  8
ボルト／ビス
  6
CONTINUOUS
 62
    64
 10
39.3118
 20
-74.180123
 11
39.067087
 21
-74.232165
  0
LINE
  8
ボルト／ビス
  6
CONTINUOUS
 62
    64
 10
39.157228
 20
-74.65602
 11
39.40194
 21
-74.603975
  0
LINE
  8
ボルト／ビス
  6
CONTINUOUS
 62
    64
 10
39.479227
 20
-74.366028
 11
39.40194
 21
-74.603975
  0
LINE
  8
ボルト／ビス
  6
CONTINUOUS
 62
    64
 10
38.9898
 20
-74.470115
 11
39.157228
 21
-74.65602
  0
LINE
  8
ボルト／ビス
  6
CONTINUOUS
 62
    64
 10
39.3118
 20
-74.180123
 11
39.479227
 21
-74.366028
  0
CIRCLE
  8
ボルト／ビス
  6
CONTINUOUS
 62
    64
 10
39.234515
 20
-74.418073
 40
0.216668
  0
CIRCLE
  8
ボルト／ビス
  6
CONTINUOUS
 10
49.949615
 20
-64.768045
 40
0.250185
  0
CIRCLE
  8
ボルト／ビス
  6
CONTINUOUS
 10
49.949615
 20
-64.768045
 40
0.301025
  0
LINE
  8
ボルト／ビス
  6
CONTINUOUS
 62
    64
 10
50.026902
 20
-64.530095
 11
49.78219
 21
-64.58214
  0
LINE
  8
ボルト／ビス
  6
CONTINUOUS
 62
    64
 10
49.704905
 20
-64.82009
 11
49.78219
 21
-64.58214
  0
LINE
  8
ボルト／ビス
  6
CONTINUOUS
 62
    64
 10
50.19433
 20
-64.716
 11
50.117043
 21
-64.95395
  0
LINE
  8
ボルト／ビス
  6
CONTINUOUS
 62
    64
 10
49.87233
 20
-65.005995
 11
50.117043
 21
-64.95395
  0
LINE
  8
ボルト／ビス
  6
CONTINUOUS
 62
    64
 10
50.026902
 20
-64.530095
 11
50.19433
 21
-64.716
  0
LINE
  8
ボルト／ビス
  6
CONTINUOUS
 62
    64
 10
49.704905
 20
-64.82009
 11
49.87233
 21
-65.005995
  0
CIRCLE
  8
ボルト／ビス
  6
CONTINUOUS
 62
    64
 10
49.949615
 20
-64.768045
 40
0.216668
  0
ENDBLK
  0
BLOCK
  2
*GRP_0022
 70
    65
 10
0.0
 20
0.0
  0
LINE
  8
補助線
  6
BYBLOCK
 62
    64
 10
-19.397203
 20
-84.012327
 11
-19.273358
 21
-84.123863
  0
LINE
  8
補助線
  6
BYBLOCK
 62
    64
 10
-19.27951
 20
-84.00617
 11
-19.391047
 21
-84.130018
  0
LINE
  8
補助線
  6
BYBLOCK
 62
    64
 10
-30.112305
 20
-74.362302
 11
-29.98846
 21
-74.473837
  0
LINE
  8
補助線
  6
BYBLOCK
 62
    64
 10
-29.994615
 20
-74.356145
 11
-30.10615
 21
-74.479993
  0
LINE
  8
補助線
  6
BYBLOCK
 62
    64
 10
-40.703563
 20
-64.823812
 11
-40.827405
 21
-64.712277
  0
LINE
  8
補助線
  6
BYBLOCK
 62
    64
 10
-40.709715
 20
-64.70612
 11
-40.821252
 21
-64.829968
  0
LINE
  8
型材断面
  6
CONTINUOUS
 10
-18.529912
 20
-83.67194
 11
-18.492985
 21
-84.37808
  0
LINE
  8
型材断面
  6
CONTINUOUS
 10
-18.492985
 20
-84.37808
 11
-18.939125
 21
-84.873463
  0
LINE
  8
型材断面
  6
CONTINUOUS
 10
-18.939125
 20
-84.873463
 11
-19.645268
 21
-84.910393
  0
LINE
  8
型材断面
  6
CONTINUOUS
 10
-40.4555
 20
-63.92575
 11
-41.16164
 21
-63.96268
  0
LINE
  8
型材断面
  6
CONTINUOUS
 10
-41.16164
 20
-63.96268
 11
-41.607783
 21
-64.45806
  0
LINE
  8
型材断面
  6
CONTINUOUS
 10
-41.607783
 20
-64.45806
 11
-41.570853
 21
-65.164205
  0
LINE
  8
型材断面
  6
CONTINUOUS
 10
-19.645268
 20
-84.910393
 11
-41.570853
 21
-65.164205
  0
LINE
  8
型材断面
  6
CONTINUOUS
 10
-18.529912
 20
-83.67194
 11
-40.4555
 21
-63.92575
  0
CIRCLE
  8
ボルト／ビス
  6
CONTINUOUS
 10
-19.33528
 20
-84.068095
 40
0.250185
  0
CIRCLE
  8
ボルト／ビス
  6
CONTINUOUS
 10
-19.33528
 20
-84.068095
 40
0.301025
  0
LINE
  8
ボルト／ビス
  6
CONTINUOUS
 62
    64
 10
-19.090567
 20
-84.12014
 11
-19.167853
 21
-83.88219
  0
LINE
  8
ボルト／ビス
  6
CONTINUOUS
 62
    64
 10
-19.412565
 20
-83.830145
 11
-19.167853
 21
-83.88219
  0
LINE
  8
ボルト／ビス
  6
CONTINUOUS
 62
    64
 10
-19.257995
 20
-84.306045
 11
-19.502707
 21
-84.254
  0
LINE
  8
ボルト／ビス
  6
CONTINUOUS
 62
    64
 10
-19.579993
 20
-84.01605
 11
-19.502707
 21
-84.254
  0
LINE
  8
ボルト／ビス
  6
CONTINUOUS
 62
    64
 10
-19.090567
 20
-84.12014
 11
-19.257995
 21
-84.306045
  0
LINE
  8
ボルト／ビス
  6
CONTINUOUS
 62
    64
 10
-19.412565
 20
-83.830145
 11
-19.579993
 21
-84.01605
  0
CIRCLE
  8
ボルト／ビス
  6
CONTINUOUS
 62
    64
 10
-19.33528
 20
-84.068095
 40
0.216668
  0
CIRCLE
  8
ボルト／ビス
  6
CONTINUOUS
 10
-30.050382
 20
-74.418073
 40
0.250185
  0
CIRCLE
  8
ボルト／ビス
  6
CONTINUOUS
 10
-30.050382
 20
-74.418073
 40
0.301025
  0
LINE
  8
ボルト／ビス
  6
CONTINUOUS
 62
    64
 10
-29.805667
 20
-74.470115
 11
-29.882955
 21
-74.232165
  0
LINE
  8
ボルト／ビス
  6
CONTINUOUS
 62
    64
 10
-30.127668
 20
-74.180123
 11
-29.882955
 21
-74.232165
  0
LINE
  8
ボルト／ビス
  6
CONTINUOUS
 62
    64
 10
-29.973095
 20
-74.65602
 11
-30.217807
 21
-74.603975
  0
LINE
  8
ボルト／ビス
  6
CONTINUOUS
 62
    64
 10
-30.295095
 20
-74.366028
 11
-30.217807
 21
-74.603975
  0
LINE
  8
ボルト／ビス
  6
CONTINUOUS
 62
    64
 10
-29.805667
 20
-74.470115
 11
-29.973095
 21
-74.65602
  0
LINE
  8
ボルト／ビス
  6
CONTINUOUS
 62
    64
 10
-30.127668
 20
-74.180123
 11
-30.295095
 21
-74.366028
  0
CIRCLE
  8
ボルト／ビス
  6
CONTINUOUS
 62
    64
 10
-30.050382
 20
-74.418073
 40
0.216668
  0
CIRCLE
  8
ボルト／ビス
  6
CONTINUOUS
 10
-40.765482
 20
-64.768045
 40
0.250185
  0
CIRCLE
  8
ボルト／ビス
  6
CONTINUOUS
 10
-40.765482
 20
-64.768045
 40
0.301025
  0
LINE
  8
ボルト／ビス
  6
CONTINUOUS
 62
    64
 10
-40.84277
 20
-64.530095
 11
-40.598057
 21
-64.58214
  0
LINE
  8
ボルト／ビス
  6
CONTINUOUS
 62
    64
 10
-40.520773
 20
-64.82009
 11
-40.598057
 21
-64.58214
  0
LINE
  8
ボルト／ビス
  6
CONTINUOUS
 62
    64
 10
-41.010197
 20
-64.716
 11
-40.93291
 21
-64.95395
  0
LINE
  8
ボルト／ビス
  6
CONTINUOUS
 62
    64
 10
-40.688198
 20
-65.005995
 11
-40.93291
 21
-64.95395
  0
LINE
  8
ボルト／ビス
  6
CONTINUOUS
 62
    64
 10
-40.84277
 20
-64.530095
 11
-41.010197
 21
-64.716
  0
LINE
  8
ボルト／ビス
  6
CONTINUOUS
 62
    64
 10
-40.520773
 20
-64.82009
 11
-40.688198
 21
-65.005995
  0
CIRCLE
  8
ボルト／ビス
  6
CONTINUOUS
 62
    64
 10
-40.765482
 20
-64.768045
 40
0.216668
  0
ENDBLK
  0
BLOCK
  2
*GRP_0023
 70
    65
 10
0.0
 20
0.0
  0
LINE
  8
補助線
  6
BYBLOCK
 62
    64
 10
-40.703563
 20
-84.012327
 11
-40.827408
 21
-84.123863
  0
LINE
  8
補助線
  6
BYBLOCK
 62
    64
 10
-40.821255
 20
-84.00617
 11
-40.709717
 21
-84.130018
  0
LINE
  8
補助線
  6
BYBLOCK
 62
    64
 10
-29.98846
 20
-74.362302
 11
-30.112305
 21
-74.473837
  0
LINE
  8
補助線
  6
BYBLOCK
 62
    64
 10
-30.10615
 20
-74.356145
 11
-29.994615
 21
-74.479993
  0
LINE
  8
補助線
  6
BYBLOCK
 62
    64
 10
-19.397203
 20
-64.823812
 11
-19.27336
 21
-64.712277
  0
LINE
  8
補助線
  6
BYBLOCK
 62
    64
 10
-19.39105
 20
-64.70612
 11
-19.279512
 21
-64.829968
  0
LINE
  8
型材断面
  6
CONTINUOUS
 10
-41.570853
 20
-83.67194
 11
-41.60778
 21
-84.37808
  0
LINE
  8
型材断面
  6
CONTINUOUS
 10
-41.60778
 20
-84.37808
 11
-41.16164
 21
-84.873463
  0
LINE
  8
型材断面
  6
CONTINUOUS
 10
-41.16164
 20
-84.873463
 11
-40.455498
 21
-84.910393
  0
LINE
  8
型材断面
  6
CONTINUOUS
 10
-19.645265
 20
-63.92575
 11
-18.939125
 21
-63.96268
  0
LINE
  8
型材断面
  6
CONTINUOUS
 10
-18.939125
 20
-63.96268
 11
-18.492983
 21
-64.45806
  0
LINE
  8
型材断面
  6
CONTINUOUS
 10
-18.492983
 20
-64.45806
 11
-18.529912
 21
-65.164205
  0
LINE
  8
型材断面
  6
CONTINUOUS
 10
-40.455498
 20
-84.910393
 11
-18.529912
 21
-65.164205
  0
LINE
  8
型材断面
  6
CONTINUOUS
 10
-41.570853
 20
-83.67194
 11
-19.645265
 21
-63.92575
  0
CIRCLE
  8
ボルト／ビス
  6
CONTINUOUS
 10
-40.765485
 20
-84.068095
 40
0.250185
  0
CIRCLE
  8
ボルト／ビス
  6
CONTINUOUS
 10
-40.765485
 20
-84.068095
 40
0.301025
  0
LINE
  8
ボルト／ビス
  6
CONTINUOUS
 62
    64
 10
-41.010197
 20
-84.12014
 11
-40.932913
 21
-83.88219
  0
LINE
  8
ボルト／ビス
  6
CONTINUOUS
 62
    64
 10
-40.6882
 20
-83.830145
 11
-40.932913
 21
-83.88219
  0
LINE
  8
ボルト／ビス
  6
CONTINUOUS
 62
    64
 10
-40.84277
 20
-84.306045
 11
-40.598057
 21
-84.254
  0
LINE
  8
ボルト／ビス
  6
CONTINUOUS
 62
    64
 10
-40.520773
 20
-84.01605
 11
-40.598057
 21
-84.254
  0
LINE
  8
ボルト／ビス
  6
CONTINUOUS
 62
    64
 10
-41.010197
 20
-84.12014
 11
-40.84277
 21
-84.306045
  0
LINE
  8
ボルト／ビス
  6
CONTINUOUS
 62
    64
 10
-40.6882
 20
-83.830145
 11
-40.520773
 21
-84.01605
  0
CIRCLE
  8
ボルト／ビス
  6
CONTINUOUS
 62
    64
 10
-40.765485
 20
-84.068095
 40
0.216668
  0
CIRCLE
  8
ボルト／ビス
  6
CONTINUOUS
 10
-30.050382
 20
-74.418073
 40
0.250185
  0
CIRCLE
  8
ボルト／ビス
  6
CONTINUOUS
 10
-30.050382
 20
-74.418073
 40
0.301025
  0
LINE
  8
ボルト／ビス
  6
CONTINUOUS
 62
    64
 10
-30.295097
 20
-74.470115
 11
-30.21781
 21
-74.232165
  0
LINE
  8
ボルト／ビス
  6
CONTINUOUS
 62
    64
 10
-29.973098
 20
-74.180123
 11
-30.21781
 21
-74.232165
  0
LINE
  8
ボルト／ビス
  6
CONTINUOUS
 62
    64
 10
-30.12767
 20
-74.65602
 11
-29.882957
 21
-74.603975
  0
LINE
  8
ボルト／ビス
  6
CONTINUOUS
 62
    64
 10
-29.80567
 20
-74.366028
 11
-29.882957
 21
-74.603975
  0
LINE
  8
ボルト／ビス
  6
CONTINUOUS
 62
    64
 10
-30.295097
 20
-74.470115
 11
-30.12767
 21
-74.65602
  0
LINE
  8
ボルト／ビス
  6
CONTINUOUS
 62
    64
 10
-29.973098
 20
-74.180123
 11
-29.80567
 21
-74.366028
  0
CIRCLE
  8
ボルト／ビス
  6
CONTINUOUS
 62
    64
 10
-30.050382
 20
-74.418073
 40
0.216668
  0
CIRCLE
  8
ボルト／ビス
  6
CONTINUOUS
 10
-19.335282
 20
-64.768045
 40
0.250185
  0
CIRCLE
  8
ボルト／ビス
  6
CONTINUOUS
 10
-19.335282
 20
-64.768045
 40
0.301025
  0
LINE
  8
ボルト／ビス
  6
CONTINUOUS
 62
    64
 10
-19.257995
 20
-64.530095
 11
-19.502707
 21
-64.58214
  0
LINE
  8
ボルト／ビス
  6
CONTINUOUS
 62
    64
 10
-19.579993
 20
-64.82009
 11
-19.502707
 21
-64.58214
  0
LINE
  8
ボルト／ビス
  6
CONTINUOUS
 62
    64
 10
-19.090567
 20
-64.716
 11
-19.167855
 21
-64.95395
  0
LINE
  8
ボルト／ビス
  6
CONTINUOUS
 62
    64
 10
-19.412568
 20
-65.005995
 11
-19.167855
 21
-64.95395
  0
LINE
  8
ボルト／ビス
  6
CONTINUOUS
 62
    64
 10
-19.257995
 20
-64.530095
 11
-19.090567
 21
-64.716
  0
LINE
  8
ボルト／ビス
  6
CONTINUOUS
 62
    64
 10
-19.579993
 20
-64.82009
 11
-19.412568
 21
-65.005995
  0
CIRCLE
  8
ボルト／ビス
  6
CONTINUOUS
 62
    64
 10
-19.335282
 20
-64.768045
 40
0.216668
  0
ENDBLK
  0
BLOCK
  2
*DIM_0024
 70
    65
 10
0.0
 20
0.0
  0
LINE
  8
寸法
  6
CONTINUOUS
 10
-113.38372
 20
-22.024302
 11
53.282948
 21
-22.024302
  0
POINT
  8
寸法
 10
-113.38372
 20
-22.024302
  0
POINT
  8
寸法
 10
53.282948
 20
-22.024302
  0
TEXT
  7
TextStyle03
  8
寸法
  6
CONTINUOUS
 10
-41.79375
 20
-21.675
  1
呼称寸法　5000
 40
3.0
 72
     5
 11
-18.35625
 21
-21.675
  0
ENDBLK
  0
BLOCK
  2
*DIM_0025
 70
    65
 10
0.0
 20
0.0
  0
LINE
  8
寸法
  6
CONTINUOUS
 10
148.3695
 20
-41.503855
 11
115.9695
 21
-41.503855
  0
POINT
  8
寸法
 10
148.3695
 20
-41.503855
  0
POINT
  8
寸法
 10
115.9695
 20
-41.503855
  0
TEXT
  7
TextStyle03
  8
寸法
  6
CONTINUOUS
 10
129.7125
 20
-41.15
  1
972
 40
3.0
 72
     5
 11
134.5875
 21
-41.15
  0
ENDBLK
  0
BLOCK
  2
*DIM_0026
 70
    65
 10
0.0
 20
0.0
  0
LINE
  8
寸法
  6
BYBLOCK
 62
     0
 10
72.45977
 20
-61.824712
 11
72.45977
 21
-78.49138
  0
POINT
  8
寸法
 62
     0
 10
72.45977
 20
-61.824712
  0
POINT
  8
寸法
 62
     0
 10
72.45977
 20
-78.49138
  0
TEXT
  7
TextStyle03
  8
寸法
  6
CONTINUOUS
 62
     0
 10
71.775
 20
-59.16875
  1
上昇452以上
 40
3.0
 50
90.0
 72
     5
 11
71.775
 21
-40.98125
  0
ENDBLK
  0
BLOCK
  2
*DIM_0027
 70
    65
 10
0.0
 20
0.0
  0
LINE
  8
寸法
  6
BYBLOCK
 62
     0
 10
142.19966
 20
65.733497
 11
125.532993
 21
65.733497
  0
POINT
  8
寸法
 62
     0
 10
142.19966
 20
65.733497
  0
POINT
  8
寸法
 62
     0
 10
125.532993
 20
65.733497
  0
TEXT
  7
TextStyle03
  8
寸法
  6
CONTINUOUS
 62
     0
 10
103.83125
 20
64.475
  1
上昇452以上
 40
3.0
 72
     5
 11
122.01875
 21
64.475
  0
ENDBLK
  0
BLOCK
  2
*DIM_0028
 70
    65
 10
0.0
 20
0.0
  0
LINE
  8
寸法
  6
CONTINUOUS
 10
153.3695
 20
-49.867045
 11
163.308072
 21
-49.867045
  0
LINE
  8
寸法
  6
CONTINUOUS
 10
153.3695
 20
-93.20038
 11
163.308072
 21
-93.20038
  0
LINE
  8
寸法
  6
CONTINUOUS
 10
163.308072
 20
-49.867045
 11
163.308072
 21
-93.20038
  0
POINT
  8
寸法
 10
163.308072
 20
-49.867045
  0
POINT
  8
寸法
 10
163.308072
 20
-93.20038
  0
TEXT
  7
TextStyle03
  8
寸法
  6
CONTINUOUS
 10
162.925
 20
-74.83125
  1
1300
 40
3.0
 50
90.0
 72
     5
 11
162.925
 21
-68.26875
  0
ENDBLK
  0
BLOCK
  2
*DIM_0029
 70
    65
 10
0.0
 20
0.0
  0
LINE
  8
寸法
  6
CONTINUOUS
 10
142.19966
 20
61.73238
 11
142.19966
 21
65.733497
  0
LINE
  8
寸法
  6
CONTINUOUS
 10
150.316213
 20
61.73238
 11
150.316213
 21
65.733497
  0
LINE
  8
寸法
  6
CONTINUOUS
 10
142.19966
 20
65.733497
 11
150.316213
 21
65.733497
  0
POINT
  8
寸法
 10
142.19966
 20
65.733497
  0
POINT
  8
寸法
 10
150.316213
 20
65.733497
  0
TEXT
  7
TextStyle03
  8
寸法
  6
CONTINUOUS
 10
142.125
 20
66.075
  1
243.5
 40
3.0
 72
     5
 11
150.375
 21
66.075
  0
ENDBLK
  0
BLOCK
  2
*DIM_0030
 70
    65
 10
0.0
 20
0.0
  0
LINE
  8
寸法
  6
CONTINUOUS
 10
59.95846
 20
-78.49138
 11
72.45977
 21
-78.49138
  0
LINE
  8
寸法
  6
CONTINUOUS
 10
61.046285
 20
-86.607932
 11
72.45977
 21
-86.607932
  0
LINE
  8
寸法
  6
CONTINUOUS
 10
72.45977
 20
-78.49138
 11
72.45977
 21
-86.607932
  0
POINT
  8
寸法
 10
72.45977
 20
-78.49138
  0
POINT
  8
寸法
 10
72.45977
 20
-86.607932
  0
TEXT
  7
TextStyle03
  8
寸法
  6
CONTINUOUS
 10
75.475
 20
-86.675
  1
243.5
 40
3.0
 50
90.0
 72
     5
 11
75.475
 21
-78.425
  0
ENDBLK
  0
ENDSEC
  0
SECTION
  2
ENTITIES
  0
POLYLINE
  8
通り芯
  6
CONTINUOUS
 66
     1
 70
     1
  0
VERTEX
  8
通り芯
 10
-210.0
 20
-148.5
  0
VERTEX
  8
通り芯
 10
210.0
 20
-148.5
  0
VERTEX
  8
通り芯
 10
210.0
 20
148.5
  0
VERTEX
  8
通り芯
 10
-210.0
 20
148.5
  0
SEQEND
  0
INSERT
  2
*GRP_0001
  8
型材断面
  6
CONTINUOUS
 10
0.0
 20
0.0
  0
LINE
  8
型材断面
  6
DASHDOT
 10
53.282945
 20
-87.251428
 11
53.282945
 21
56.73238
  0
LINE
  8
型材断面
  6
DASHDOT
 10
-30.050388
 20
-87.251428
 11
-30.050388
 21
56.73238
  0
LINE
  8
型材断面
  6
DASHDOT
 10
-113.383723
 20
-87.251428
 11
-113.383723
 21
56.73238
  0
LINE
  8
型材断面
  6
DASHDOT
 10
150.959707
 20
56.73238
 11
-113.383723
 21
56.73238
  0
LINE
  8
型材断面
  6
DASHDOT
 10
150.959707
 20
35.065715
 11
-113.383723
 21
35.065715
  0
LINE
  8
型材断面
  6
DASHDOT
 10
150.959707
 20
13.399048
 11
-113.383723
 21
13.399048
  0
POLYLINE
  8
型材断面
  6
CONTINUOUS
 66
     1
 70
     1
  0
VERTEX
  8
型材断面
 10
-20.921443
 20
66.508305
  0
VERTEX
  8
型材断面
 10
-39.693372
 20
66.508305
  0
VERTEX
  8
型材断面
 10
-39.693372
 20
71.245147
  0
VERTEX
  8
型材断面
 10
-20.921443
 20
71.245147
  0
SEQEND
  0
POLYLINE
  8
型材断面
  6
CONTINUOUS
 66
     1
 70
     1
  0
VERTEX
  8
型材断面
 10
-20.921443
 20
3.623125
  0
VERTEX
  8
型材断面
 10
-39.693372
 20
3.623125
  0
VERTEX
  8
型材断面
 10
-39.693372
 20
-1.113717
  0
VERTEX
  8
型材断面
 10
-20.921443
 20
-1.113717
  0
SEQEND
  0
LINE
  8
型材断面
  6
CONTINUOUS
 10
-154.23593
 20
94.709852
 11
-153.639875
 21
92.119345
  0
LINE
  8
型材断面
  6
CONTINUOUS
 10
-154.23593
 20
94.709852
 11
-154.831988
 21
92.119345
  0
LINE
  8
型材断面
  6
CONTINUOUS
 10
-154.831988
 20
92.119345
 11
-153.639875
 21
92.119345
  0
LINE
  8
型材断面
  6
CONTINUOUS
 10
-160.258518
 20
88.840452
 11
-114.01674
 21
88.840452
  0
LINE
  8
型材断面
  6
CONTINUOUS
 10
-154.23593
 20
101.239727
 11
-155.73156
 21
98.64922
  0
LINE
  8
型材断面
  6
CONTINUOUS
 10
-154.23593
 20
101.239727
 11
-152.7403
 21
98.64922
  0
LINE
  8
型材断面
  6
CONTINUOUS
 10
-152.7403
 20
98.64922
 11
-155.73156
 21
98.64922
  0
LINE
  8
型材断面
  6
CONTINUOUS
 10
-160.258518
 20
97.710625
 11
-114.01674
 21
97.710625
  0
LINE
  8
型材断面
  6
CONTINUOUS
 10
-160.258518
 20
83.05242
 11
-114.01674
 21
83.05242
  0
LINE
  8
型材断面
  6
CONTINUOUS
 10
-160.258518
 20
77.264387
 11
-114.01674
 21
77.264387
  0
INSERT
  2
*GRP_0018
  8
型材断面
  6
CONTINUOUS
 10
0.0
 20
0.0
  0
INSERT
  2
*GRP_0019
  8
型材断面
  6
CONTINUOUS
 10
0.0
 20
0.0
  0
INSERT
  2
*GRP_0020
  8
型材断面
  6
CONTINUOUS
 10
0.0
 20
0.0
  0
INSERT
  2
*GRP_0021
  8
型材断面
  6
CONTINUOUS
 10
0.0
 20
0.0
  0
INSERT
  2
*GRP_0022
  8
型材断面
  6
CONTINUOUS
 10
0.0
 20
0.0
  0
INSERT
  2
*GRP_0023
  8
型材断面
  6
CONTINUOUS
 10
0.0
 20
0.0
  0
LINE
  8
型材断面
  6
CONTINUOUS
 10
-116.147058
 20
59.495565
 11
56.046283
 21
59.495565
  0
LINE
  8
型材断面
  6
CONTINUOUS
 10
56.046283
 20
10.63586
 11
-116.147058
 21
10.63586
  0
LINE
  8
型材断面
  6
CONTINUOUS
 10
-116.147058
 20
35.065712
 11
-118.737565
 21
36.561342
  0
LINE
  8
型材断面
  6
CONTINUOUS
 10
-116.147058
 20
35.065712
 11
-118.737565
 21
33.570082
  0
LINE
  8
型材断面
  6
CONTINUOUS
 10
-118.737565
 20
33.570082
 11
-118.737565
 21
36.561342
  0
LINE
  8
型材断面
  6
CONTINUOUS
 10
-116.147055
 20
53.03238
 11
-118.737565
 21
52.436327
  0
LINE
  8
型材断面
  6
CONTINUOUS
 10
-116.147055
 20
53.03238
 11
-118.737562
 21
53.62844
  0
LINE
  8
型材断面
  6
CONTINUOUS
 10
-118.737562
 20
53.62844
 11
-118.737565
 21
52.436327
  0
LINE
  8
型材断面
  6
CONTINUOUS
 10
-116.147055
 20
17.099045
 11
-118.737565
 21
17.695097
  0
LINE
  8
型材断面
  6
CONTINUOUS
 10
-116.147055
 20
17.099045
 11
-118.737562
 21
16.502985
  0
LINE
  8
型材断面
  6
CONTINUOUS
 10
-118.737562
 20
16.502985
 11
-118.737565
 21
17.695097
  0
LINE
  8
型材断面
  6
CONTINUOUS
 10
-96.717055
 20
59.495565
 11
-98.212685
 21
62.086073
  0
LINE
  8
型材断面
  6
CONTINUOUS
 10
-96.717055
 20
59.495565
 11
-95.221425
 21
62.086073
  0
LINE
  8
型材断面
  6
CONTINUOUS
 10
-95.221425
 20
62.086073
 11
-98.212685
 21
62.086073
  0
LINE
  8
型材断面
  6
CONTINUOUS
 10
36.61628
 20
59.495565
 11
38.11191
 21
62.086073
  0
LINE
  8
型材断面
  6
CONTINUOUS
 10
36.61628
 20
59.495565
 11
35.12065
 21
62.086073
  0
LINE
  8
型材断面
  6
CONTINUOUS
 10
35.12065
 20
62.086073
 11
38.11191
 21
62.086073
  0
LINE
  8
型材断面
  6
CONTINUOUS
 10
-30.050388
 20
59.495565
 11
-31.546018
 21
62.086073
  0
LINE
  8
型材断面
  6
CONTINUOUS
 10
-30.050388
 20
59.495565
 11
-28.554757
 21
62.086073
  0
LINE
  8
型材断面
  6
CONTINUOUS
 10
-28.554757
 20
62.086073
 11
-31.546018
 21
62.086073
  0
LINE
  8
型材断面
  6
CONTINUOUS
 10
56.046283
 20
35.065715
 11
58.63679
 21
36.561345
  0
LINE
  8
型材断面
  6
CONTINUOUS
 10
56.046283
 20
35.065715
 11
58.63679
 21
33.570085
  0
LINE
  8
型材断面
  6
CONTINUOUS
 10
58.63679
 20
33.570085
 11
58.63679
 21
36.561345
  0
LINE
  8
型材断面
  6
CONTINUOUS
 10
56.04628
 20
53.032382
 11
58.63679
 21
52.43633
  0
LINE
  8
型材断面
  6
CONTINUOUS
 10
56.04628
 20
53.032382
 11
58.636787
 21
53.628442
  0
LINE
  8
型材断面
  6
CONTINUOUS
 10
58.636787
 20
53.628442
 11
58.63679
 21
52.43633
  0
LINE
  8
型材断面
  6
CONTINUOUS
 10
56.04628
 20
17.099048
 11
58.63679
 21
17.6951
  0
LINE
  8
型材断面
  6
CONTINUOUS
 10
56.04628
 20
17.099048
 11
58.636787
 21
16.502988
  0
LINE
  8
型材断面
  6
CONTINUOUS
 10
58.636787
 20
16.502988
 11
58.63679
 21
17.6951
  0
LINE
  8
型材断面
  6
CONTINUOUS
 10
-96.717055
 20
10.63586
 11
-98.212685
 21
8.045353
  0
LINE
  8
型材断面
  6
CONTINUOUS
 10
-96.717055
 20
10.63586
 11
-95.221425
 21
8.045353
  0
LINE
  8
型材断面
  6
CONTINUOUS
 10
-95.221425
 20
8.045353
 11
-98.212685
 21
8.045353
  0
LINE
  8
型材断面
  6
CONTINUOUS
 10
36.61628
 20
10.63586
 11
38.11191
 21
8.045353
  0
LINE
  8
型材断面
  6
CONTINUOUS
 10
36.61628
 20
10.63586
 11
35.12065
 21
8.045353
  0
LINE
  8
型材断面
  6
CONTINUOUS
 10
35.12065
 20
8.045353
 11
38.11191
 21
8.045353
  0
LINE
  8
型材断面
  6
CONTINUOUS
 10
-30.050388
 20
10.63586
 11
-31.546018
 21
8.045353
  0
LINE
  8
型材断面
  6
CONTINUOUS
 10
-30.050388
 20
10.63586
 11
-28.554757
 21
8.045353
  0
LINE
  8
型材断面
  6
CONTINUOUS
 10
-28.554757
 20
8.045353
 11
-31.546018
 21
8.045353
  0
LINE
  8
型材断面
  6
DASHDOT
 10
-80.40039
 20
13.399048
 11
-80.40039
 21
56.73238
  0
LINE
  8
型材断面
  6
DASHDOT
 10
-46.833723
 20
13.399048
 11
-46.833723
 21
56.73238
  0
LINE
  8
型材断面
  6
DASHDOT
 10
20.299615
 20
13.399048
 11
20.299615
 21
56.73238
  0
LINE
  8
型材断面
  6
DASHDOT
 10
-13.267053
 20
13.399048
 11
-13.267053
 21
56.73238
  0
LINE
  8
型材断面
  6
CONTINUOUS
 10
21.549615
 20
14.899048
 11
19.049615
 21
14.89905
  0
LINE
  8
型材断面
  6
CONTINUOUS
 10
21.549615
 20
14.899048
 11
21.549615
 21
55.232382
  0
LINE
  8
型材断面
  6
CONTINUOUS
 10
21.549615
 20
55.232382
 11
19.049615
 21
55.23238
  0
LINE
  8
型材断面
  6
CONTINUOUS
 10
19.049615
 20
14.89905
 11
19.049615
 21
55.23238
  0
LINE
  8
型材断面
  6
CONTINUOUS
 10
-12.017053
 20
14.899048
 11
-14.517053
 21
14.89905
  0
LINE
  8
型材断面
  6
CONTINUOUS
 10
-12.017053
 20
14.899048
 11
-12.017053
 21
55.232382
  0
LINE
  8
型材断面
  6
CONTINUOUS
 10
-12.017053
 20
55.232382
 11
-14.517053
 21
55.23238
  0
LINE
  8
型材断面
  6
CONTINUOUS
 10
-14.517053
 20
14.89905
 11
-14.517053
 21
55.23238
  0
LINE
  8
型材断面
  6
CONTINUOUS
 10
-81.65039
 20
14.899048
 11
-79.15039
 21
14.89905
  0
LINE
  8
型材断面
  6
CONTINUOUS
 10
-81.65039
 20
14.899048
 11
-81.65039
 21
55.232382
  0
LINE
  8
型材断面
  6
CONTINUOUS
 10
-81.65039
 20
55.232382
 11
-79.15039
 21
55.23238
  0
LINE
  8
型材断面
  6
CONTINUOUS
 10
-79.15039
 20
14.89905
 11
-79.15039
 21
55.23238
  0
LINE
  8
型材断面
  6
CONTINUOUS
 10
-48.083723
 20
14.899048
 11
-45.583723
 21
14.89905
  0
LINE
  8
型材断面
  6
CONTINUOUS
 10
-48.083723
 20
14.899048
 11
-48.083723
 21
55.232382
  0
LINE
  8
型材断面
  6
CONTINUOUS
 10
-48.083723
 20
55.232382
 11
-45.583723
 21
55.23238
  0
LINE
  8
型材断面
  6
CONTINUOUS
 10
-45.583723
 20
14.89905
 11
-45.583723
 21
55.23238
  0
LINE
  8
型材断面
  6
CONTINUOUS
 10
37.207948
 20
14.065705
 11
37.207948
 21
11.565705
  0
LINE
  8
型材断面
  6
CONTINUOUS
 10
36.374612
 20
14.065705
 11
36.374612
 21
11.565705
  0
LINE
  8
型材断面
  6
CONTINUOUS
 10
3.93295
 20
14.065705
 11
3.93295
 21
11.565705
  0
LINE
  8
型材断面
  6
CONTINUOUS
 10
3.099615
 20
14.065705
 11
3.099615
 21
11.565705
  0
LINE
  8
型材断面
  6
CONTINUOUS
 10
-29.63372
 20
14.065705
 11
-29.63372
 21
11.565705
  0
LINE
  8
型材断面
  6
CONTINUOUS
 10
-30.467055
 20
14.065705
 11
-30.467055
 21
11.565705
  0
LINE
  8
型材断面
  6
CONTINUOUS
 10
37.207948
 20
56.065725
 11
37.207948
 21
58.565725
  0
LINE
  8
型材断面
  6
CONTINUOUS
 10
36.374612
 20
56.065725
 11
36.374612
 21
58.565725
  0
LINE
  8
型材断面
  6
CONTINUOUS
 10
3.93295
 20
56.065725
 11
3.93295
 21
58.565725
  0
LINE
  8
型材断面
  6
CONTINUOUS
 10
3.099615
 20
56.065725
 11
3.099615
 21
58.565725
  0
LINE
  8
型材断面
  6
CONTINUOUS
 10
-29.63372
 20
56.065725
 11
-29.63372
 21
58.565725
  0
LINE
  8
型材断面
  6
CONTINUOUS
 10
-30.467055
 20
56.065725
 11
-30.467055
 21
58.565725
  0
LINE
  8
型材断面
  6
CONTINUOUS
 10
36.374612
 20
14.065705
 11
3.93295
 21
14.06573
  0
LINE
  8
型材断面
  6
CONTINUOUS
 10
36.374612
 20
56.065725
 11
3.93295
 21
56.0657
  0
LINE
  8
型材断面
  6
CONTINUOUS
 10
3.099615
 20
56.0657
 11
-29.63372
 21
56.065675
  0
LINE
  8
型材断面
  6
CONTINUOUS
 10
3.099615
 20
14.06573
 11
-29.63372
 21
14.065755
  0
LINE
  8
型材断面
  6
CONTINUOUS
 10
56.046283
 20
10.63586
 11
56.046283
 21
59.495565
  0
LINE
  8
型材断面
  6
CONTINUOUS
 10
54.880602
 20
11.565692
 11
55.116302
 21
11.801392
  0
LINE
  8
型材断面
  6
CONTINUOUS
 10
52.3806
 20
14.065692
 11
52.6163
 21
14.301392
  0
LINE
  8
型材断面
  6
CONTINUOUS
 10
52.6163
 20
14.301392
 11
55.116302
 21
11.801392
  0
LINE
  8
型材断面
  6
CONTINUOUS
 10
55.116273
 20
35.065715
 11
55.116302
 21
11.801392
  0
LINE
  8
型材断面
  6
CONTINUOUS
 10
52.3806
 20
14.065692
 11
54.880602
 21
11.565692
  0
LINE
  8
型材断面
  6
CONTINUOUS
 10
56.046135
 20
10.63586
 11
54.99845
 21
11.68354
  0
LINE
  8
型材断面
  6
CONTINUOUS
 10
52.616273
 20
34.649048
 11
55.116273
 21
34.649048
  0
LINE
  8
型材断面
  6
CONTINUOUS
 10
52.616273
 20
35.482382
 11
55.116273
 21
35.482382
  0
LINE
  8
型材断面
  6
CONTINUOUS
 10
52.616273
 20
34.649048
 11
52.6163
 21
14.301392
  0
LINE
  8
型材断面
  6
CONTINUOUS
 10
54.880602
 20
58.565738
 11
55.116302
 21
58.330038
  0
LINE
  8
型材断面
  6
CONTINUOUS
 10
52.3806
 20
56.065738
 11
52.6163
 21
55.830038
  0
LINE
  8
型材断面
  6
CONTINUOUS
 10
52.3806
 20
56.065738
 11
54.880602
 21
58.565738
  0
LINE
  8
型材断面
  6
CONTINUOUS
 10
56.046135
 20
59.49557
 11
54.99845
 21
58.44789
  0
LINE
  8
型材断面
  6
CONTINUOUS
 10
52.6163
 20
55.830038
 11
55.116302
 21
58.330038
  0
LINE
  8
型材断面
  6
CONTINUOUS
 10
55.116273
 20
35.065715
 11
55.116302
 21
58.330038
  0
LINE
  8
型材断面
  6
CONTINUOUS
 10
52.616273
 20
35.482382
 11
52.6163
 21
55.830038
  0
LINE
  8
型材断面
  6
CONTINUOUS
 10
-30.050388
 20
58.565677
 11
54.880602
 21
58.565738
  0
LINE
  8
型材断面
  6
CONTINUOUS
 10
37.207948
 20
56.065725
 11
52.3806
 21
56.065738
  0
LINE
  8
型材断面
  6
CONTINUOUS
 10
37.207948
 20
14.065705
 11
52.3806
 21
14.065692
  0
LINE
  8
型材断面
  6
CONTINUOUS
 10
-30.050388
 20
11.565753
 11
54.880602
 21
11.565692
  0
LINE
  8
型材断面
  6
CONTINUOUS
 10
-30.050388
 20
58.565677
 11
-114.981377
 21
58.565738
  0
LINE
  8
型材断面
  6
CONTINUOUS
 10
-30.050388
 20
11.565753
 11
-114.981377
 21
11.565692
  0
LINE
  8
型材断面
  6
DASHDOT
 10
-80.40039
 20
13.399048
 11
-80.40039
 21
56.73238
  0
LINE
  8
型材断面
  6
DASHDOT
 10
-46.833723
 20
13.399048
 11
-46.833723
 21
56.73238
  0
LINE
  8
型材断面
  6
CONTINUOUS
 10
-81.65039
 20
14.899048
 11
-79.15039
 21
14.89905
  0
LINE
  8
型材断面
  6
CONTINUOUS
 10
-81.65039
 20
14.899048
 11
-81.65039
 21
55.232382
  0
LINE
  8
型材断面
  6
CONTINUOUS
 10
-81.65039
 20
55.232382
 11
-79.15039
 21
55.23238
  0
LINE
  8
型材断面
  6
CONTINUOUS
 10
-79.15039
 20
14.89905
 11
-79.15039
 21
55.23238
  0
LINE
  8
型材断面
  6
CONTINUOUS
 10
-48.083723
 20
14.899048
 11
-45.583723
 21
14.89905
  0
LINE
  8
型材断面
  6
CONTINUOUS
 10
-48.083723
 20
14.899048
 11
-48.083723
 21
55.232382
  0
LINE
  8
型材断面
  6
CONTINUOUS
 10
-48.083723
 20
55.232382
 11
-45.583723
 21
55.23238
  0
LINE
  8
型材断面
  6
CONTINUOUS
 10
-45.583723
 20
14.89905
 11
-45.583723
 21
55.23238
  0
LINE
  8
型材断面
  6
CONTINUOUS
 10
-97.308723
 20
14.065705
 11
-97.308723
 21
11.565705
  0
LINE
  8
型材断面
  6
CONTINUOUS
 10
-96.475388
 20
14.065705
 11
-96.475388
 21
11.565705
  0
LINE
  8
型材断面
  6
CONTINUOUS
 10
-64.033725
 20
14.065705
 11
-64.033725
 21
11.565705
  0
LINE
  8
型材断面
  6
CONTINUOUS
 10
-63.20039
 20
14.065705
 11
-63.20039
 21
11.565705
  0
LINE
  8
型材断面
  6
CONTINUOUS
 10
-97.308723
 20
56.065725
 11
-97.308723
 21
58.565725
  0
LINE
  8
型材断面
  6
CONTINUOUS
 10
-96.475388
 20
56.065725
 11
-96.475388
 21
58.565725
  0
LINE
  8
型材断面
  6
CONTINUOUS
 10
-64.033725
 20
56.065725
 11
-64.033725
 21
58.565725
  0
LINE
  8
型材断面
  6
CONTINUOUS
 10
-63.20039
 20
56.065725
 11
-63.20039
 21
58.565725
  0
LINE
  8
型材断面
  6
CONTINUOUS
 10
-96.475388
 20
14.065705
 11
-64.033725
 21
14.06573
  0
LINE
  8
型材断面
  6
CONTINUOUS
 10
-96.475388
 20
56.065725
 11
-64.033725
 21
56.0657
  0
LINE
  8
型材断面
  6
CONTINUOUS
 10
-116.147058
 20
10.63586
 11
-116.147058
 21
59.495565
  0
LINE
  8
型材断面
  6
CONTINUOUS
 10
-114.981377
 20
11.565692
 11
-115.217077
 21
11.801392
  0
LINE
  8
型材断面
  6
CONTINUOUS
 10
-112.481375
 20
14.065692
 11
-112.717075
 21
14.301392
  0
LINE
  8
型材断面
  6
CONTINUOUS
 10
-112.717075
 20
14.301392
 11
-115.217077
 21
11.801392
  0
LINE
  8
型材断面
  6
CONTINUOUS
 10
-115.217047
 20
35.065715
 11
-115.217077
 21
11.801392
  0
LINE
  8
型材断面
  6
CONTINUOUS
 10
-112.481375
 20
14.065692
 11
-114.981377
 21
11.565692
  0
LINE
  8
型材断面
  6
CONTINUOUS
 10
-116.14691
 20
10.63586
 11
-115.099225
 21
11.68354
  0
LINE
  8
型材断面
  6
CONTINUOUS
 10
-112.717047
 20
34.649048
 11
-115.217047
 21
34.649048
  0
LINE
  8
型材断面
  6
CONTINUOUS
 10
-112.717047
 20
35.482382
 11
-115.217047
 21
35.482382
  0
LINE
  8
型材断面
  6
CONTINUOUS
 10
-112.717047
 20
34.649048
 11
-112.717075
 21
14.301392
  0
LINE
  8
型材断面
  6
CONTINUOUS
 10
-114.981377
 20
58.565738
 11
-115.217077
 21
58.330038
  0
LINE
  8
型材断面
  6
CONTINUOUS
 10
-112.481375
 20
56.065738
 11
-112.717075
 21
55.830038
  0
LINE
  8
型材断面
  6
CONTINUOUS
 10
-112.481375
 20
56.065738
 11
-114.981377
 21
58.565738
  0
LINE
  8
型材断面
  6
CONTINUOUS
 10
-116.14691
 20
59.49557
 11
-115.099225
 21
58.44789
  0
LINE
  8
型材断面
  6
CONTINUOUS
 10
-112.717075
 20
55.830038
 11
-115.217077
 21
58.330038
  0
LINE
  8
型材断面
  6
CONTINUOUS
 10
-115.217047
 20
35.065715
 11
-115.217077
 21
58.330038
  0
LINE
  8
型材断面
  6
CONTINUOUS
 10
-112.717047
 20
35.482382
 11
-112.717075
 21
55.830038
  0
LINE
  8
型材断面
  6
CONTINUOUS
 10
-97.308723
 20
56.065725
 11
-112.481375
 21
56.065738
  0
LINE
  8
型材断面
  6
CONTINUOUS
 10
-97.308723
 20
14.065705
 11
-112.481375
 21
14.065692
  0
LINE
  8
型材断面
  6
CONTINUOUS
 10
-30.467055
 20
14.065755
 11
-63.20039
 21
14.06573
  0
LINE
  8
型材断面
  6
CONTINUOUS
 10
-30.467055
 20
56.065675
 11
-63.20039
 21
56.0657
  0
LINE
  8
型材断面
  6
CONTINUOUS
 10
150.316213
 20
58.995567
 11
150.652878
 21
58.995567
  0
LINE
  8
型材断面
  6
CONTINUOUS
 10
146.219663
 20
59.2989
 11
146.41633
 21
59.495567
  0
LINE
  8
型材断面
  6
CONTINUOUS
 10
146.41633
 20
59.495567
 11
150.316213
 21
59.495567
  0
LINE
  8
型材断面
  6
CONTINUOUS
 62
    47
 10
146.219708
 20
59.298942
 11
146.219708
 21
35.065715
  0
LINE
  8
型材断面
  6
CONTINUOUS
 10
146.41633
 20
59.495567
 11
146.41633
 21
35.065715
  0
LINE
  8
型材断面
  6
CONTINUOUS
 10
150.316213
 20
59.495567
 11
150.316213
 21
35.065715
  0
LINE
  8
型材断面
  6
CONTINUOUS
 10
150.652878
 20
58.995567
 11
150.652878
 21
35.065715
  0
LINE
  8
型材断面
  6
CONTINUOUS
 10
150.316213
 20
11.135863
 11
150.652878
 21
11.135863
  0
LINE
  8
型材断面
  6
CONTINUOUS
 10
146.219663
 20
10.83253
 11
146.41633
 21
10.635863
  0
LINE
  8
型材断面
  6
CONTINUOUS
 10
146.41633
 20
10.635863
 11
150.316213
 21
10.635863
  0
LINE
  8
型材断面
  6
CONTINUOUS
 62
    47
 10
146.219708
 20
10.832488
 11
146.219708
 21
35.065715
  0
LINE
  8
型材断面
  6
CONTINUOUS
 10
146.41633
 20
10.635863
 11
146.41633
 21
35.065715
  0
LINE
  8
型材断面
  6
CONTINUOUS
 10
150.316213
 20
10.635863
 11
150.316213
 21
35.065715
  0
LINE
  8
型材断面
  6
CONTINUOUS
 10
150.652878
 20
11.135863
 11
150.652878
 21
35.065715
  0
LINE
  8
型材断面
  6
CONTINUOUS
 10
55.546285
 20
-86.607932
 11
55.546285
 21
-86.944597
  0
LINE
  8
型材断面
  6
CONTINUOUS
 10
55.849618
 20
-82.511383
 11
56.046285
 21
-82.70805
  0
LINE
  8
型材断面
  6
CONTINUOUS
 10
56.046285
 20
-82.70805
 11
56.046285
 21
-86.607932
  0
LINE
  8
型材断面
  6
CONTINUOUS
 62
    47
 10
55.84966
 20
-82.511427
 11
-30.050388
 21
-82.511427
  0
LINE
  8
型材断面
  6
CONTINUOUS
 10
56.046285
 20
-82.70805
 11
-30.050388
 21
-82.70805
  0
LINE
  8
型材断面
  6
CONTINUOUS
 10
55.546285
 20
-86.944597
 11
-30.050388
 21
-86.944597
  0
LINE
  8
型材断面
  6
CONTINUOUS
 10
56.046285
 20
-86.607932
 11
-30.050388
 21
-86.607932
  0
LINE
  8
型材断面
  6
CONTINUOUS
 10
-115.64706
 20
-86.607932
 11
-115.64706
 21
-86.944597
  0
LINE
  8
型材断面
  6
CONTINUOUS
 10
-115.950392
 20
-82.511383
 11
-116.14706
 21
-82.70805
  0
LINE
  8
型材断面
  6
CONTINUOUS
 10
-116.14706
 20
-82.70805
 11
-116.14706
 21
-86.607932
  0
LINE
  8
型材断面
  6
CONTINUOUS
 62
    47
 10
-115.950435
 20
-82.511427
 11
-30.050388
 21
-82.511427
  0
LINE
  8
型材断面
  6
CONTINUOUS
 10
-116.14706
 20
-82.70805
 11
-30.050388
 21
-82.70805
  0
LINE
  8
型材断面
  6
CONTINUOUS
 10
-115.64706
 20
-86.944597
 11
-30.050388
 21
-86.944597
  0
LINE
  8
型材断面
  6
CONTINUOUS
 10
-116.14706
 20
-86.607932
 11
-30.050388
 21
-86.607932
  0
TEXT
  7
TextStyle03
  8
文字
  6
CONTINUOUS
 10
-38.6
 20
67.2
  1
可動装置側
 40
3.0
 72
     5
 11
-22.1
 21
67.2
  0
TEXT
  7
TextStyle03
  8
文字
  6
CONTINUOUS
 10
-38.6
 20
-0.075
  1
可動装置側
 40
3.0
 72
     5
 11
-22.1
 21
-0.075
  0
TEXT
  7
TextStyle03
  8
文字
  6
CONTINUOUS
 10
-151.425
 20
93.325
  1
はケーシング位置を示す
 40
3.0
 72
     5
 11
-114.675
 21
93.325
  0
TEXT
  7
TextStyle03
  8
文字
  6
CONTINUOUS
 10
-151.425
 20
89.95
  1
４ヶ所中1ヶ所に設定
 40
3.0
 72
     5
 11
-119.7375
 21
89.95
  0
TEXT
  7
TextStyle03
  8
文字
  6
CONTINUOUS
 10
-151.425
 20
98.85
  1
は排水穴位置を示す
 40
3.0
 72
     5
 11
-121.425
 21
98.85
  0
TEXT
  7
TextStyle03
  8
文字
  6
CONTINUOUS
 10
-150.925
 20
23.975
  1
アンカーピッチ
 40
3.0
 50
90.0
 72
     5
 11
-150.925
 21
47.225
  0
TEXT
  7
TextStyle03
  8
文字
  6
CONTINUOUS
 10
-102.65
 20
94.175
  1
アンカーピッチ
 40
3.0
 72
     5
 11
-79.4
 21
94.175
  0
TEXT
  7
TextStyle03
  8
文字
  6
CONTINUOUS
 10
-155.15
 20
83.975
  1
アンカー数量　１８ヶ所
 40
3.0
 72
     5
 11
-118.4
 21
83.975
  0
TEXT
  7
TextStyle03
  8
文字
  6
CONTINUOUS
 10
-160.15
 20
78.2
  1
アームユニット数　※４～６ヶ所
 40
3.0
 72
     5
 11
-109.9
 21
78.2
  0
TEXT
  7
TextStyle03
  8
文字
  6
CONTINUOUS
 10
-160.15
 20
73.25
  1
※重量に依るのでご相談ください
 40
3.0
 72
     5
 11
-109.9
 21
73.25
  0
LINE
  8
文字
  6
CONTINUOUS
 10
144.411973
 20
59.495565
 11
87.302595
 21
59.495565
  0
LINE
  8
文字
  6
CONTINUOUS
 10
144.411973
 20
10.63586
 11
87.302595
 21
10.63586
  0
LINE
  8
文字
  6
CONTINUOUS
 10
125.532993
 20
65.733497
 11
125.532993
 21
60.820725
  0
LINE
  8
文字
  6
CONTINUOUS
 10
-116.147058
 20
-80.158047
 11
-116.147058
 21
-22.024302
  0
LINE
  8
文字
  6
CONTINUOUS
 10
56.046283
 20
-80.158047
 11
56.046283
 21
-22.024302
  0
LINE
  8
文字
  6
CONTINUOUS
 10
72.45977
 20
-61.824712
 11
58.85609
 21
-61.824712
  0
LINE
  8
文字
  6
CONTINUOUS
 10
115.9695
 20
-41.503855
 11
115.9695
 21
-48.66121
  0
LINE
  8
文字
  6
CONTINUOUS
 10
148.3695
 20
-41.503855
 11
148.3695
 21
-48.66121
  0
TEXT
  7
TextStyle03
  8
文字
  6
CONTINUOUS
 10
129.825
 20
-86.75
  1
網入り6.8t
 40
3.0
 72
     5
 11
146.5125
 21
-86.75
  0
TEXT
  7
TextStyle03
  8
文字
  6
CONTINUOUS
 10
136.5
 20
-91.425
  1
×５枚
 40
3.0
 72
     5
 11
146.25
 21
-91.425
  0
TEXT
  7
TextStyle03
  8
文字
  6
CONTINUOUS
 10
61.1
 20
125.25
  1
シリーズ：ＴＦＦＬ
 40
5.0
 72
     5
 11
111.1
 21
125.25
  0
TEXT
  7
TextStyle03
  8
文字
  6
CONTINUOUS
 10
61.1
 20
119.625
  1
　　　　　（上下可動）1300×5000タイプ
 40
5.0
 72
     5
 11
167.35
 21
119.625
  0
TEXT
  7
TextStyle03
  8
文字
  6
CONTINUOUS
 10
61.1
 20
114.0
  1
図面名　：外観姿図
 40
5.0
 72
     5
 11
111.1
 21
114.0
  0
TEXT
  7
TextStyle03
  8
文字
  6
CONTINUOUS
 10
61.1
 20
108.375
  1
　　　　　　
 40
5.0
 72
     5
 11
94.225
 21
108.375
  0
TEXT
  7
TextStyle03
  8
文字
  6
CONTINUOUS
 10
61.25
 20
104.525
  1
ＮＳコード：ＮＳＦＬ
 40
5.0
 72
     5
 11
116.875
 21
104.525
  0
INSERT
  2
*DIM_0002
  8
寸法
  6
CONTINUOUS
 10
0.0
 20
0.0
  0
INSERT
  2
*DIM_0003
  8
寸法
  6
CONTINUOUS
 10
0.0
 20
0.0
  0
INSERT
  2
*DIM_0004
  8
寸法
  6
CONTINUOUS
 10
0.0
 20
0.0
  0
INSERT
  2
*DIM_0005
  8
寸法
  6
CONTINUOUS
 10
0.0
 20
0.0
  0
INSERT
  2
*DIM_0006
  8
寸法
  6
CONTINUOUS
 10
0.0
 20
0.0
  0
INSERT
  2
*DIM_0007
  8
寸法
  6
CONTINUOUS
 10
0.0
 20
0.0
  0
INSERT
  2
*DIM_0008
  8
寸法
  6
CONTINUOUS
 10
0.0
 20
0.0
  0
INSERT
  2
*DIM_0009
  8
寸法
  6
CONTINUOUS
 10
0.0
 20
0.0
  0
INSERT
  2
*DIM_0010
  8
寸法
  6
CONTINUOUS
 10
0.0
 20
0.0
  0
INSERT
  2
*DIM_0011
  8
寸法
  6
CONTINUOUS
 10
0.0
 20
0.0
  0
INSERT
  2
*DIM_0012
  8
寸法
  6
CONTINUOUS
 10
0.0
 20
0.0
  0
INSERT
  2
*DIM_0013
  8
寸法
  6
CONTINUOUS
 10
0.0
 20
0.0
  0
INSERT
  2
*DIM_0014
  8
寸法
  6
CONTINUOUS
 10
0.0
 20
0.0
  0
INSERT
  2
*DIM_0015
  8
寸法
  6
CONTINUOUS
 10
0.0
 20
0.0
  0
INSERT
  2
*DIM_0016
  8
寸法
  6
CONTINUOUS
 10
0.0
 20
0.0
  0
INSERT
  2
*DIM_0017
  8
寸法
  6
CONTINUOUS
 10
0.0
 20
0.0
  0
INSERT
  2
*DIM_0024
  8
寸法
  6
CONTINUOUS
 10
0.0
 20
0.0
  0
INSERT
  2
*DIM_0025
  8
寸法
  6
CONTINUOUS
 10
0.0
 20
0.0
  0
INSERT
  2
*DIM_0026
  8
寸法
  6
CONTINUOUS
 10
0.0
 20
0.0
  0
INSERT
  2
*DIM_0027
  8
寸法
  6
CONTINUOUS
 10
0.0
 20
0.0
  0
INSERT
  2
*DIM_0028
  8
寸法
  6
CONTINUOUS
 10
0.0
 20
0.0
  0
INSERT
  2
*DIM_0029
  8
寸法
  6
CONTINUOUS
 10
0.0
 20
0.0
  0
INSERT
  2
*DIM_0030
  8
寸法
  6
CONTINUOUS
 10
0.0
 20
0.0
  0
LINE
  8
別途部材
  6
CONTINUOUS
 62
    47
 10
142.29966
 20
58.565568
 11
142.366328
 21
58.565568
  0
ARC
  8
別途部材
  6
CONTINUOUS
 62
    47
 10
142.299661
 20
58.465567
 40
0.1
 50
90.0
 51
180.0
  0
LINE
  8
別途部材
  6
CONTINUOUS
 62
    47
 10
142.366328
 20
58.409045
 11
143.866328
 21
58.409045
  0
LINE
  8
別途部材
  6
CONTINUOUS
 62
    47
 10
142.29966
 20
11.565857
 11
142.366328
 21
11.565857
  0
ARC
  8
別途部材
  6
CONTINUOUS
 62
    47
 10
142.299661
 20
11.665857
 40
0.1
 50
180.0
 51
270.0
  0
LINE
  8
別途部材
  6
CONTINUOUS
 62
    47
 10
142.366328
 20
11.72238
 11
143.866328
 21
11.72238
  0
LINE
  8
別途部材
  6
CONTINUOUS
 62
    47
 10
142.366328
 20
11.565857
 11
142.366328
 21
35.198768
  0
LINE
  8
別途部材
  6
CONTINUOUS
 62
    47
 10
142.19966
 20
11.665857
 11
142.19966
 21
35.198768
  0
LINE
  8
別途部材
  6
CONTINUOUS
 62
    47
 10
143.866328
 20
11.72238
 11
143.866328
 21
35.198768
  0
LINE
  8
別途部材
  6
CONTINUOUS
 62
    47
 10
145.01633
 20
10.63586
 11
145.01633
 21
35.198768
  0
LINE
  8
別途部材
  6
CONTINUOUS
 62
    47
 10
146.182995
 20
10.63586
 11
146.182995
 21
35.198768
  0
LINE
  8
別途部材
  6
CONTINUOUS
 62
    47
 10
146.182995
 20
59.495565
 11
146.182995
 21
35.198768
  0
LINE
  8
別途部材
  6
CONTINUOUS
 62
    47
 10
145.01633
 20
59.495565
 11
145.01633
 21
35.198768
  0
LINE
  8
別途部材
  6
CONTINUOUS
 62
    47
 10
143.866328
 20
58.409045
 11
143.866328
 21
35.198768
  0
LINE
  8
別途部材
  6
CONTINUOUS
 62
    47
 10
142.366328
 20
58.565568
 11
142.366328
 21
35.198768
  0
LINE
  8
別途部材
  6
CONTINUOUS
 62
    47
 10
142.19966
 20
58.465567
 11
142.19966
 21
35.198768
  0
LINE
  8
別途部材
  6
DOT
 62
    47
 10
125.632993
 20
58.565568
 11
125.69966
 21
58.565568
  0
ARC
  8
別途部材
  6
DOT
 62
    47
 10
125.632994
 20
58.465567
 40
0.1
 50
90.0
 51
180.0
  0
LINE
  8
別途部材
  6
DOT
 62
    47
 10
125.69966
 20
58.409045
 11
127.19966
 21
58.409045
  0
LINE
  8
別途部材
  6
DOT
 62
    47
 10
125.632993
 20
11.565857
 11
125.69966
 21
11.565857
  0
ARC
  8
別途部材
  6
DOT
 62
    47
 10
125.632994
 20
11.665857
 40
0.1
 50
180.0
 51
270.0
  0
LINE
  8
別途部材
  6
DOT
 62
    47
 10
125.69966
 20
11.72238
 11
127.19966
 21
11.72238
  0
LINE
  8
別途部材
  6
DOT
 62
    47
 10
128.349662
 20
10.63586
 11
128.349662
 21
35.198768
  0
LINE
  8
別途部材
  6
DOT
 62
    47
 10
125.532993
 20
11.665857
 11
125.532993
 21
35.198768
  0
LINE
  8
別途部材
  6
DOT
 62
    47
 10
127.19966
 20
11.72238
 11
127.19966
 21
35.198768
  0
LINE
  8
別途部材
  6
DOT
 62
    47
 10
129.516328
 20
10.63586
 11
129.516328
 21
35.198768
  0
LINE
  8
別途部材
  6
DOT
 62
    47
 10
125.69966
 20
11.565857
 11
125.69966
 21
35.198768
  0
LINE
  8
別途部材
  6
DOT
 62
    47
 10
129.516328
 20
59.495565
 11
129.516328
 21
35.198768
  0
LINE
  8
別途部材
  6
DOT
 62
    47
 10
128.349662
 20
59.495565
 11
128.349662
 21
35.198768
  0
LINE
  8
別途部材
  6
DOT
 62
    47
 10
127.19966
 20
58.409045
 11
127.19966
 21
35.198768
  0
LINE
  8
別途部材
  6
DOT
 62
    47
 10
125.532993
 20
58.465567
 11
125.532993
 21
35.198768
  0
LINE
  8
別途部材
  6
DOT
 62
    47
 10
125.69966
 20
58.565568
 11
125.69966
 21
35.198768
  0
LINE
  8
別途部材
  6
CONTINUOUS
 62
    47
 10
-115.21706
 20
-78.59138
 11
-115.21706
 21
-78.658047
  0
ARC
  8
別途部材
  6
CONTINUOUS
 62
    47
 10
-115.117057
 20
-78.591384
 40
0.1
 50
90.0
 51
180.0
  0
LINE
  8
別途部材
  6
CONTINUOUS
 62
    47
 10
-115.060538
 20
-78.658047
 11
-115.060538
 21
-80.158047
  0
LINE
  8
別途部材
  6
CONTINUOUS
 62
    47
 10
55.116285
 20
-78.59138
 11
55.116285
 21
-78.658047
  0
ARC
  8
別途部材
  6
CONTINUOUS
 62
    47
 10
55.016278
 20
-78.591384
 40
0.1
 50
0.0
 51
90.0
  0
LINE
  8
別途部材
  6
CONTINUOUS
 62
    47
 10
54.959763
 20
-78.658047
 11
54.959763
 21
-80.158047
  0
LINE
  8
別途部材
  6
CONTINUOUS
 62
    47
 10
-115.21706
 20
-78.658047
 11
-30.050388
 21
-78.658047
  0
LINE
  8
別途部材
  6
CONTINUOUS
 62
    47
 10
-115.11706
 20
-78.49138
 11
-30.050388
 21
-78.49138
  0
LINE
  8
別途部材
  6
CONTINUOUS
 62
    47
 10
-115.060538
 20
-80.158047
 11
-30.050388
 21
-80.158047
  0
LINE
  8
別途部材
  6
CONTINUOUS
 62
    47
 10
-116.147058
 20
-81.30805
 11
-30.050388
 21
-81.30805
  0
LINE
  8
別途部材
  6
CONTINUOUS
 62
    47
 10
-116.147058
 20
-82.474715
 11
-30.050388
 21
-82.474715
  0
LINE
  8
別途部材
  6
CONTINUOUS
 62
    47
 10
56.046283
 20
-82.474715
 11
-30.050388
 21
-82.474715
  0
LINE
  8
別途部材
  6
CONTINUOUS
 62
    47
 10
54.959763
 20
-80.158047
 11
-30.050388
 21
-80.158047
  0
LINE
  8
別途部材
  6
CONTINUOUS
 62
    47
 10
55.116285
 20
-78.658047
 11
-30.050388
 21
-78.658047
  0
LINE
  8
別途部材
  6
CONTINUOUS
 62
    47
 10
55.016285
 20
-78.49138
 11
-30.050388
 21
-78.49138
  0
LINE
  8
別途部材
  6
CONTINUOUS
 62
    47
 10
56.046283
 20
-81.30805
 11
-30.050388
 21
-81.30805
  0
LINE
  8
別途部材
  6
DOT
 62
    47
 10
-115.21706
 20
-61.924712
 11
-115.21706
 21
-61.99138
  0
ARC
  8
別途部材
  6
DOT
 62
    47
 10
-115.117057
 20
-61.924716
 40
0.1
 50
90.0
 51
180.0
  0
LINE
  8
別途部材
  6
DOT
 62
    47
 10
-115.060538
 20
-61.99138
 11
-115.060538
 21
-63.49138
  0
LINE
  8
別途部材
  6
DOT
 62
    47
 10
55.116285
 20
-61.924712
 11
55.116285
 21
-61.99138
  0
ARC
  8
別途部材
  6
DOT
 62
    47
 10
55.016278
 20
-61.924716
 40
0.1
 50
0.0
 51
90.0
  0
LINE
  8
別途部材
  6
DOT
 62
    47
 10
54.959763
 20
-61.99138
 11
54.959763
 21
-63.49138
  0
LINE
  8
別途部材
  6
DOT
 62
    47
 10
-116.147058
 20
-64.641382
 11
-30.050388
 21
-64.641382
  0
LINE
  8
別途部材
  6
DOT
 62
    47
 10
-116.147058
 20
-65.808047
 11
-30.050388
 21
-65.808047
  0
LINE
  8
別途部材
  6
DOT
 62
    47
 10
-115.060538
 20
-63.49138
 11
-30.050388
 21
-63.49138
  0
LINE
  8
別途部材
  6
DOT
 62
    47
 10
-115.21706
 20
-61.99138
 11
-30.050388
 21
-61.99138
  0
LINE
  8
別途部材
  6
DOT
 62
    47
 10
-115.11706
 20
-61.824712
 11
-30.050388
 21
-61.824712
  0
LINE
  8
別途部材
  6
DOT
 62
    47
 10
56.046283
 20
-65.808047
 11
-30.050388
 21
-65.808047
  0
LINE
  8
別途部材
  6
DOT
 62
    47
 10
56.046283
 20
-64.641382
 11
-30.050388
 21
-64.641382
  0
LINE
  8
別途部材
  6
DOT
 62
    47
 10
54.959763
 20
-63.49138
 11
-30.050388
 21
-63.49138
  0
LINE
  8
別途部材
  6
DOT
 62
    47
 10
55.016285
 20
-61.824712
 11
-30.050388
 21
-61.824712
  0
LINE
  8
別途部材
  6
DOT
 62
    47
 10
55.116285
 20
-61.99138
 11
-30.050388
 21
-61.99138
  0
LINE
  8
曲げ物
  6
CONTINUOUS
 10
38.008675
 20
37.022003
 11
34.313363
 21
33.32669
  0
LINE
  8
曲げ物
  6
CONTINUOUS
 10
37.305205
 20
35.485893
 11
35.849475
 21
34.030163
  0
LINE
  8
曲げ物
  6
CONTINUOUS
 10
36.472565
 20
36.318533
 11
35.016835
 21
34.862803
  0
LINE
  8
曲げ物
  6
CONTINUOUS
 10
6.120495
 20
37.022003
 11
2.425182
 21
33.32669
  0
LINE
  8
曲げ物
  6
CONTINUOUS
 10
5.417025
 20
35.485893
 11
3.961295
 21
34.030163
  0
LINE
  8
曲げ物
  6
CONTINUOUS
 10
4.584385
 20
36.318533
 11
3.128655
 21
34.862803
  0
LINE
  8
曲げ物
  6
CONTINUOUS
 10
-27.973165
 20
37.022003
 11
-31.668477
 21
33.32669
  0
LINE
  8
曲げ物
  6
CONTINUOUS
 10
-28.676635
 20
35.485893
 11
-30.132365
 21
34.030163
  0
LINE
  8
曲げ物
  6
CONTINUOUS
 10
-29.509275
 20
36.318533
 11
-30.965005
 21
34.862803
  0
LINE
  8
曲げ物
  6
CONTINUOUS
 10
-61.774535
 20
37.022003
 11
-65.469848
 21
33.32669
  0
LINE
  8
曲げ物
  6
CONTINUOUS
 10
-62.478005
 20
35.485893
 11
-63.933735
 21
34.030163
  0
LINE
  8
曲げ物
  6
CONTINUOUS
 10
-63.310645
 20
36.318533
 11
-64.766375
 21
34.862803
  0
LINE
  8
曲げ物
  6
CONTINUOUS
 10
-95.297588
 20
37.022003
 11
-98.9929
 21
33.32669
  0
LINE
  8
曲げ物
  6
CONTINUOUS
 10
-96.001058
 20
35.485893
 11
-97.456787
 21
34.030163
  0
LINE
  8
曲げ物
  6
CONTINUOUS
 10
-96.833698
 20
36.318533
 11
-98.289427
 21
34.862803
  0
LINE
  8
曲げ物
  6
CONTINUOUS
 10
148.3695
 20
-49.867045
 11
115.9695
 21
-49.867045
  0
LINE
  8
曲げ物
  6
CONTINUOUS
 10
148.3695
 20
-93.20038
 11
115.9695
 21
-93.20038
  0
LINE
  8
曲げ物
  6
CONTINUOUS
 10
148.3695
 20
-49.867045
 11
148.3695
 21
-93.20038
  0
LINE
  8
曲げ物
  6
CONTINUOUS
 10
115.9695
 20
-49.867045
 11
115.9695
 21
-93.20038
  0
LINE
  8
鉄骨等
  6
CONTINUOUS
 62
    47
 10
146.182995
 20
59.495565
 11
145.01633
 21
59.495565
  0
LINE
  8
鉄骨等
  6
CONTINUOUS
 62
    47
 10
145.01633
 20
59.495565
 11
143.86633
 21
58.092377
  0
LINE
  8
鉄骨等
  6
CONTINUOUS
 62
    47
 10
146.182995
 20
10.63586
 11
145.01633
 21
10.63586
  0
LINE
  8
鉄骨等
  6
CONTINUOUS
 62
    47
 10
145.01633
 20
10.63586
 11
143.86633
 21
12.039045
  0
LINE
  8
鉄骨等
  6
DOT
 62
    47
 10
129.516328
 20
59.495565
 11
128.349662
 21
59.495565
  0
LINE
  8
鉄骨等
  6
DOT
 62
    47
 10
128.349662
 20
59.495565
 11
127.199662
 21
58.092377
  0
LINE
  8
鉄骨等
  6
DOT
 62
    47
 10
129.516328
 20
10.63586
 11
128.349662
 21
10.63586
  0
LINE
  8
鉄骨等
  6
DOT
 62
    47
 10
128.349662
 20
10.63586
 11
127.199662
 21
12.039045
  0
LINE
  8
鉄骨等
  6
CONTINUOUS
 62
    47
 10
-116.147058
 20
-82.474715
 11
-116.147058
 21
-81.30805
  0
LINE
  8
鉄骨等
  6
CONTINUOUS
 62
    47
 10
-116.147058
 20
-81.30805
 11
-114.743872
 21
-80.15805
  0
LINE
  8
鉄骨等
  6
CONTINUOUS
 62
    47
 10
56.046283
 20
-82.474715
 11
56.046283
 21
-81.30805
  0
LINE
  8
鉄骨等
  6
CONTINUOUS
 62
    47
 10
56.046283
 20
-81.30805
 11
54.643097
 21
-80.15805
  0
LINE
  8
鉄骨等
  6
DOT
 62
    47
 10
-116.147058
 20
-65.808047
 11
-116.147058
 21
-64.641382
  0
LINE
  8
鉄骨等
  6
DOT
 62
    47
 10
-116.147058
 20
-64.641382
 11
-114.743872
 21
-63.491382
  0
LINE
  8
鉄骨等
  6
DOT
 62
    47
 10
56.046283
 20
-65.808047
 11
56.046283
 21
-64.641382
  0
LINE
  8
鉄骨等
  6
DOT
 62
    47
 10
56.046283
 20
-64.641382
 11
54.643097
 21
-63.491382
  0
ENDSEC
  0
EOF
