  0
SECTION
  2
HEADER
  9
$EXTMIN
 10
-210.0
 20
-148.5
  9
$EXTMAX
 10
210.0
 20
148.5
  9
$PDMODE
 70
    32
  9
$PDSIZE
 40
1.5
  9
$LTSCALE
 40
10.0
  0
ENDSEC
  0
SECTION
  2
TABLES
  0
TABLE
  2
LTYPE
 70
    15
  0
LTYPE
  2
CONTINUOUS
 70
    64
  3
実線
 72
    65
 73
     0
 40
0.0
  0
LTYPE
  2
DASHED
 70
    64
  3
破線A
 72
    65
 73
     2
 40
0.6
 49
0.4
 49
-0.2
  0
LTYPE
  2
DASHEDX2
 70
    64
  3
破線B
 72
    65
 73
     2
 40
1.3
 49
0.9
 49
-0.4
  0
LTYPE
  2
DASHDOT
 70
    64
  3
１点鎖線A
 72
    65
 73
     4
 40
0.5375
 49
0.375
 49
-0.05
 49
0.0625
 49
-0.05
  0
LTYPE
  2
DASHDOTX2
 70
    64
  3
１点鎖線B
 72
    65
 73
     4
 40
1.075
 49
0.75
 49
-0.1
 49
0.125
 49
-0.1
  0
LTYPE
  2
DIVIDE2
 70
    64
  3
２点鎖線A
 72
    65
 73
     6
 40
0.5125
 49
0.3
 49
-0.0375
 49
0.05
 49
-0.0375
 49
0.05
 49
-0.0375
  0
LTYPE
  2
DIVIDE
 70
    64
  3
２点鎖線B
 72
    65
 73
     6
 40
1.05
 49
0.55
 49
-0.1
 49
0.1
 49
-0.1
 49
0.1
 49
-0.1
  0
LTYPE
  2
DOT
 70
    64
  3
点線A
 72
    65
 73
     2
 40
0.1125
 49
0.0625
 49
-0.05
  0
LTYPE
  2
DOTX2
 70
    64
  3
点線B
 72
    65
 73
     2
 40
0.275
 49
0.15
 49
-0.125
  0
LTYPE
  2
CONTINUOUS
 70
    64
  3
実線
 72
    65
 73
     0
 40
0.0
  0
LTYPE
  2
CONTINUOUS
 70
    64
  3
実線
 72
    65
 73
     0
 40
0.0
  0
LTYPE
  2
CONTINUOUS
 70
    64
  3
実線
 72
    65
 73
     0
 40
0.0
  0
LTYPE
  2
CONTINUOUS
 70
    64
  3
実線
 72
    65
 73
     0
 40
0.0
  0
LTYPE
  2
CONTINUOUS
 70
    64
  3
実線
 72
    65
 73
     0
 40
0.0
  0
LTYPE
  2
CONTINUOUS
 70
    64
  3
実線
 72
    65
 73
     0
 40
0.0
  0
ENDTAB
  0
TABLE
  2
LAYER
 70
    34
  0
LAYER
  2
通り芯
 70
     0
 62
    15
  6
CONTINUOUS
  0
LAYER
  2
補助線
 70
     0
 62
    16
  6
DOT
  0
LAYER
  2
躯体
 70
     0
 62
    31
  6
CONTINUOUS
  0
LAYER
  2
型材
 70
     0
 62
    32
  6
CONTINUOUS
  0
LAYER
  2
型材断面
 70
     0
 62
    47
  6
CONTINUOUS
  0
LAYER
  2
ガラス
 70
     0
 62
    48
  6
CONTINUOUS
  0
LAYER
  2
ゴム等
 70
     0
 62
    63
  6
CONTINUOUS
  0
LAYER
  2
ボルト／ビス
 70
     0
 62
    64
  6
CONTINUOUS
  0
LAYER
  2
文字
 70
     0
 62
    79
  6
CONTINUOUS
  0
LAYER
  2
寸法
 70
     0
 62
    80
  6
CONTINUOUS
  0
LAYER
  2
ﾊｯﾁﾝｸﾞ
 70
     0
 62
    95
  6
CONTINUOUS
  0
LAYER
  2
別途部材
 70
     0
 62
    96
  6
CONTINUOUS
  0
LAYER
  2
曲げ物
 70
     0
 62
   111
  6
CONTINUOUS
  0
LAYER
  2
鉄骨等
 70
     0
 62
   112
  6
CONTINUOUS
  0
LAYER
  2
St
 70
     0
 62
   127
  6
CONTINUOUS
  0
LAYER
  2
その他部品等
 70
     0
 62
   128
  6
CONTINUOUS
  0
LAYER
  2
ｶﾞｽｹｯﾄ
 70
     0
 62
   143
  6
CONTINUOUS
  0
LAYER
  2
ｽｹｯﾁ
 70
     0
 62
    14
  6
CONTINUOUS
  0
LAYER
  2
0
 70
     0
 62
    17
  6
CONTINUOUS
  0
LAYER
  2
1
 70
     0
 62
    30
  6
CONTINUOUS
  0
LAYER
  2
4
 70
     0
 62
    33
  6
CONTINUOUS
  0
LAYER
  2
ﾚｲﾔ3
 70
     0
 62
    46
  6
CONTINUOUS
  0
LAYER
  2
外形線
 70
     0
 62
    49
  6
CONTINUOUS
  0
LAYER
  2
部品
 70
     0
 62
    14
  6
CONTINUOUS
  0
LAYER
  2
サッシ芯
 70
     0
 62
    17
  6
DASHDOTX2
  0
LAYER
  2
寸法線
 70
     0
 62
    62
  6
CONTINUOUS
  0
LAYER
  2
姿図外形線
 70
     0
 62
    65
  6
CONTINUOUS
  0
LAYER
  2
姿補助線
 70
     0
 62
    30
  6
CONTINUOUS
  0
LAYER
  2
透視線
 70
     0
 62
    78
  6
DOT
  0
LAYER
  2
用紙
 70
     0
 62
    81
  6
CONTINUOUS
  0
LAYER
  2
実線図枠
 70
     0
 62
    94
  6
CONTINUOUS
  0
LAYER
  2
補助図枠
 70
     0
 62
    97
  6
CONTINUOUS
  0
LAYER
  2
建具記号
 70
     0
 62
   110
  6
CONTINUOUS
  0
LAYER
  2
補助文字
 70
     0
 62
   113
  6
CONTINUOUS
  0
ENDTAB
  0
TABLE
  2
STYLE
 70
    10
  0
STYLE
  2
STANDARD
 70
     0
 40
1.0
 41
1.0
 42
1.0
 50
0.0
 71
     0
  3
TXT
  4
BIGFONT
  0
STYLE
  2
TATE
 70
     4
 40
1.0
 41
1.0
 42
1.0
 50
0.0
 71
     0
  3
TXT
  4
BIGFONT
  0
STYLE
  2
TextStyle03
 70
     0
 40
1.0
 41
1.0
 42
1.0
 50
0.0
 71
     0
  3
MONOTXT
  4
BIGFONT
  0
STYLE
  2
TextStyle04
 70
     0
 40
1.0
 41
1.0
 42
1.0
 50
0.0
 71
     0
  3
MONOTXT
  4
BIGFONT
  0
STYLE
  2
TextStyle05
 70
     0
 40
1.0
 41
1.0
 42
1.0
 50
0.0
 71
     0
  3
MONOTXT
  4
BIGFONT
  0
STYLE
  2
TextStyle06
 70
     0
 40
1.0
 41
1.0
 42
1.0
 50
0.0
 71
     0
  3
MONOTXT
  4
BIGFONT
  0
STYLE
  2
TextStyle07
 70
     0
 40
1.0
 41
1.0
 42
1.0
 50
0.0
 71
     0
  3
MONOTXT
  4
BIGFONT
  0
STYLE
  2
TextStyle08
 70
     0
 40
1.0
 41
1.0
 42
1.0
 50
0.0
 71
     0
  3
MONOTXT
  4
BIGFONT
  0
STYLE
  2
TextStyle09
 70
     0
 40
1.0
 41
1.0
 42
1.0
 50
0.0
 71
     0
  3
MONOTXT
  4
BIGFONT
  0
STYLE
  2
TextStyle10
 70
     0
 40
1.0
 41
1.0
 42
1.0
 50
0.0
 71
     0
  3
MONOTXT
  4
BIGFONT
  0
ENDTAB
  0
ENDSEC
  0
SECTION
  2
BLOCKS
  0
BLOCK
  2
*GRP_0001
 70
    65
 10
0.0
 20
0.0
  0
LINE
  8
型材断面
  6
CONTINUOUS
 10
195.0
 20
133.5
 11
195.0
 21
-133.5
  0
LINE
  8
型材断面
  6
CONTINUOUS
 10
195.0
 20
-133.5
 11
-185.0
 21
-133.5
  0
LINE
  8
型材断面
  6
CONTINUOUS
 10
-185.0
 20
-133.5
 11
-185.0
 21
133.5
  0
LINE
  8
型材断面
  6
CONTINUOUS
 10
195.0
 20
133.5
 11
-185.0
 21
133.5
  0
LINE
  8
型材断面
  6
CONTINUOUS
 10
145.0
 20
-133.5
 11
145.0
 21
-118.5
  0
LINE
  8
型材断面
  6
CONTINUOUS
 10
195.0
 20
-118.5
 11
145.0
 21
-118.5
  0
ENDBLK
  0
BLOCK
  2
*DIM_0002
 70
    65
 10
0.0
 20
0.0
  0
LINE
  8
寸法
  6
BYBLOCK
 62
     0
 10
-112.076325
 20
9.76892
 11
-112.076325
 21
4.684867
  0
LINE
  8
寸法
  6
BYBLOCK
 62
     0
 10
-28.742993
 20
9.76892
 11
-28.742993
 21
4.684867
  0
LINE
  8
寸法
  6
BYBLOCK
 62
     0
 10
-112.076325
 20
4.684867
 11
-28.742993
 21
4.684867
  0
POINT
  8
寸法
 62
     0
 10
-112.076325
 20
4.684867
  0
POINT
  8
寸法
 62
     0
 10
-28.742993
 20
4.684867
  0
TEXT
  7
TextStyle03
  8
寸法
  6
CONTINUOUS
 62
     0
 10
-73.70625
 20
5.05
  1
2500
 40
3.0
 72
     5
 11
-67.14375
 21
5.05
  0
ENDBLK
  0
BLOCK
  2
*DIM_0003
 70
    65
 10
0.0
 20
0.0
  0
LINE
  8
寸法
  6
BYBLOCK
 62
     0
 10
54.59034
 20
9.76892
 11
54.59034
 21
4.684867
  0
LINE
  8
寸法
  6
BYBLOCK
 62
     0
 10
-28.742993
 20
4.684867
 11
54.59034
 21
4.684867
  0
POINT
  8
寸法
 62
     0
 10
54.59034
 20
4.684867
  0
TEXT
  7
TextStyle03
  8
寸法
  6
CONTINUOUS
 62
     0
 10
9.61875
 20
5.05
  1
2500
 40
3.0
 72
     5
 11
16.18125
 21
5.05
  0
ENDBLK
  0
BLOCK
  2
*DIM_0004
 70
    65
 10
0.0
 20
0.0
  0
LINE
  8
寸法
  6
BYBLOCK
 62
     0
 10
72.257007
 20
56.732382
 11
81.98129
 21
56.732382
  0
LINE
  8
寸法
  6
BYBLOCK
 62
     0
 10
74.887138
 20
53.032382
 11
81.98129
 21
53.032382
  0
LINE
  8
寸法
  6
BYBLOCK
 62
     0
 10
81.98129
 20
56.732382
 11
81.98129
 21
53.032382
  0
POINT
  8
寸法
 62
     0
 10
81.98129
 20
56.732382
  0
POINT
  8
寸法
 62
     0
 10
81.98129
 20
53.032382
  0
TEXT
  7
TextStyle03
  8
寸法
  6
CONTINUOUS
 62
     0
 10
81.65
 20
57.7125
  1
111
 40
3.0
 50
90.0
 72
     5
 11
81.65
 21
62.5875
  0
ENDBLK
  0
BLOCK
  2
*DIM_0005
 70
    65
 10
0.0
 20
0.0
  0
LINE
  8
寸法
  6
BYBLOCK
 62
     0
 10
72.257007
 20
13.399048
 11
81.98129
 21
13.399045
  0
LINE
  8
寸法
  6
BYBLOCK
 62
     0
 10
74.887138
 20
17.099048
 11
81.98129
 21
17.099045
  0
LINE
  8
寸法
  6
BYBLOCK
 62
     0
 10
81.98129
 20
13.399045
 11
81.98129
 21
17.099045
  0
POINT
  8
寸法
 62
     0
 10
81.98129
 20
13.399045
  0
POINT
  8
寸法
 62
     0
 10
81.98129
 20
17.099045
  0
TEXT
  7
TextStyle03
  8
寸法
  6
CONTINUOUS
 62
     0
 10
81.625
 20
7.5375
  1
111
 40
3.0
 50
90.0
 72
     5
 11
81.625
 21
12.4125
  0
ENDBLK
  0
BLOCK
  2
*DIM_0006
 70
    65
 10
0.0
 20
0.0
  0
LINE
  8
寸法
  6
BYBLOCK
 62
     0
 10
-131.742993
 20
23.399048
 11
-160.688158
 21
23.399048
  0
LINE
  8
寸法
  6
BYBLOCK
 62
     0
 10
-131.742993
 20
46.732382
 11
-160.688158
 21
46.732382
  0
LINE
  8
寸法
  6
BYBLOCK
 62
     0
 10
-160.688158
 20
23.399048
 11
-160.688158
 21
46.732382
  0
POINT
  8
寸法
 62
     0
 10
-160.688158
 20
23.399048
  0
POINT
  8
寸法
 62
     0
 10
-160.688158
 20
46.732382
  0
TEXT
  7
TextStyle03
  8
寸法
  6
CONTINUOUS
 62
     0
 10
-161.075
 20
32.6125
  1
700
 40
3.0
 50
90.0
 72
     5
 11
-161.075
 21
37.4875
  0
ENDBLK
  0
BLOCK
  2
*DIM_0007
 70
    65
 10
0.0
 20
0.0
  0
LINE
  8
寸法
  6
BYBLOCK
 62
     0
 10
-122.076325
 20
59.73238
 11
-122.076325
 21
88.840452
  0
LINE
  8
寸法
  6
BYBLOCK
 62
     0
 10
-98.742993
 20
59.73238
 11
-98.742993
 21
88.840452
  0
LINE
  8
寸法
  6
BYBLOCK
 62
     0
 10
-122.076325
 20
88.840452
 11
-98.742993
 21
88.840452
  0
POINT
  8
寸法
 62
     0
 10
-122.076325
 20
88.840452
  0
POINT
  8
寸法
 62
     0
 10
-98.742993
 20
88.840452
  0
TEXT
  7
TextStyle03
  8
寸法
  6
CONTINUOUS
 62
     0
 10
-112.8625
 20
89.2
  1
700
 40
3.0
 72
     5
 11
-107.9875
 21
89.2
  0
ENDBLK
  0
BLOCK
  2
*DIM_0008
 70
    65
 10
0.0
 20
0.0
  0
LINE
  8
寸法
  6
BYBLOCK
 62
     0
 10
-75.40966
 20
59.73238
 11
-75.40966
 21
88.840452
  0
LINE
  8
寸法
  6
BYBLOCK
 62
     0
 10
-98.742993
 20
88.840452
 11
-75.40966
 21
88.840452
  0
POINT
  8
寸法
 62
     0
 10
-75.40966
 20
88.840452
  0
TEXT
  7
TextStyle03
  8
寸法
  6
CONTINUOUS
 62
     0
 10
-89.5375
 20
89.2
  1
700
 40
3.0
 72
     5
 11
-84.6625
 21
89.2
  0
ENDBLK
  0
BLOCK
  2
*DIM_0009
 70
    65
 10
0.0
 20
0.0
  0
LINE
  8
寸法
  6
BYBLOCK
 62
     0
 10
-52.076325
 20
59.73238
 11
-52.076325
 21
88.840452
  0
LINE
  8
寸法
  6
BYBLOCK
 62
     0
 10
-75.40966
 20
88.840452
 11
-52.076325
 21
88.840452
  0
POINT
  8
寸法
 62
     0
 10
-52.076325
 20
88.840452
  0
TEXT
  7
TextStyle03
  8
寸法
  6
CONTINUOUS
 62
     0
 10
-66.1875
 20
89.2
  1
700
 40
3.0
 72
     5
 11
-61.3125
 21
89.2
  0
ENDBLK
  0
BLOCK
  2
*DIM_0010
 70
    65
 10
0.0
 20
0.0
  0
LINE
  8
寸法
  6
BYBLOCK
 62
     0
 10
-28.742993
 20
59.73238
 11
-28.742993
 21
88.840452
  0
LINE
  8
寸法
  6
BYBLOCK
 62
     0
 10
-52.076325
 20
88.840452
 11
-28.742993
 21
88.840452
  0
POINT
  8
寸法
 62
     0
 10
-28.742993
 20
88.840452
  0
TEXT
  7
TextStyle03
  8
寸法
  6
CONTINUOUS
 62
     0
 10
-42.8625
 20
89.2
  1
700
 40
3.0
 72
     5
 11
-37.9875
 21
89.2
  0
ENDBLK
  0
BLOCK
  2
*DIM_0011
 70
    65
 10
0.0
 20
0.0
  0
LINE
  8
寸法
  6
BYBLOCK
 62
     0
 10
-5.40966
 20
59.73238
 11
-5.40966
 21
88.840452
  0
LINE
  8
寸法
  6
BYBLOCK
 62
     0
 10
-28.742993
 20
88.840452
 11
-5.40966
 21
88.840452
  0
POINT
  8
寸法
 62
     0
 10
-5.40966
 20
88.840452
  0
TEXT
  7
TextStyle03
  8
寸法
  6
CONTINUOUS
 62
     0
 10
-19.5375
 20
89.2
  1
700
 40
3.0
 72
     5
 11
-14.6625
 21
89.2
  0
ENDBLK
  0
BLOCK
  2
*DIM_0012
 70
    65
 10
0.0
 20
0.0
  0
LINE
  8
寸法
  6
BYBLOCK
 62
     0
 10
17.923675
 20
59.73238
 11
17.923675
 21
88.840452
  0
LINE
  8
寸法
  6
BYBLOCK
 62
     0
 10
-5.40966
 20
88.840452
 11
17.923675
 21
88.840452
  0
POINT
  8
寸法
 62
     0
 10
17.923675
 20
88.840452
  0
TEXT
  7
TextStyle03
  8
寸法
  6
CONTINUOUS
 62
     0
 10
3.8125
 20
89.2
  1
700
 40
3.0
 72
     5
 11
8.6875
 21
89.2
  0
ENDBLK
  0
BLOCK
  2
*DIM_0013
 70
    65
 10
0.0
 20
0.0
  0
LINE
  8
寸法
  6
BYBLOCK
 62
     0
 10
41.257007
 20
59.73238
 11
41.257007
 21
88.840452
  0
LINE
  8
寸法
  6
BYBLOCK
 62
     0
 10
17.923675
 20
88.840452
 11
41.257007
 21
88.840452
  0
POINT
  8
寸法
 62
     0
 10
41.257007
 20
88.840452
  0
TEXT
  7
TextStyle03
  8
寸法
  6
CONTINUOUS
 62
     0
 10
27.1375
 20
89.2
  1
700
 40
3.0
 72
     5
 11
32.0125
 21
89.2
  0
ENDBLK
  0
BLOCK
  2
*DIM_0014
 70
    65
 10
0.0
 20
0.0
  0
LINE
  8
寸法
  6
BYBLOCK
 62
     0
 10
64.59034
 20
59.73238
 11
64.59034
 21
88.840452
  0
LINE
  8
寸法
  6
BYBLOCK
 62
     0
 10
41.257007
 20
88.840452
 11
64.59034
 21
88.840452
  0
POINT
  8
寸法
 62
     0
 10
64.59034
 20
88.840452
  0
TEXT
  7
TextStyle03
  8
寸法
  6
CONTINUOUS
 62
     0
 10
50.4625
 20
89.2
  1
700
 40
3.0
 72
     5
 11
55.3375
 21
89.2
  0
ENDBLK
  0
BLOCK
  2
*DIM_0015
 70
    65
 10
0.0
 20
0.0
  0
LINE
  8
寸法
  6
CONTINUOUS
 10
105.276657
 20
59.495565
 11
105.276657
 21
56.73238
  0
POINT
  8
寸法
 10
105.276657
 20
59.495565
  0
POINT
  8
寸法
 10
105.276657
 20
56.73238
  0
TEXT
  7
TextStyle03
  8
寸法
  6
CONTINUOUS
 10
106.675
 20
60.54375
  1
82.9
 40
3.0
 50
90.0
 72
     5
 11
106.675
 21
67.10625
  0
ENDBLK
  0
BLOCK
  2
*DIM_0016
 70
    65
 10
0.0
 20
0.0
  0
LINE
  8
寸法
  6
CONTINUOUS
 10
105.276657
 20
13.399048
 11
105.276657
 21
10.63586
  0
POINT
  8
寸法
 10
105.276657
 20
13.399048
  0
POINT
  8
寸法
 10
105.276657
 20
10.63586
  0
TEXT
  7
TextStyle03
  8
寸法
  6
CONTINUOUS
 10
106.675
 20
2.99375
  1
82.9
 40
3.0
 50
90.0
 72
     5
 11
106.675
 21
9.55625
  0
ENDBLK
  0
BLOCK
  2
*DIM_0017
 70
    65
 10
0.0
 20
0.0
  0
LINE
  8
寸法
  6
CONTINUOUS
 10
105.276657
 20
56.73238
 11
105.276657
 21
13.399048
  0
POINT
  8
寸法
 10
105.276657
 20
56.73238
  0
POINT
  8
寸法
 10
105.276657
 20
13.399048
  0
TEXT
  7
TextStyle03
  8
寸法
  6
CONTINUOUS
 10
104.9
 20
24.175
  1
呼称寸法=1300
 40
3.0
 50
90.0
 72
     5
 11
104.9
 21
45.925
  0
ENDBLK
  0
BLOCK
  2
*DIM_0018
 70
    65
 10
0.0
 20
0.0
  0
LINE
  8
寸法
  6
CONTINUOUS
 10
-128.742998
 20
-22.024302
 11
-131.50633
 21
-22.024302
  0
POINT
  8
寸法
 10
-128.742998
 20
-22.024302
  0
POINT
  8
寸法
 10
-131.50633
 20
-22.024302
  0
TEXT
  7
TextStyle03
  8
寸法
  6
CONTINUOUS
 10
-136.08125
 20
-21.075
  1
82.9
 40
3.0
 72
     5
 11
-129.51875
 21
-21.075
  0
ENDBLK
  0
BLOCK
  2
*DIM_0019
 70
    65
 10
0.0
 20
0.0
  0
LINE
  8
寸法
  6
CONTINUOUS
 10
74.020345
 20
-22.024302
 11
71.25701
 21
-22.024302
  0
POINT
  8
寸法
 10
74.020345
 20
-22.024302
  0
POINT
  8
寸法
 10
71.25701
 20
-22.024302
  0
TEXT
  7
TextStyle03
  8
寸法
  6
CONTINUOUS
 10
72.24375
 20
-21.125
  1
82.9
 40
3.0
 72
     5
 11
78.80625
 21
-21.125
  0
ENDBLK
  0
BLOCK
  2
*DIM_0020
 70
    65
 10
0.0
 20
0.0
  0
LINE
  8
寸法
  6
CONTINUOUS
 10
-128.74299
 20
-22.024302
 11
71.25701
 21
-22.024302
  0
POINT
  8
寸法
 10
-128.74299
 20
-22.024302
  0
POINT
  8
寸法
 10
71.25701
 20
-22.024302
  0
TEXT
  7
TextStyle03
  8
寸法
  6
CONTINUOUS
 10
-40.46875
 20
-21.65
  1
呼称寸法　6000
 40
3.0
 72
     5
 11
-17.03125
 21
-21.65
  0
ENDBLK
  0
BLOCK
  2
*GRP_0021
 70
    65
 10
0.0
 20
0.0
  0
LINE
  8
補助線
  6
BYBLOCK
 62
    64
 10
-125.347732
 20
-84.012327
 11
-125.471577
 21
-84.123863
  0
LINE
  8
補助線
  6
BYBLOCK
 62
    64
 10
-125.465425
 20
-84.00617
 11
-125.353888
 21
-84.130018
  0
LINE
  8
補助線
  6
BYBLOCK
 62
    64
 10
-114.63263
 20
-74.362302
 11
-114.756475
 21
-74.473837
  0
LINE
  8
補助線
  6
BYBLOCK
 62
    64
 10
-114.75032
 20
-74.356145
 11
-114.638785
 21
-74.479993
  0
LINE
  8
補助線
  6
BYBLOCK
 62
    64
 10
-104.041373
 20
-64.823812
 11
-103.91753
 21
-64.712277
  0
LINE
  8
補助線
  6
BYBLOCK
 62
    64
 10
-104.03522
 20
-64.70612
 11
-103.923683
 21
-64.829968
  0
LINE
  8
型材断面
  6
CONTINUOUS
 10
-126.215023
 20
-83.67194
 11
-126.25195
 21
-84.37808
  0
LINE
  8
型材断面
  6
CONTINUOUS
 10
-126.25195
 20
-84.37808
 11
-125.80581
 21
-84.873463
  0
LINE
  8
型材断面
  6
CONTINUOUS
 10
-125.80581
 20
-84.873463
 11
-125.099668
 21
-84.910393
  0
LINE
  8
型材断面
  6
CONTINUOUS
 10
-104.289435
 20
-63.92575
 11
-103.583295
 21
-63.96268
  0
LINE
  8
型材断面
  6
CONTINUOUS
 10
-103.583295
 20
-63.96268
 11
-103.137152
 21
-64.45806
  0
LINE
  8
型材断面
  6
CONTINUOUS
 10
-103.137152
 20
-64.45806
 11
-103.174082
 21
-65.164205
  0
LINE
  8
型材断面
  6
CONTINUOUS
 10
-125.099668
 20
-84.910393
 11
-103.174082
 21
-65.164205
  0
LINE
  8
型材断面
  6
CONTINUOUS
 10
-126.215023
 20
-83.67194
 11
-104.289435
 21
-63.92575
  0
CIRCLE
  8
ボルト／ビス
  6
CONTINUOUS
 10
-125.409655
 20
-84.068095
 40
0.250185
  0
CIRCLE
  8
ボルト／ビス
  6
CONTINUOUS
 10
-125.409655
 20
-84.068095
 40
0.301025
  0
LINE
  8
ボルト／ビス
  6
CONTINUOUS
 62
    64
 10
-125.654367
 20
-84.12014
 11
-125.577082
 21
-83.88219
  0
LINE
  8
ボルト／ビス
  6
CONTINUOUS
 62
    64
 10
-125.33237
 20
-83.830145
 11
-125.577082
 21
-83.88219
  0
LINE
  8
ボルト／ビス
  6
CONTINUOUS
 62
    64
 10
-125.48694
 20
-84.306045
 11
-125.242227
 21
-84.254
  0
LINE
  8
ボルト／ビス
  6
CONTINUOUS
 62
    64
 10
-125.164942
 20
-84.01605
 11
-125.242227
 21
-84.254
  0
LINE
  8
ボルト／ビス
  6
CONTINUOUS
 62
    64
 10
-125.654367
 20
-84.12014
 11
-125.48694
 21
-84.306045
  0
LINE
  8
ボルト／ビス
  6
CONTINUOUS
 62
    64
 10
-125.33237
 20
-83.830145
 11
-125.164942
 21
-84.01605
  0
CIRCLE
  8
ボルト／ビス
  6
CONTINUOUS
 62
    64
 10
-125.409655
 20
-84.068095
 40
0.216668
  0
CIRCLE
  8
ボルト／ビス
  6
CONTINUOUS
 10
-114.694553
 20
-74.418073
 40
0.250185
  0
CIRCLE
  8
ボルト／ビス
  6
CONTINUOUS
 10
-114.694553
 20
-74.418073
 40
0.301025
  0
LINE
  8
ボルト／ビス
  6
CONTINUOUS
 62
    64
 10
-114.939268
 20
-74.470115
 11
-114.86198
 21
-74.232165
  0
LINE
  8
ボルト／ビス
  6
CONTINUOUS
 62
    64
 10
-114.617267
 20
-74.180123
 11
-114.86198
 21
-74.232165
  0
LINE
  8
ボルト／ビス
  6
CONTINUOUS
 62
    64
 10
-114.77184
 20
-74.65602
 11
-114.527128
 21
-74.603975
  0
LINE
  8
ボルト／ビス
  6
CONTINUOUS
 62
    64
 10
-114.44984
 20
-74.366028
 11
-114.527128
 21
-74.603975
  0
LINE
  8
ボルト／ビス
  6
CONTINUOUS
 62
    64
 10
-114.939268
 20
-74.470115
 11
-114.77184
 21
-74.65602
  0
LINE
  8
ボルト／ビス
  6
CONTINUOUS
 62
    64
 10
-114.617267
 20
-74.180123
 11
-114.44984
 21
-74.366028
  0
CIRCLE
  8
ボルト／ビス
  6
CONTINUOUS
 62
    64
 10
-114.694553
 20
-74.418073
 40
0.216668
  0
CIRCLE
  8
ボルト／ビス
  6
CONTINUOUS
 10
-103.979453
 20
-64.768045
 40
0.250185
  0
CIRCLE
  8
ボルト／ビス
  6
CONTINUOUS
 10
-103.979453
 20
-64.768045
 40
0.301025
  0
LINE
  8
ボルト／ビス
  6
CONTINUOUS
 62
    64
 10
-103.902165
 20
-64.530095
 11
-104.146878
 21
-64.58214
  0
LINE
  8
ボルト／ビス
  6
CONTINUOUS
 62
    64
 10
-104.224162
 20
-64.82009
 11
-104.146878
 21
-64.58214
  0
LINE
  8
ボルト／ビス
  6
CONTINUOUS
 62
    64
 10
-103.734738
 20
-64.716
 11
-103.812025
 21
-64.95395
  0
LINE
  8
ボルト／ビス
  6
CONTINUOUS
 62
    64
 10
-104.056737
 20
-65.005995
 11
-103.812025
 21
-64.95395
  0
LINE
  8
ボルト／ビス
  6
CONTINUOUS
 62
    64
 10
-103.902165
 20
-64.530095
 11
-103.734738
 21
-64.716
  0
LINE
  8
ボルト／ビス
  6
CONTINUOUS
 62
    64
 10
-104.224162
 20
-64.82009
 11
-104.056737
 21
-65.005995
  0
CIRCLE
  8
ボルト／ビス
  6
CONTINUOUS
 62
    64
 10
-103.979453
 20
-64.768045
 40
0.216668
  0
ENDBLK
  0
BLOCK
  2
*GRP_0022
 70
    65
 10
0.0
 20
0.0
  0
LINE
  8
補助線
  6
BYBLOCK
 62
    64
 10
-104.041373
 20
-84.012327
 11
-103.917527
 21
-84.123863
  0
LINE
  8
補助線
  6
BYBLOCK
 62
    64
 10
-103.92368
 20
-84.00617
 11
-104.035218
 21
-84.130018
  0
LINE
  8
補助線
  6
BYBLOCK
 62
    64
 10
-114.756475
 20
-74.362302
 11
-114.63263
 21
-74.473837
  0
LINE
  8
補助線
  6
BYBLOCK
 62
    64
 10
-114.638785
 20
-74.356145
 11
-114.75032
 21
-74.479993
  0
LINE
  8
補助線
  6
BYBLOCK
 62
    64
 10
-125.347732
 20
-64.823812
 11
-125.471575
 21
-64.712277
  0
LINE
  8
補助線
  6
BYBLOCK
 62
    64
 10
-125.353885
 20
-64.70612
 11
-125.465423
 21
-64.829968
  0
LINE
  8
型材断面
  6
CONTINUOUS
 10
-103.174082
 20
-83.67194
 11
-103.137155
 21
-84.37808
  0
LINE
  8
型材断面
  6
CONTINUOUS
 10
-103.137155
 20
-84.37808
 11
-103.583295
 21
-84.873463
  0
LINE
  8
型材断面
  6
CONTINUOUS
 10
-103.583295
 20
-84.873463
 11
-104.289437
 21
-84.910393
  0
LINE
  8
型材断面
  6
CONTINUOUS
 10
-125.09967
 20
-63.92575
 11
-125.80581
 21
-63.96268
  0
LINE
  8
型材断面
  6
CONTINUOUS
 10
-125.80581
 20
-63.96268
 11
-126.251952
 21
-64.45806
  0
LINE
  8
型材断面
  6
CONTINUOUS
 10
-126.251952
 20
-64.45806
 11
-126.215023
 21
-65.164205
  0
LINE
  8
型材断面
  6
CONTINUOUS
 10
-104.289437
 20
-84.910393
 11
-126.215023
 21
-65.164205
  0
LINE
  8
型材断面
  6
CONTINUOUS
 10
-103.174082
 20
-83.67194
 11
-125.09967
 21
-63.92575
  0
CIRCLE
  8
ボルト／ビス
  6
CONTINUOUS
 10
-103.97945
 20
-84.068095
 40
0.250185
  0
CIRCLE
  8
ボルト／ビス
  6
CONTINUOUS
 10
-103.97945
 20
-84.068095
 40
0.301025
  0
LINE
  8
ボルト／ビス
  6
CONTINUOUS
 62
    64
 10
-103.734738
 20
-84.12014
 11
-103.812022
 21
-83.88219
  0
LINE
  8
ボルト／ビス
  6
CONTINUOUS
 62
    64
 10
-104.056735
 20
-83.830145
 11
-103.812022
 21
-83.88219
  0
LINE
  8
ボルト／ビス
  6
CONTINUOUS
 62
    64
 10
-103.902165
 20
-84.306045
 11
-104.146878
 21
-84.254
  0
LINE
  8
ボルト／ビス
  6
CONTINUOUS
 62
    64
 10
-104.224162
 20
-84.01605
 11
-104.146878
 21
-84.254
  0
LINE
  8
ボルト／ビス
  6
CONTINUOUS
 62
    64
 10
-103.734738
 20
-84.12014
 11
-103.902165
 21
-84.306045
  0
LINE
  8
ボルト／ビス
  6
CONTINUOUS
 62
    64
 10
-104.056735
 20
-83.830145
 11
-104.224162
 21
-84.01605
  0
CIRCLE
  8
ボルト／ビス
  6
CONTINUOUS
 62
    64
 10
-103.97945
 20
-84.068095
 40
0.216668
  0
CIRCLE
  8
ボルト／ビス
  6
CONTINUOUS
 10
-114.694553
 20
-74.418073
 40
0.250185
  0
CIRCLE
  8
ボルト／ビス
  6
CONTINUOUS
 10
-114.694553
 20
-74.418073
 40
0.301025
  0
LINE
  8
ボルト／ビス
  6
CONTINUOUS
 62
    64
 10
-114.449838
 20
-74.470115
 11
-114.527125
 21
-74.232165
  0
LINE
  8
ボルト／ビス
  6
CONTINUOUS
 62
    64
 10
-114.771838
 20
-74.180123
 11
-114.527125
 21
-74.232165
  0
LINE
  8
ボルト／ビス
  6
CONTINUOUS
 62
    64
 10
-114.617265
 20
-74.65602
 11
-114.861978
 21
-74.603975
  0
LINE
  8
ボルト／ビス
  6
CONTINUOUS
 62
    64
 10
-114.939265
 20
-74.366028
 11
-114.861978
 21
-74.603975
  0
LINE
  8
ボルト／ビス
  6
CONTINUOUS
 62
    64
 10
-114.449838
 20
-74.470115
 11
-114.617265
 21
-74.65602
  0
LINE
  8
ボルト／ビス
  6
CONTINUOUS
 62
    64
 10
-114.771838
 20
-74.180123
 11
-114.939265
 21
-74.366028
  0
CIRCLE
  8
ボルト／ビス
  6
CONTINUOUS
 62
    64
 10
-114.694553
 20
-74.418073
 40
0.216668
  0
CIRCLE
  8
ボルト／ビス
  6
CONTINUOUS
 10
-125.409652
 20
-64.768045
 40
0.250185
  0
CIRCLE
  8
ボルト／ビス
  6
CONTINUOUS
 10
-125.409652
 20
-64.768045
 40
0.301025
  0
LINE
  8
ボルト／ビス
  6
CONTINUOUS
 62
    64
 10
-125.48694
 20
-64.530095
 11
-125.242227
 21
-64.58214
  0
LINE
  8
ボルト／ビス
  6
CONTINUOUS
 62
    64
 10
-125.164942
 20
-64.82009
 11
-125.242227
 21
-64.58214
  0
LINE
  8
ボルト／ビス
  6
CONTINUOUS
 62
    64
 10
-125.654367
 20
-64.716
 11
-125.57708
 21
-64.95395
  0
LINE
  8
ボルト／ビス
  6
CONTINUOUS
 62
    64
 10
-125.332367
 20
-65.005995
 11
-125.57708
 21
-64.95395
  0
LINE
  8
ボルト／ビス
  6
CONTINUOUS
 62
    64
 10
-125.48694
 20
-64.530095
 11
-125.654367
 21
-64.716
  0
LINE
  8
ボルト／ビス
  6
CONTINUOUS
 62
    64
 10
-125.164942
 20
-64.82009
 11
-125.332367
 21
-65.005995
  0
CIRCLE
  8
ボルト／ビス
  6
CONTINUOUS
 62
    64
 10
-125.409652
 20
-64.768045
 40
0.216668
  0
ENDBLK
  0
BLOCK
  2
*GRP_0023
 70
    65
 10
0.0
 20
0.0
  0
LINE
  8
補助線
  6
BYBLOCK
 62
    64
 10
67.861758
 20
-84.012327
 11
67.985602
 21
-84.123863
  0
LINE
  8
補助線
  6
BYBLOCK
 62
    64
 10
67.97945
 20
-84.00617
 11
67.867913
 21
-84.130018
  0
LINE
  8
補助線
  6
BYBLOCK
 62
    64
 10
57.146655
 20
-74.362302
 11
57.2705
 21
-74.473837
  0
LINE
  8
補助線
  6
BYBLOCK
 62
    64
 10
57.264345
 20
-74.356145
 11
57.15281
 21
-74.479993
  0
LINE
  8
補助線
  6
BYBLOCK
 62
    64
 10
46.555398
 20
-64.823812
 11
46.431555
 21
-64.712277
  0
LINE
  8
補助線
  6
BYBLOCK
 62
    64
 10
46.549245
 20
-64.70612
 11
46.437708
 21
-64.829968
  0
LINE
  8
型材断面
  6
CONTINUOUS
 10
68.729047
 20
-83.67194
 11
68.765975
 21
-84.37808
  0
LINE
  8
型材断面
  6
CONTINUOUS
 10
68.765975
 20
-84.37808
 11
68.319835
 21
-84.873463
  0
LINE
  8
型材断面
  6
CONTINUOUS
 10
68.319835
 20
-84.873463
 11
67.613693
 21
-84.910393
  0
LINE
  8
型材断面
  6
CONTINUOUS
 10
46.80346
 20
-63.92575
 11
46.09732
 21
-63.96268
  0
LINE
  8
型材断面
  6
CONTINUOUS
 10
46.09732
 20
-63.96268
 11
45.651178
 21
-64.45806
  0
LINE
  8
型材断面
  6
CONTINUOUS
 10
45.651178
 20
-64.45806
 11
45.688107
 21
-65.164205
  0
LINE
  8
型材断面
  6
CONTINUOUS
 10
67.613693
 20
-84.910393
 11
45.688107
 21
-65.164205
  0
LINE
  8
型材断面
  6
CONTINUOUS
 10
68.729047
 20
-83.67194
 11
46.80346
 21
-63.92575
  0
CIRCLE
  8
ボルト／ビス
  6
CONTINUOUS
 10
67.92368
 20
-84.068095
 40
0.250185
  0
CIRCLE
  8
ボルト／ビス
  6
CONTINUOUS
 10
67.92368
 20
-84.068095
 40
0.301025
  0
LINE
  8
ボルト／ビス
  6
CONTINUOUS
 62
    64
 10
68.168392
 20
-84.12014
 11
68.091107
 21
-83.88219
  0
LINE
  8
ボルト／ビス
  6
CONTINUOUS
 62
    64
 10
67.846395
 20
-83.830145
 11
68.091107
 21
-83.88219
  0
LINE
  8
ボルト／ビス
  6
CONTINUOUS
 62
    64
 10
68.000965
 20
-84.306045
 11
67.756252
 21
-84.254
  0
LINE
  8
ボルト／ビス
  6
CONTINUOUS
 62
    64
 10
67.678967
 20
-84.01605
 11
67.756252
 21
-84.254
  0
LINE
  8
ボルト／ビス
  6
CONTINUOUS
 62
    64
 10
68.168392
 20
-84.12014
 11
68.000965
 21
-84.306045
  0
LINE
  8
ボルト／ビス
  6
CONTINUOUS
 62
    64
 10
67.846395
 20
-83.830145
 11
67.678967
 21
-84.01605
  0
CIRCLE
  8
ボルト／ビス
  6
CONTINUOUS
 62
    64
 10
67.92368
 20
-84.068095
 40
0.216668
  0
CIRCLE
  8
ボルト／ビス
  6
CONTINUOUS
 10
57.208577
 20
-74.418073
 40
0.250185
  0
CIRCLE
  8
ボルト／ビス
  6
CONTINUOUS
 10
57.208577
 20
-74.418073
 40
0.301025
  0
LINE
  8
ボルト／ビス
  6
CONTINUOUS
 62
    64
 10
57.453292
 20
-74.470115
 11
57.376005
 21
-74.232165
  0
LINE
  8
ボルト／ビス
  6
CONTINUOUS
 62
    64
 10
57.131293
 20
-74.180123
 11
57.376005
 21
-74.232165
  0
LINE
  8
ボルト／ビス
  6
CONTINUOUS
 62
    64
 10
57.285865
 20
-74.65602
 11
57.041152
 21
-74.603975
  0
LINE
  8
ボルト／ビス
  6
CONTINUOUS
 62
    64
 10
56.963865
 20
-74.366028
 11
57.041152
 21
-74.603975
  0
LINE
  8
ボルト／ビス
  6
CONTINUOUS
 62
    64
 10
57.453292
 20
-74.470115
 11
57.285865
 21
-74.65602
  0
LINE
  8
ボルト／ビス
  6
CONTINUOUS
 62
    64
 10
57.131293
 20
-74.180123
 11
56.963865
 21
-74.366028
  0
CIRCLE
  8
ボルト／ビス
  6
CONTINUOUS
 62
    64
 10
57.208577
 20
-74.418073
 40
0.216668
  0
CIRCLE
  8
ボルト／ビス
  6
CONTINUOUS
 10
46.493477
 20
-64.768045
 40
0.250185
  0
CIRCLE
  8
ボルト／ビス
  6
CONTINUOUS
 10
46.493477
 20
-64.768045
 40
0.301025
  0
LINE
  8
ボルト／ビス
  6
CONTINUOUS
 62
    64
 10
46.41619
 20
-64.530095
 11
46.660902
 21
-64.58214
  0
LINE
  8
ボルト／ビス
  6
CONTINUOUS
 62
    64
 10
46.738187
 20
-64.82009
 11
46.660902
 21
-64.58214
  0
LINE
  8
ボルト／ビス
  6
CONTINUOUS
 62
    64
 10
46.248762
 20
-64.716
 11
46.32605
 21
-64.95395
  0
LINE
  8
ボルト／ビス
  6
CONTINUOUS
 62
    64
 10
46.570762
 20
-65.005995
 11
46.32605
 21
-64.95395
  0
LINE
  8
ボルト／ビス
  6
CONTINUOUS
 62
    64
 10
46.41619
 20
-64.530095
 11
46.248762
 21
-64.716
  0
LINE
  8
ボルト／ビス
  6
CONTINUOUS
 62
    64
 10
46.738187
 20
-64.82009
 11
46.570762
 21
-65.005995
  0
CIRCLE
  8
ボルト／ビス
  6
CONTINUOUS
 62
    64
 10
46.493477
 20
-64.768045
 40
0.216668
  0
ENDBLK
  0
BLOCK
  2
*GRP_0024
 70
    65
 10
0.0
 20
0.0
  0
LINE
  8
補助線
  6
BYBLOCK
 62
    64
 10
46.555398
 20
-84.012327
 11
46.431552
 21
-84.123863
  0
LINE
  8
補助線
  6
BYBLOCK
 62
    64
 10
46.437705
 20
-84.00617
 11
46.549243
 21
-84.130018
  0
LINE
  8
補助線
  6
BYBLOCK
 62
    64
 10
57.2705
 20
-74.362302
 11
57.146655
 21
-74.473837
  0
LINE
  8
補助線
  6
BYBLOCK
 62
    64
 10
57.15281
 20
-74.356145
 11
57.264345
 21
-74.479993
  0
LINE
  8
補助線
  6
BYBLOCK
 62
    64
 10
67.861758
 20
-64.823812
 11
67.9856
 21
-64.712277
  0
LINE
  8
補助線
  6
BYBLOCK
 62
    64
 10
67.86791
 20
-64.70612
 11
67.979448
 21
-64.829968
  0
LINE
  8
型材断面
  6
CONTINUOUS
 10
45.688107
 20
-83.67194
 11
45.65118
 21
-84.37808
  0
LINE
  8
型材断面
  6
CONTINUOUS
 10
45.65118
 20
-84.37808
 11
46.09732
 21
-84.873463
  0
LINE
  8
型材断面
  6
CONTINUOUS
 10
46.09732
 20
-84.873463
 11
46.803463
 21
-84.910393
  0
LINE
  8
型材断面
  6
CONTINUOUS
 10
67.613695
 20
-63.92575
 11
68.319835
 21
-63.96268
  0
LINE
  8
型材断面
  6
CONTINUOUS
 10
68.319835
 20
-63.96268
 11
68.765978
 21
-64.45806
  0
LINE
  8
型材断面
  6
CONTINUOUS
 10
68.765978
 20
-64.45806
 11
68.729047
 21
-65.164205
  0
LINE
  8
型材断面
  6
CONTINUOUS
 10
46.803463
 20
-84.910393
 11
68.729047
 21
-65.164205
  0
LINE
  8
型材断面
  6
CONTINUOUS
 10
45.688107
 20
-83.67194
 11
67.613695
 21
-63.92575
  0
CIRCLE
  8
ボルト／ビス
  6
CONTINUOUS
 10
46.493475
 20
-84.068095
 40
0.250185
  0
CIRCLE
  8
ボルト／ビス
  6
CONTINUOUS
 10
46.493475
 20
-84.068095
 40
0.301025
  0
LINE
  8
ボルト／ビス
  6
CONTINUOUS
 62
    64
 10
46.248762
 20
-84.12014
 11
46.326047
 21
-83.88219
  0
LINE
  8
ボルト／ビス
  6
CONTINUOUS
 62
    64
 10
46.57076
 20
-83.830145
 11
46.326047
 21
-83.88219
  0
LINE
  8
ボルト／ビス
  6
CONTINUOUS
 62
    64
 10
46.41619
 20
-84.306045
 11
46.660902
 21
-84.254
  0
LINE
  8
ボルト／ビス
  6
CONTINUOUS
 62
    64
 10
46.738187
 20
-84.01605
 11
46.660902
 21
-84.254
  0
LINE
  8
ボルト／ビス
  6
CONTINUOUS
 62
    64
 10
46.248762
 20
-84.12014
 11
46.41619
 21
-84.306045
  0
LINE
  8
ボルト／ビス
  6
CONTINUOUS
 62
    64
 10
46.57076
 20
-83.830145
 11
46.738187
 21
-84.01605
  0
CIRCLE
  8
ボルト／ビス
  6
CONTINUOUS
 62
    64
 10
46.493475
 20
-84.068095
 40
0.216668
  0
CIRCLE
  8
ボルト／ビス
  6
CONTINUOUS
 10
57.208577
 20
-74.418073
 40
0.250185
  0
CIRCLE
  8
ボルト／ビス
  6
CONTINUOUS
 10
57.208577
 20
-74.418073
 40
0.301025
  0
LINE
  8
ボルト／ビス
  6
CONTINUOUS
 62
    64
 10
56.963862
 20
-74.470115
 11
57.04115
 21
-74.232165
  0
LINE
  8
ボルト／ビス
  6
CONTINUOUS
 62
    64
 10
57.285863
 20
-74.180123
 11
57.04115
 21
-74.232165
  0
LINE
  8
ボルト／ビス
  6
CONTINUOUS
 62
    64
 10
57.13129
 20
-74.65602
 11
57.376002
 21
-74.603975
  0
LINE
  8
ボルト／ビス
  6
CONTINUOUS
 62
    64
 10
57.45329
 20
-74.366028
 11
57.376002
 21
-74.603975
  0
LINE
  8
ボルト／ビス
  6
CONTINUOUS
 62
    64
 10
56.963862
 20
-74.470115
 11
57.13129
 21
-74.65602
  0
LINE
  8
ボルト／ビス
  6
CONTINUOUS
 62
    64
 10
57.285863
 20
-74.180123
 11
57.45329
 21
-74.366028
  0
CIRCLE
  8
ボルト／ビス
  6
CONTINUOUS
 62
    64
 10
57.208577
 20
-74.418073
 40
0.216668
  0
CIRCLE
  8
ボルト／ビス
  6
CONTINUOUS
 10
67.923677
 20
-64.768045
 40
0.250185
  0
CIRCLE
  8
ボルト／ビス
  6
CONTINUOUS
 10
67.923677
 20
-64.768045
 40
0.301025
  0
LINE
  8
ボルト／ビス
  6
CONTINUOUS
 62
    64
 10
68.000965
 20
-64.530095
 11
67.756252
 21
-64.58214
  0
LINE
  8
ボルト／ビス
  6
CONTINUOUS
 62
    64
 10
67.678967
 20
-64.82009
 11
67.756252
 21
-64.58214
  0
LINE
  8
ボルト／ビス
  6
CONTINUOUS
 62
    64
 10
68.168392
 20
-64.716
 11
68.091105
 21
-64.95395
  0
LINE
  8
ボルト／ビス
  6
CONTINUOUS
 62
    64
 10
67.846393
 20
-65.005995
 11
68.091105
 21
-64.95395
  0
LINE
  8
ボルト／ビス
  6
CONTINUOUS
 62
    64
 10
68.000965
 20
-64.530095
 11
68.168392
 21
-64.716
  0
LINE
  8
ボルト／ビス
  6
CONTINUOUS
 62
    64
 10
67.678967
 20
-64.82009
 11
67.846393
 21
-65.005995
  0
CIRCLE
  8
ボルト／ビス
  6
CONTINUOUS
 62
    64
 10
67.923677
 20
-64.768045
 40
0.216668
  0
ENDBLK
  0
BLOCK
  2
*GRP_0025
 70
    65
 10
0.0
 20
0.0
  0
LINE
  8
補助線
  6
BYBLOCK
 62
    64
 10
-18.089808
 20
-84.012327
 11
-17.965963
 21
-84.123863
  0
LINE
  8
補助線
  6
BYBLOCK
 62
    64
 10
-17.972115
 20
-84.00617
 11
-18.083652
 21
-84.130018
  0
LINE
  8
補助線
  6
BYBLOCK
 62
    64
 10
-28.80491
 20
-74.362302
 11
-28.681065
 21
-74.473837
  0
LINE
  8
補助線
  6
BYBLOCK
 62
    64
 10
-28.68722
 20
-74.356145
 11
-28.798755
 21
-74.479993
  0
LINE
  8
補助線
  6
BYBLOCK
 62
    64
 10
-39.396167
 20
-64.823812
 11
-39.52001
 21
-64.712277
  0
LINE
  8
補助線
  6
BYBLOCK
 62
    64
 10
-39.40232
 20
-64.70612
 11
-39.513857
 21
-64.829968
  0
LINE
  8
型材断面
  6
CONTINUOUS
 10
-17.222517
 20
-83.67194
 11
-17.18559
 21
-84.37808
  0
LINE
  8
型材断面
  6
CONTINUOUS
 10
-17.18559
 20
-84.37808
 11
-17.63173
 21
-84.873463
  0
LINE
  8
型材断面
  6
CONTINUOUS
 10
-17.63173
 20
-84.873463
 11
-18.337872
 21
-84.910393
  0
LINE
  8
型材断面
  6
CONTINUOUS
 10
-39.148105
 20
-63.92575
 11
-39.854245
 21
-63.96268
  0
LINE
  8
型材断面
  6
CONTINUOUS
 10
-39.854245
 20
-63.96268
 11
-40.300388
 21
-64.45806
  0
LINE
  8
型材断面
  6
CONTINUOUS
 10
-40.300388
 20
-64.45806
 11
-40.263458
 21
-65.164205
  0
LINE
  8
型材断面
  6
CONTINUOUS
 10
-18.337872
 20
-84.910393
 11
-40.263458
 21
-65.164205
  0
LINE
  8
型材断面
  6
CONTINUOUS
 10
-17.222517
 20
-83.67194
 11
-39.148105
 21
-63.92575
  0
CIRCLE
  8
ボルト／ビス
  6
CONTINUOUS
 10
-18.027885
 20
-84.068095
 40
0.250185
  0
CIRCLE
  8
ボルト／ビス
  6
CONTINUOUS
 10
-18.027885
 20
-84.068095
 40
0.301025
  0
LINE
  8
ボルト／ビス
  6
CONTINUOUS
 62
    64
 10
-17.783172
 20
-84.12014
 11
-17.860458
 21
-83.88219
  0
LINE
  8
ボルト／ビス
  6
CONTINUOUS
 62
    64
 10
-18.10517
 20
-83.830145
 11
-17.860458
 21
-83.88219
  0
LINE
  8
ボルト／ビス
  6
CONTINUOUS
 62
    64
 10
-17.9506
 20
-84.306045
 11
-18.195313
 21
-84.254
  0
LINE
  8
ボルト／ビス
  6
CONTINUOUS
 62
    64
 10
-18.272598
 20
-84.01605
 11
-18.195313
 21
-84.254
  0
LINE
  8
ボルト／ビス
  6
CONTINUOUS
 62
    64
 10
-17.783172
 20
-84.12014
 11
-17.9506
 21
-84.306045
  0
LINE
  8
ボルト／ビス
  6
CONTINUOUS
 62
    64
 10
-18.10517
 20
-83.830145
 11
-18.272598
 21
-84.01605
  0
CIRCLE
  8
ボルト／ビス
  6
CONTINUOUS
 62
    64
 10
-18.027885
 20
-84.068095
 40
0.216668
  0
CIRCLE
  8
ボルト／ビス
  6
CONTINUOUS
 10
-28.742987
 20
-74.418073
 40
0.250185
  0
CIRCLE
  8
ボルト／ビス
  6
CONTINUOUS
 10
-28.742987
 20
-74.418073
 40
0.301025
  0
LINE
  8
ボルト／ビス
  6
CONTINUOUS
 62
    64
 10
-28.498272
 20
-74.470115
 11
-28.57556
 21
-74.232165
  0
LINE
  8
ボルト／ビス
  6
CONTINUOUS
 62
    64
 10
-28.820273
 20
-74.180123
 11
-28.57556
 21
-74.232165
  0
LINE
  8
ボルト／ビス
  6
CONTINUOUS
 62
    64
 10
-28.6657
 20
-74.65602
 11
-28.910412
 21
-74.603975
  0
LINE
  8
ボルト／ビス
  6
CONTINUOUS
 62
    64
 10
-28.9877
 20
-74.366028
 11
-28.910412
 21
-74.603975
  0
LINE
  8
ボルト／ビス
  6
CONTINUOUS
 62
    64
 10
-28.498272
 20
-74.470115
 11
-28.6657
 21
-74.65602
  0
LINE
  8
ボルト／ビス
  6
CONTINUOUS
 62
    64
 10
-28.820273
 20
-74.180123
 11
-28.9877
 21
-74.366028
  0
CIRCLE
  8
ボルト／ビス
  6
CONTINUOUS
 62
    64
 10
-28.742987
 20
-74.418073
 40
0.216668
  0
CIRCLE
  8
ボルト／ビス
  6
CONTINUOUS
 10
-39.458087
 20
-64.768045
 40
0.250185
  0
CIRCLE
  8
ボルト／ビス
  6
CONTINUOUS
 10
-39.458087
 20
-64.768045
 40
0.301025
  0
LINE
  8
ボルト／ビス
  6
CONTINUOUS
 62
    64
 10
-39.535375
 20
-64.530095
 11
-39.290662
 21
-64.58214
  0
LINE
  8
ボルト／ビス
  6
CONTINUOUS
 62
    64
 10
-39.213378
 20
-64.82009
 11
-39.290662
 21
-64.58214
  0
LINE
  8
ボルト／ビス
  6
CONTINUOUS
 62
    64
 10
-39.702802
 20
-64.716
 11
-39.625515
 21
-64.95395
  0
LINE
  8
ボルト／ビス
  6
CONTINUOUS
 62
    64
 10
-39.380803
 20
-65.005995
 11
-39.625515
 21
-64.95395
  0
LINE
  8
ボルト／ビス
  6
CONTINUOUS
 62
    64
 10
-39.535375
 20
-64.530095
 11
-39.702802
 21
-64.716
  0
LINE
  8
ボルト／ビス
  6
CONTINUOUS
 62
    64
 10
-39.213378
 20
-64.82009
 11
-39.380803
 21
-65.005995
  0
CIRCLE
  8
ボルト／ビス
  6
CONTINUOUS
 62
    64
 10
-39.458087
 20
-64.768045
 40
0.216668
  0
ENDBLK
  0
BLOCK
  2
*GRP_0026
 70
    65
 10
0.0
 20
0.0
  0
LINE
  8
補助線
  6
BYBLOCK
 62
    64
 10
-39.396167
 20
-84.012327
 11
-39.520013
 21
-84.123863
  0
LINE
  8
補助線
  6
BYBLOCK
 62
    64
 10
-39.51386
 20
-84.00617
 11
-39.402322
 21
-84.130018
  0
LINE
  8
補助線
  6
BYBLOCK
 62
    64
 10
-28.681065
 20
-74.362302
 11
-28.80491
 21
-74.473837
  0
LINE
  8
補助線
  6
BYBLOCK
 62
    64
 10
-28.798755
 20
-74.356145
 11
-28.68722
 21
-74.479993
  0
LINE
  8
補助線
  6
BYBLOCK
 62
    64
 10
-18.089808
 20
-64.823812
 11
-17.965965
 21
-64.712277
  0
LINE
  8
補助線
  6
BYBLOCK
 62
    64
 10
-18.083655
 20
-64.70612
 11
-17.972117
 21
-64.829968
  0
LINE
  8
型材断面
  6
CONTINUOUS
 10
-40.263458
 20
-83.67194
 11
-40.300385
 21
-84.37808
  0
LINE
  8
型材断面
  6
CONTINUOUS
 10
-40.300385
 20
-84.37808
 11
-39.854245
 21
-84.873463
  0
LINE
  8
型材断面
  6
CONTINUOUS
 10
-39.854245
 20
-84.873463
 11
-39.148103
 21
-84.910393
  0
LINE
  8
型材断面
  6
CONTINUOUS
 10
-18.33787
 20
-63.92575
 11
-17.63173
 21
-63.96268
  0
LINE
  8
型材断面
  6
CONTINUOUS
 10
-17.63173
 20
-63.96268
 11
-17.185588
 21
-64.45806
  0
LINE
  8
型材断面
  6
CONTINUOUS
 10
-17.185588
 20
-64.45806
 11
-17.222517
 21
-65.164205
  0
LINE
  8
型材断面
  6
CONTINUOUS
 10
-39.148103
 20
-84.910393
 11
-17.222517
 21
-65.164205
  0
LINE
  8
型材断面
  6
CONTINUOUS
 10
-40.263458
 20
-83.67194
 11
-18.33787
 21
-63.92575
  0
CIRCLE
  8
ボルト／ビス
  6
CONTINUOUS
 10
-39.45809
 20
-84.068095
 40
0.250185
  0
CIRCLE
  8
ボルト／ビス
  6
CONTINUOUS
 10
-39.45809
 20
-84.068095
 40
0.301025
  0
LINE
  8
ボルト／ビス
  6
CONTINUOUS
 62
    64
 10
-39.702802
 20
-84.12014
 11
-39.625518
 21
-83.88219
  0
LINE
  8
ボルト／ビス
  6
CONTINUOUS
 62
    64
 10
-39.380805
 20
-83.830145
 11
-39.625518
 21
-83.88219
  0
LINE
  8
ボルト／ビス
  6
CONTINUOUS
 62
    64
 10
-39.535375
 20
-84.306045
 11
-39.290662
 21
-84.254
  0
LINE
  8
ボルト／ビス
  6
CONTINUOUS
 62
    64
 10
-39.213378
 20
-84.01605
 11
-39.290662
 21
-84.254
  0
LINE
  8
ボルト／ビス
  6
CONTINUOUS
 62
    64
 10
-39.702802
 20
-84.12014
 11
-39.535375
 21
-84.306045
  0
LINE
  8
ボルト／ビス
  6
CONTINUOUS
 62
    64
 10
-39.380805
 20
-83.830145
 11
-39.213378
 21
-84.01605
  0
CIRCLE
  8
ボルト／ビス
  6
CONTINUOUS
 62
    64
 10
-39.45809
 20
-84.068095
 40
0.216668
  0
CIRCLE
  8
ボルト／ビス
  6
CONTINUOUS
 10
-28.742987
 20
-74.418073
 40
0.250185
  0
CIRCLE
  8
ボルト／ビス
  6
CONTINUOUS
 10
-28.742987
 20
-74.418073
 40
0.301025
  0
LINE
  8
ボルト／ビス
  6
CONTINUOUS
 62
    64
 10
-28.987702
 20
-74.470115
 11
-28.910415
 21
-74.232165
  0
LINE
  8
ボルト／ビス
  6
CONTINUOUS
 62
    64
 10
-28.665703
 20
-74.180123
 11
-28.910415
 21
-74.232165
  0
LINE
  8
ボルト／ビス
  6
CONTINUOUS
 62
    64
 10
-28.820275
 20
-74.65602
 11
-28.575562
 21
-74.603975
  0
LINE
  8
ボルト／ビス
  6
CONTINUOUS
 62
    64
 10
-28.498275
 20
-74.366028
 11
-28.575562
 21
-74.603975
  0
LINE
  8
ボルト／ビス
  6
CONTINUOUS
 62
    64
 10
-28.987702
 20
-74.470115
 11
-28.820275
 21
-74.65602
  0
LINE
  8
ボルト／ビス
  6
CONTINUOUS
 62
    64
 10
-28.665703
 20
-74.180123
 11
-28.498275
 21
-74.366028
  0
CIRCLE
  8
ボルト／ビス
  6
CONTINUOUS
 62
    64
 10
-28.742987
 20
-74.418073
 40
0.216668
  0
CIRCLE
  8
ボルト／ビス
  6
CONTINUOUS
 10
-18.027887
 20
-64.768045
 40
0.250185
  0
CIRCLE
  8
ボルト／ビス
  6
CONTINUOUS
 10
-18.027887
 20
-64.768045
 40
0.301025
  0
LINE
  8
ボルト／ビス
  6
CONTINUOUS
 62
    64
 10
-17.9506
 20
-64.530095
 11
-18.195313
 21
-64.58214
  0
LINE
  8
ボルト／ビス
  6
CONTINUOUS
 62
    64
 10
-18.272598
 20
-64.82009
 11
-18.195313
 21
-64.58214
  0
LINE
  8
ボルト／ビス
  6
CONTINUOUS
 62
    64
 10
-17.783172
 20
-64.716
 11
-17.86046
 21
-64.95395
  0
LINE
  8
ボルト／ビス
  6
CONTINUOUS
 62
    64
 10
-18.105173
 20
-65.005995
 11
-17.86046
 21
-64.95395
  0
LINE
  8
ボルト／ビス
  6
CONTINUOUS
 62
    64
 10
-17.9506
 20
-64.530095
 11
-17.783172
 21
-64.716
  0
LINE
  8
ボルト／ビス
  6
CONTINUOUS
 62
    64
 10
-18.272598
 20
-64.82009
 11
-18.105173
 21
-65.005995
  0
CIRCLE
  8
ボルト／ビス
  6
CONTINUOUS
 62
    64
 10
-18.027887
 20
-64.768045
 40
0.216668
  0
ENDBLK
  0
BLOCK
  2
*DIM_0027
 70
    65
 10
0.0
 20
0.0
  0
LINE
  8
寸法
  6
CONTINUOUS
 10
166.343563
 20
-41.82239
 11
134.01023
 21
-41.82239
  0
POINT
  8
寸法
 10
166.343563
 20
-41.82239
  0
POINT
  8
寸法
 10
134.01023
 20
-41.82239
  0
TEXT
  7
TextStyle03
  8
寸法
  6
CONTINUOUS
 10
147.7375
 20
-41.475
  1
970
 40
3.0
 72
     5
 11
152.6125
 21
-41.475
  0
ENDBLK
  0
BLOCK
  2
*DIM_0028
 70
    65
 10
0.0
 20
0.0
  0
LINE
  8
寸法
  6
BYBLOCK
 62
     0
 10
90.433833
 20
-78.49138
 11
90.433833
 21
-61.824712
  0
POINT
  8
寸法
 62
     0
 10
90.433833
 20
-78.49138
  0
POINT
  8
寸法
 62
     0
 10
90.433833
 20
-61.824712
  0
TEXT
  7
TextStyle03
  8
寸法
  6
CONTINUOUS
 62
     0
 10
89.825
 20
-59.71875
  1
上昇473以上
 40
3.0
 50
90.0
 72
     5
 11
89.825
 21
-41.53125
  0
ENDBLK
  0
BLOCK
  2
*DIM_0029
 70
    65
 10
0.0
 20
0.0
  0
LINE
  8
寸法
  6
BYBLOCK
 62
     0
 10
160.173723
 20
65.733497
 11
143.507055
 21
65.733497
  0
POINT
  8
寸法
 62
     0
 10
160.173723
 20
65.733497
  0
POINT
  8
寸法
 62
     0
 10
143.507055
 20
65.733497
  0
TEXT
  7
TextStyle03
  8
寸法
  6
CONTINUOUS
 62
     0
 10
121.65625
 20
64.275
  1
上昇473以上
 40
3.0
 72
     5
 11
139.84375
 21
64.275
  0
ENDBLK
  0
BLOCK
  2
*DIM_0030
 70
    65
 10
0.0
 20
0.0
  0
LINE
  8
寸法
  6
CONTINUOUS
 10
171.343563
 20
-49.867045
 11
180.307313
 21
-49.867045
  0
LINE
  8
寸法
  6
CONTINUOUS
 10
171.343563
 20
-93.20038
 11
180.307313
 21
-93.20038
  0
LINE
  8
寸法
  6
CONTINUOUS
 10
180.307313
 20
-49.867045
 11
180.307313
 21
-93.20038
  0
POINT
  8
寸法
 10
180.307313
 20
-49.867045
  0
POINT
  8
寸法
 10
180.307313
 20
-93.20038
  0
TEXT
  7
TextStyle03
  8
寸法
  6
CONTINUOUS
 10
179.925
 20
-74.83125
  1
1300
 40
3.0
 50
90.0
 72
     5
 11
179.925
 21
-68.26875
  0
ENDBLK
  0
BLOCK
  2
*DIM_0031
 70
    65
 10
0.0
 20
0.0
  0
LINE
  8
寸法
  6
CONTINUOUS
 10
160.173723
 20
61.73238
 11
160.173723
 21
65.733497
  0
LINE
  8
寸法
  6
CONTINUOUS
 10
168.290275
 20
61.73238
 11
168.290275
 21
65.733497
  0
LINE
  8
寸法
  6
CONTINUOUS
 10
160.173723
 20
65.733497
 11
168.290275
 21
65.733497
  0
POINT
  8
寸法
 10
160.173723
 20
65.733497
  0
POINT
  8
寸法
 10
168.290275
 20
65.733497
  0
TEXT
  7
TextStyle03
  8
寸法
  6
CONTINUOUS
 10
160.075
 20
66.075
  1
243.5
 40
3.0
 72
     5
 11
168.325
 21
66.075
  0
ENDBLK
  0
BLOCK
  2
*DIM_0032
 70
    65
 10
0.0
 20
0.0
  0
LINE
  8
寸法
  6
CONTINUOUS
 10
77.932523
 20
-78.49138
 11
90.433833
 21
-78.49138
  0
LINE
  8
寸法
  6
CONTINUOUS
 10
79.020348
 20
-86.607932
 11
90.433833
 21
-86.607932
  0
LINE
  8
寸法
  6
CONTINUOUS
 10
90.433833
 20
-78.49138
 11
90.433833
 21
-86.607932
  0
POINT
  8
寸法
 10
90.433833
 20
-78.49138
  0
POINT
  8
寸法
 10
90.433833
 20
-86.607932
  0
TEXT
  7
TextStyle03
  8
寸法
  6
CONTINUOUS
 10
93.425
 20
-86.675
  1
243.5
 40
3.0
 50
90.0
 72
     5
 11
93.425
 21
-78.425
  0
ENDBLK
  0
ENDSEC
  0
SECTION
  2
ENTITIES
  0
POLYLINE
  8
通り芯
  6
CONTINUOUS
 66
     1
 70
     1
  0
VERTEX
  8
通り芯
 10
-210.0
 20
-148.5
  0
VERTEX
  8
通り芯
 10
210.0
 20
-148.5
  0
VERTEX
  8
通り芯
 10
210.0
 20
148.5
  0
VERTEX
  8
通り芯
 10
-210.0
 20
148.5
  0
SEQEND
  0
INSERT
  2
*GRP_0001
  8
型材断面
  6
CONTINUOUS
 10
0.0
 20
0.0
  0
LINE
  8
型材断面
  6
DASHDOT
 10
-128.742993
 20
13.399048
 11
168.93377
 21
13.399048
  0
LINE
  8
型材断面
  6
DASHDOT
 10
-128.742993
 20
56.73238
 11
168.93377
 21
56.73238
  0
LINE
  8
型材断面
  6
DASHDOT
 10
-128.742993
 20
35.065715
 11
168.93377
 21
35.065715
  0
POLYLINE
  8
型材断面
  6
CONTINUOUS
 66
     1
 70
     1
  0
VERTEX
  8
型材断面
 10
-19.342983
 20
66.508305
  0
VERTEX
  8
型材断面
 10
-38.114912
 20
66.508305
  0
VERTEX
  8
型材断面
 10
-38.114912
 20
71.245147
  0
VERTEX
  8
型材断面
 10
-19.342983
 20
71.245147
  0
SEQEND
  0
LINE
  8
型材断面
  6
DASHDOT
 10
-128.742993
 20
-87.251428
 11
-128.742993
 21
56.73238
  0
LINE
  8
型材断面
  6
DASHDOT
 10
-28.742993
 20
-87.251428
 11
-28.742993
 21
56.73238
  0
LINE
  8
型材断面
  6
DASHDOT
 10
71.257007
 20
-87.251428
 11
71.257007
 21
56.73238
  0
POLYLINE
  8
型材断面
  6
CONTINUOUS
 66
     1
 70
     1
  0
VERTEX
  8
型材断面
 10
-19.342983
 20
3.623125
  0
VERTEX
  8
型材断面
 10
-38.114912
 20
3.623125
  0
VERTEX
  8
型材断面
 10
-38.114912
 20
-1.113717
  0
VERTEX
  8
型材断面
 10
-19.342983
 20
-1.113717
  0
SEQEND
  0
LINE
  8
型材断面
  6
CONTINUOUS
 10
-169.5952
 20
94.709852
 11
-168.999145
 21
92.119345
  0
LINE
  8
型材断面
  6
CONTINUOUS
 10
-169.5952
 20
94.709852
 11
-170.191258
 21
92.119345
  0
LINE
  8
型材断面
  6
CONTINUOUS
 10
-170.191258
 20
92.119345
 11
-168.999145
 21
92.119345
  0
LINE
  8
型材断面
  6
CONTINUOUS
 10
-175.617788
 20
88.840452
 11
-129.37601
 21
88.840452
  0
LINE
  8
型材断面
  6
CONTINUOUS
 10
-169.5952
 20
101.239727
 11
-171.09083
 21
98.64922
  0
LINE
  8
型材断面
  6
CONTINUOUS
 10
-169.5952
 20
101.239727
 11
-168.09957
 21
98.64922
  0
LINE
  8
型材断面
  6
CONTINUOUS
 10
-168.09957
 20
98.64922
 11
-171.09083
 21
98.64922
  0
LINE
  8
型材断面
  6
CONTINUOUS
 10
-175.617788
 20
97.710625
 11
-129.37601
 21
97.710625
  0
LINE
  8
型材断面
  6
CONTINUOUS
 10
-175.617788
 20
83.05242
 11
-129.37601
 21
83.05242
  0
LINE
  8
型材断面
  6
CONTINUOUS
 10
-175.617788
 20
77.264387
 11
-129.37601
 21
77.264387
  0
INSERT
  2
*GRP_0021
  8
型材断面
  6
CONTINUOUS
 10
0.0
 20
0.0
  0
INSERT
  2
*GRP_0022
  8
型材断面
  6
CONTINUOUS
 10
0.0
 20
0.0
  0
INSERT
  2
*GRP_0023
  8
型材断面
  6
CONTINUOUS
 10
0.0
 20
0.0
  0
INSERT
  2
*GRP_0024
  8
型材断面
  6
CONTINUOUS
 10
0.0
 20
0.0
  0
INSERT
  2
*GRP_0025
  8
型材断面
  6
CONTINUOUS
 10
0.0
 20
0.0
  0
INSERT
  2
*GRP_0026
  8
型材断面
  6
CONTINUOUS
 10
0.0
 20
0.0
  0
LINE
  8
型材断面
  6
CONTINUOUS
 10
-131.50633
 20
10.63586
 11
74.020345
 21
10.63586
  0
LINE
  8
型材断面
  6
CONTINUOUS
 10
74.020345
 20
10.63586
 11
74.020345
 21
59.495565
  0
LINE
  8
型材断面
  6
CONTINUOUS
 10
-131.50633
 20
59.495565
 11
74.020345
 21
59.495565
  0
LINE
  8
型材断面
  6
CONTINUOUS
 10
-131.50633
 20
35.065712
 11
-134.096838
 21
36.561342
  0
LINE
  8
型材断面
  6
CONTINUOUS
 10
-131.50633
 20
35.065712
 11
-134.096838
 21
33.570082
  0
LINE
  8
型材断面
  6
CONTINUOUS
 10
-134.096838
 20
33.570082
 11
-134.096838
 21
36.561342
  0
LINE
  8
型材断面
  6
CONTINUOUS
 10
-131.50633
 20
53.03238
 11
-134.09684
 21
52.436327
  0
LINE
  8
型材断面
  6
CONTINUOUS
 10
-131.50633
 20
53.03238
 11
-134.096838
 21
53.62844
  0
LINE
  8
型材断面
  6
CONTINUOUS
 10
-134.096838
 20
53.62844
 11
-134.09684
 21
52.436327
  0
LINE
  8
型材断面
  6
CONTINUOUS
 10
-131.50633
 20
17.099045
 11
-134.09684
 21
17.695097
  0
LINE
  8
型材断面
  6
CONTINUOUS
 10
-131.50633
 20
17.099045
 11
-134.096838
 21
16.502985
  0
LINE
  8
型材断面
  6
CONTINUOUS
 10
-134.096838
 20
16.502985
 11
-134.09684
 21
17.695097
  0
LINE
  8
型材断面
  6
CONTINUOUS
 10
-112.076325
 20
59.495565
 11
-113.571955
 21
62.086073
  0
LINE
  8
型材断面
  6
CONTINUOUS
 10
-112.076325
 20
59.495565
 11
-110.580695
 21
62.086073
  0
LINE
  8
型材断面
  6
CONTINUOUS
 10
-110.580695
 20
62.086073
 11
-113.571955
 21
62.086073
  0
LINE
  8
型材断面
  6
CONTINUOUS
 10
-28.742993
 20
59.495565
 11
-30.238623
 21
62.086073
  0
LINE
  8
型材断面
  6
CONTINUOUS
 10
-28.742993
 20
59.495565
 11
-27.247362
 21
62.086073
  0
LINE
  8
型材断面
  6
CONTINUOUS
 10
-27.247362
 20
62.086073
 11
-30.238623
 21
62.086073
  0
LINE
  8
型材断面
  6
CONTINUOUS
 10
54.59034
 20
59.495565
 11
53.09471
 21
62.086073
  0
LINE
  8
型材断面
  6
CONTINUOUS
 10
54.59034
 20
59.495565
 11
56.08597
 21
62.086073
  0
LINE
  8
型材断面
  6
CONTINUOUS
 10
56.08597
 20
62.086073
 11
53.09471
 21
62.086073
  0
LINE
  8
型材断面
  6
CONTINUOUS
 10
74.020345
 20
35.065715
 11
76.610852
 21
36.561345
  0
LINE
  8
型材断面
  6
CONTINUOUS
 10
74.020345
 20
35.065715
 11
76.610852
 21
33.570085
  0
LINE
  8
型材断面
  6
CONTINUOUS
 10
76.610852
 20
33.570085
 11
76.610852
 21
36.561345
  0
LINE
  8
型材断面
  6
CONTINUOUS
 10
74.020345
 20
53.032382
 11
76.610855
 21
52.43633
  0
LINE
  8
型材断面
  6
CONTINUOUS
 10
74.020345
 20
53.032382
 11
76.610852
 21
53.628442
  0
LINE
  8
型材断面
  6
CONTINUOUS
 10
76.610852
 20
53.628442
 11
76.610855
 21
52.43633
  0
LINE
  8
型材断面
  6
CONTINUOUS
 10
74.020345
 20
17.099048
 11
76.610855
 21
17.6951
  0
LINE
  8
型材断面
  6
CONTINUOUS
 10
74.020345
 20
17.099048
 11
76.610852
 21
16.502988
  0
LINE
  8
型材断面
  6
CONTINUOUS
 10
76.610852
 20
16.502988
 11
76.610855
 21
17.6951
  0
LINE
  8
型材断面
  6
CONTINUOUS
 10
-112.076325
 20
10.63586
 11
-113.571955
 21
8.045353
  0
LINE
  8
型材断面
  6
CONTINUOUS
 10
-112.076325
 20
10.63586
 11
-110.580695
 21
8.045353
  0
LINE
  8
型材断面
  6
CONTINUOUS
 10
-110.580695
 20
8.045353
 11
-113.571955
 21
8.045353
  0
LINE
  8
型材断面
  6
CONTINUOUS
 10
-28.742993
 20
10.63586
 11
-30.238623
 21
8.045353
  0
LINE
  8
型材断面
  6
CONTINUOUS
 10
-28.742993
 20
10.63586
 11
-27.247362
 21
8.045353
  0
LINE
  8
型材断面
  6
CONTINUOUS
 10
-27.247362
 20
8.045353
 11
-30.238623
 21
8.045353
  0
LINE
  8
型材断面
  6
CONTINUOUS
 10
54.59034
 20
10.63586
 11
53.09471
 21
8.045353
  0
LINE
  8
型材断面
  6
CONTINUOUS
 10
54.59034
 20
10.63586
 11
56.08597
 21
8.045353
  0
LINE
  8
型材断面
  6
CONTINUOUS
 10
56.08597
 20
8.045353
 11
53.09471
 21
8.045353
  0
LINE
  8
型材断面
  6
DASHDOT
 10
-95.79966
 20
13.399048
 11
-95.79966
 21
56.73238
  0
LINE
  8
型材断面
  6
DASHDOT
 10
-62.272992
 20
13.399048
 11
-62.272992
 21
56.73238
  0
LINE
  8
型材断面
  6
DASHDOT
 10
38.313675
 20
13.399048
 11
38.313675
 21
56.73238
  0
LINE
  8
型材断面
  6
DASHDOT
 10
4.787008
 20
13.399048
 11
4.787008
 21
56.73238
  0
LINE
  8
型材断面
  6
CONTINUOUS
 10
72.854665
 20
11.565692
 11
73.090365
 21
11.801392
  0
LINE
  8
型材断面
  6
CONTINUOUS
 10
70.354663
 20
14.065692
 11
70.590363
 21
14.301392
  0
LINE
  8
型材断面
  6
CONTINUOUS
 10
70.590363
 20
14.301392
 11
73.090365
 21
11.801392
  0
LINE
  8
型材断面
  6
CONTINUOUS
 10
73.090335
 20
35.065715
 11
73.090365
 21
11.801392
  0
LINE
  8
型材断面
  6
CONTINUOUS
 10
70.354663
 20
14.065692
 11
72.854665
 21
11.565692
  0
LINE
  8
型材断面
  6
CONTINUOUS
 10
-28.742993
 20
11.565765
 11
72.854665
 21
11.565692
  0
LINE
  8
型材断面
  6
CONTINUOUS
 10
74.020197
 20
10.63586
 11
72.972513
 21
11.68354
  0
LINE
  8
型材断面
  6
CONTINUOUS
 10
55.20201
 20
14.065705
 11
55.20201
 21
11.565705
  0
LINE
  8
型材断面
  6
CONTINUOUS
 10
54.368675
 20
14.065705
 11
54.368675
 21
11.565705
  0
LINE
  8
型材断面
  6
CONTINUOUS
 10
21.96701
 20
14.065705
 11
21.96701
 21
11.565705
  0
LINE
  8
型材断面
  6
CONTINUOUS
 10
21.133675
 20
14.065705
 11
21.133675
 21
11.565705
  0
LINE
  8
型材断面
  6
CONTINUOUS
 10
-11.559657
 20
14.065705
 11
-11.559657
 21
11.565705
  0
LINE
  8
型材断面
  6
CONTINUOUS
 10
-12.392993
 20
14.065705
 11
-12.392993
 21
11.565705
  0
LINE
  8
型材断面
  6
CONTINUOUS
 10
55.20201
 20
56.065725
 11
55.20201
 21
58.565725
  0
LINE
  8
型材断面
  6
CONTINUOUS
 10
54.368675
 20
56.065725
 11
54.368675
 21
58.565725
  0
LINE
  8
型材断面
  6
CONTINUOUS
 10
21.96701
 20
56.065725
 11
21.96701
 21
58.565725
  0
LINE
  8
型材断面
  6
CONTINUOUS
 10
21.133675
 20
56.065725
 11
21.133675
 21
58.565725
  0
LINE
  8
型材断面
  6
CONTINUOUS
 10
-11.559657
 20
56.065725
 11
-11.559657
 21
58.565725
  0
LINE
  8
型材断面
  6
CONTINUOUS
 10
-12.392993
 20
56.065725
 11
-12.392993
 21
58.565725
  0
LINE
  8
型材断面
  6
CONTINUOUS
 10
-12.392993
 20
56.065675
 11
-28.742993
 21
56.065662
  0
LINE
  8
型材断面
  6
CONTINUOUS
 10
-12.392993
 20
14.065762
 11
-28.742993
 21
14.065775
  0
LINE
  8
型材断面
  6
CONTINUOUS
 10
21.133675
 20
14.065733
 11
-11.559657
 21
14.06576
  0
LINE
  8
型材断面
  6
CONTINUOUS
 10
21.133675
 20
56.0657
 11
-11.559657
 21
56.065675
  0
LINE
  8
型材断面
  6
CONTINUOUS
 10
54.368675
 20
56.065725
 11
21.96701
 21
56.0657
  0
LINE
  8
型材断面
  6
CONTINUOUS
 10
70.354663
 20
14.065692
 11
55.20201
 21
14.065705
  0
LINE
  8
型材断面
  6
CONTINUOUS
 10
54.368675
 20
14.065705
 11
21.96701
 21
14.065733
  0
LINE
  8
型材断面
  6
CONTINUOUS
 10
70.590335
 20
34.649048
 11
73.090335
 21
34.649048
  0
LINE
  8
型材断面
  6
CONTINUOUS
 10
70.590335
 20
35.482382
 11
73.090335
 21
35.482382
  0
LINE
  8
型材断面
  6
CONTINUOUS
 10
70.590335
 20
34.649048
 11
70.590363
 21
14.301392
  0
LINE
  8
型材断面
  6
CONTINUOUS
 10
72.854665
 20
58.565738
 11
73.090365
 21
58.330038
  0
LINE
  8
型材断面
  6
CONTINUOUS
 10
70.354663
 20
56.065738
 11
70.590363
 21
55.830038
  0
LINE
  8
型材断面
  6
CONTINUOUS
 10
70.354663
 20
56.065738
 11
72.854665
 21
58.565738
  0
LINE
  8
型材断面
  6
CONTINUOUS
 10
74.020197
 20
59.49557
 11
72.972513
 21
58.44789
  0
LINE
  8
型材断面
  6
CONTINUOUS
 10
70.590363
 20
55.830038
 11
73.090365
 21
58.330038
  0
LINE
  8
型材断面
  6
CONTINUOUS
 10
73.090335
 20
35.065715
 11
73.090365
 21
58.330038
  0
LINE
  8
型材断面
  6
CONTINUOUS
 10
-28.742993
 20
58.565665
 11
72.854665
 21
58.565738
  0
LINE
  8
型材断面
  6
CONTINUOUS
 10
70.590335
 20
35.482382
 11
70.590363
 21
55.830038
  0
LINE
  8
型材断面
  6
CONTINUOUS
 10
55.20201
 20
56.065725
 11
70.354663
 21
56.065738
  0
LINE
  8
型材断面
  6
CONTINUOUS
 10
39.563675
 20
55.23238
 11
37.063675
 21
55.232378
  0
LINE
  8
型材断面
  6
CONTINUOUS
 10
39.563675
 20
14.89905
 11
39.563675
 21
55.23238
  0
LINE
  8
型材断面
  6
CONTINUOUS
 10
37.063675
 20
14.899052
 11
37.063675
 21
55.232378
  0
LINE
  8
型材断面
  6
CONTINUOUS
 10
39.563675
 20
14.89905
 11
37.063675
 21
14.899052
  0
LINE
  8
型材断面
  6
CONTINUOUS
 10
3.537008
 20
55.23238
 11
6.037008
 21
55.232378
  0
LINE
  8
型材断面
  6
CONTINUOUS
 10
3.537008
 20
14.89905
 11
3.537008
 21
55.23238
  0
LINE
  8
型材断面
  6
CONTINUOUS
 10
6.037008
 20
14.899052
 11
6.037008
 21
55.232378
  0
LINE
  8
型材断面
  6
CONTINUOUS
 10
3.537008
 20
14.89905
 11
6.037008
 21
14.899052
  0
LINE
  8
型材断面
  6
CONTINUOUS
 10
-29.992993
 20
55.23238
 11
-27.492993
 21
55.232378
  0
LINE
  8
型材断面
  6
CONTINUOUS
 10
-29.992993
 20
14.89905
 11
-29.992993
 21
55.23238
  0
LINE
  8
型材断面
  6
CONTINUOUS
 10
-27.492993
 20
14.899052
 11
-27.492993
 21
55.232378
  0
LINE
  8
型材断面
  6
CONTINUOUS
 10
-29.992993
 20
14.89905
 11
-27.492993
 21
14.899052
  0
LINE
  8
型材断面
  6
CONTINUOUS
 10
-131.50633
 20
10.63586
 11
-131.50633
 21
59.495565
  0
LINE
  8
型材断面
  6
DASHDOT
 10
-95.79966
 20
13.399048
 11
-95.79966
 21
56.73238
  0
LINE
  8
型材断面
  6
DASHDOT
 10
-62.272992
 20
13.399048
 11
-62.272992
 21
56.73238
  0
LINE
  8
型材断面
  6
CONTINUOUS
 10
-130.34065
 20
11.565692
 11
-130.57635
 21
11.801392
  0
LINE
  8
型材断面
  6
CONTINUOUS
 10
-127.840647
 20
14.065692
 11
-128.076347
 21
14.301392
  0
LINE
  8
型材断面
  6
CONTINUOUS
 10
-128.076347
 20
14.301392
 11
-130.57635
 21
11.801392
  0
LINE
  8
型材断面
  6
CONTINUOUS
 10
-130.57632
 20
35.065715
 11
-130.57635
 21
11.801392
  0
LINE
  8
型材断面
  6
CONTINUOUS
 10
-127.840647
 20
14.065692
 11
-130.34065
 21
11.565692
  0
LINE
  8
型材断面
  6
CONTINUOUS
 10
-131.506182
 20
10.63586
 11
-130.458497
 21
11.68354
  0
LINE
  8
型材断面
  6
CONTINUOUS
 10
-112.687995
 20
14.065705
 11
-112.687995
 21
11.565705
  0
LINE
  8
型材断面
  6
CONTINUOUS
 10
-111.85466
 20
14.065705
 11
-111.85466
 21
11.565705
  0
LINE
  8
型材断面
  6
CONTINUOUS
 10
-79.452995
 20
14.065705
 11
-79.452995
 21
11.565705
  0
LINE
  8
型材断面
  6
CONTINUOUS
 10
-78.61966
 20
14.065705
 11
-78.61966
 21
11.565705
  0
LINE
  8
型材断面
  6
CONTINUOUS
 10
-45.926328
 20
14.065705
 11
-45.926328
 21
11.565705
  0
LINE
  8
型材断面
  6
CONTINUOUS
 10
-45.092993
 20
14.065705
 11
-45.092993
 21
11.565705
  0
LINE
  8
型材断面
  6
CONTINUOUS
 10
-112.687995
 20
56.065725
 11
-112.687995
 21
58.565725
  0
LINE
  8
型材断面
  6
CONTINUOUS
 10
-111.85466
 20
56.065725
 11
-111.85466
 21
58.565725
  0
LINE
  8
型材断面
  6
CONTINUOUS
 10
-79.452995
 20
56.065725
 11
-79.452995
 21
58.565725
  0
LINE
  8
型材断面
  6
CONTINUOUS
 10
-78.61966
 20
56.065725
 11
-78.61966
 21
58.565725
  0
LINE
  8
型材断面
  6
CONTINUOUS
 10
-45.926328
 20
56.065725
 11
-45.926328
 21
58.565725
  0
LINE
  8
型材断面
  6
CONTINUOUS
 10
-45.092993
 20
56.065725
 11
-45.092993
 21
58.565725
  0
LINE
  8
型材断面
  6
CONTINUOUS
 10
-78.61966
 20
14.065733
 11
-45.926328
 21
14.06576
  0
LINE
  8
型材断面
  6
CONTINUOUS
 10
-78.61966
 20
56.0657
 11
-45.926328
 21
56.065675
  0
LINE
  8
型材断面
  6
CONTINUOUS
 10
-111.85466
 20
56.065725
 11
-79.452995
 21
56.0657
  0
LINE
  8
型材断面
  6
CONTINUOUS
 10
-127.840647
 20
14.065692
 11
-112.687995
 21
14.065705
  0
LINE
  8
型材断面
  6
CONTINUOUS
 10
-111.85466
 20
14.065705
 11
-79.452995
 21
14.065733
  0
LINE
  8
型材断面
  6
CONTINUOUS
 10
-128.07632
 20
34.649048
 11
-130.57632
 21
34.649048
  0
LINE
  8
型材断面
  6
CONTINUOUS
 10
-128.07632
 20
35.482382
 11
-130.57632
 21
35.482382
  0
LINE
  8
型材断面
  6
CONTINUOUS
 10
-128.07632
 20
34.649048
 11
-128.076347
 21
14.301392
  0
LINE
  8
型材断面
  6
CONTINUOUS
 10
-130.34065
 20
58.565738
 11
-130.57635
 21
58.330038
  0
LINE
  8
型材断面
  6
CONTINUOUS
 10
-127.840647
 20
56.065738
 11
-128.076347
 21
55.830038
  0
LINE
  8
型材断面
  6
CONTINUOUS
 10
-127.840647
 20
56.065738
 11
-130.34065
 21
58.565738
  0
LINE
  8
型材断面
  6
CONTINUOUS
 10
-131.506182
 20
59.49557
 11
-130.458497
 21
58.44789
  0
LINE
  8
型材断面
  6
CONTINUOUS
 10
-128.076347
 20
55.830038
 11
-130.57635
 21
58.330038
  0
LINE
  8
型材断面
  6
CONTINUOUS
 10
-130.57632
 20
35.065715
 11
-130.57635
 21
58.330038
  0
LINE
  8
型材断面
  6
CONTINUOUS
 10
-128.07632
 20
35.482382
 11
-128.076347
 21
55.830038
  0
LINE
  8
型材断面
  6
CONTINUOUS
 10
-112.687995
 20
56.065725
 11
-127.840647
 21
56.065738
  0
LINE
  8
型材断面
  6
CONTINUOUS
 10
-97.04966
 20
55.23238
 11
-94.54966
 21
55.232378
  0
LINE
  8
型材断面
  6
CONTINUOUS
 10
-97.04966
 20
14.89905
 11
-97.04966
 21
55.23238
  0
LINE
  8
型材断面
  6
CONTINUOUS
 10
-94.54966
 20
14.899052
 11
-94.54966
 21
55.232378
  0
LINE
  8
型材断面
  6
CONTINUOUS
 10
-97.04966
 20
14.89905
 11
-94.54966
 21
14.899052
  0
LINE
  8
型材断面
  6
CONTINUOUS
 10
-61.022992
 20
55.23238
 11
-63.522992
 21
55.232378
  0
LINE
  8
型材断面
  6
CONTINUOUS
 10
-61.022992
 20
14.89905
 11
-61.022992
 21
55.23238
  0
LINE
  8
型材断面
  6
CONTINUOUS
 10
-63.522992
 20
14.899052
 11
-63.522992
 21
55.232378
  0
LINE
  8
型材断面
  6
CONTINUOUS
 10
-61.022992
 20
14.89905
 11
-63.522992
 21
14.899052
  0
LINE
  8
型材断面
  6
CONTINUOUS
 10
-28.742993
 20
56.065662
 11
-45.092993
 21
56.065675
  0
LINE
  8
型材断面
  6
CONTINUOUS
 10
-28.742993
 20
14.065768
 11
-45.092993
 21
14.065755
  0
LINE
  8
型材断面
  6
CONTINUOUS
 10
-28.742993
 20
58.565665
 11
-130.34065
 21
58.565738
  0
LINE
  8
型材断面
  6
CONTINUOUS
 10
-130.34065
 20
11.565692
 11
-28.742993
 21
11.565762
  0
LINE
  8
型材断面
  6
CONTINUOUS
 10
168.290275
 20
58.995567
 11
168.62694
 21
58.995567
  0
LINE
  8
型材断面
  6
CONTINUOUS
 10
164.193725
 20
59.2989
 11
164.390393
 21
59.495567
  0
LINE
  8
型材断面
  6
CONTINUOUS
 10
164.390393
 20
59.495567
 11
168.290275
 21
59.495567
  0
LINE
  8
型材断面
  6
CONTINUOUS
 62
    47
 10
164.19377
 20
59.298942
 11
164.19377
 21
35.065715
  0
LINE
  8
型材断面
  6
CONTINUOUS
 10
164.390393
 20
59.495567
 11
164.390393
 21
35.065715
  0
LINE
  8
型材断面
  6
CONTINUOUS
 10
168.290275
 20
59.495567
 11
168.290275
 21
35.065715
  0
LINE
  8
型材断面
  6
CONTINUOUS
 10
168.62694
 20
58.995567
 11
168.62694
 21
35.065715
  0
LINE
  8
型材断面
  6
CONTINUOUS
 10
168.290275
 20
11.135863
 11
168.62694
 21
11.135863
  0
LINE
  8
型材断面
  6
CONTINUOUS
 10
164.193725
 20
10.83253
 11
164.390393
 21
10.635863
  0
LINE
  8
型材断面
  6
CONTINUOUS
 10
164.390393
 20
10.635863
 11
168.290275
 21
10.635863
  0
LINE
  8
型材断面
  6
CONTINUOUS
 62
    47
 10
164.19377
 20
10.832488
 11
164.19377
 21
35.065715
  0
LINE
  8
型材断面
  6
CONTINUOUS
 10
164.390393
 20
10.635863
 11
164.390393
 21
35.065715
  0
LINE
  8
型材断面
  6
CONTINUOUS
 10
168.290275
 20
10.635863
 11
168.290275
 21
35.065715
  0
LINE
  8
型材断面
  6
CONTINUOUS
 10
168.62694
 20
11.135863
 11
168.62694
 21
35.065715
  0
LINE
  8
型材断面
  6
CONTINUOUS
 10
73.520348
 20
-86.607932
 11
73.520348
 21
-86.944597
  0
LINE
  8
型材断面
  6
CONTINUOUS
 10
73.82368
 20
-82.511383
 11
74.020348
 21
-82.70805
  0
LINE
  8
型材断面
  6
CONTINUOUS
 10
74.020348
 20
-82.70805
 11
74.020348
 21
-86.607932
  0
LINE
  8
型材断面
  6
CONTINUOUS
 62
    47
 10
73.823723
 20
-82.511427
 11
-28.742993
 21
-82.511427
  0
LINE
  8
型材断面
  6
CONTINUOUS
 10
74.020348
 20
-82.70805
 11
-28.742993
 21
-82.70805
  0
LINE
  8
型材断面
  6
CONTINUOUS
 10
74.020348
 20
-86.607932
 11
-28.742993
 21
-86.607932
  0
LINE
  8
型材断面
  6
CONTINUOUS
 10
73.520348
 20
-86.944597
 11
-28.742993
 21
-86.944597
  0
LINE
  8
型材断面
  6
CONTINUOUS
 10
-131.006333
 20
-86.607932
 11
-131.006333
 21
-86.944597
  0
LINE
  8
型材断面
  6
CONTINUOUS
 10
-131.309665
 20
-82.511383
 11
-131.506333
 21
-82.70805
  0
LINE
  8
型材断面
  6
CONTINUOUS
 10
-131.506333
 20
-82.70805
 11
-131.506333
 21
-86.607932
  0
LINE
  8
型材断面
  6
CONTINUOUS
 62
    47
 10
-131.309707
 20
-82.511427
 11
-28.742993
 21
-82.511427
  0
LINE
  8
型材断面
  6
CONTINUOUS
 10
-131.506333
 20
-82.70805
 11
-28.742993
 21
-82.70805
  0
LINE
  8
型材断面
  6
CONTINUOUS
 10
-131.506333
 20
-86.607932
 11
-28.742993
 21
-86.607932
  0
LINE
  8
型材断面
  6
CONTINUOUS
 10
-131.006333
 20
-86.944597
 11
-28.742993
 21
-86.944597
  0
TEXT
  7
TextStyle03
  8
文字
  6
CONTINUOUS
 10
-37.025
 20
67.2
  1
可動装置側
 40
3.0
 72
     5
 11
-20.525
 21
67.2
  0
TEXT
  7
TextStyle03
  8
文字
  6
CONTINUOUS
 10
-37.025
 20
-0.075
  1
可動装置側
 40
3.0
 72
     5
 11
-20.525
 21
-0.075
  0
TEXT
  7
TextStyle03
  8
文字
  6
CONTINUOUS
 10
-166.775
 20
93.325
  1
はケーシング位置を示す
 40
3.0
 72
     5
 11
-130.025
 21
93.325
  0
TEXT
  7
TextStyle03
  8
文字
  6
CONTINUOUS
 10
-166.775
 20
89.95
  1
４ヶ所中1ヶ所に設定
 40
3.0
 72
     5
 11
-135.0875
 21
89.95
  0
TEXT
  7
TextStyle03
  8
文字
  6
CONTINUOUS
 10
-166.775
 20
98.85
  1
は排水穴位置を示す
 40
3.0
 72
     5
 11
-136.775
 21
98.85
  0
TEXT
  7
TextStyle03
  8
文字
  6
CONTINUOUS
 10
-166.275
 20
23.975
  1
アンカーピッチ
 40
3.0
 50
90.0
 72
     5
 11
-166.275
 21
47.225
  0
TEXT
  7
TextStyle03
  8
文字
  6
CONTINUOUS
 10
-115.3
 20
93.875
  1
アンカーピッチ
 40
3.0
 72
     5
 11
-92.05
 21
93.875
  0
TEXT
  7
TextStyle03
  8
文字
  6
CONTINUOUS
 10
-170.5
 20
83.975
  1
アンカー数量　２２ヶ所
 40
3.0
 72
     5
 11
-133.75
 21
83.975
  0
TEXT
  7
TextStyle03
  8
文字
  6
CONTINUOUS
 10
-175.5
 20
73.25
  1
※重量に依るのでご相談ください
 40
3.0
 72
     5
 11
-125.25
 21
73.25
  0
TEXT
  7
TextStyle03
  8
文字
  6
CONTINUOUS
 10
-175.5
 20
78.2
  1
アームユニット数　※６～８ヶ所
 40
3.0
 72
     5
 11
-125.25
 21
78.2
  0
LINE
  8
文字
  6
CONTINUOUS
 10
162.386035
 20
59.495565
 11
105.276657
 21
59.495565
  0
LINE
  8
文字
  6
CONTINUOUS
 10
162.386035
 20
10.63586
 11
105.276657
 21
10.63586
  0
LINE
  8
文字
  6
CONTINUOUS
 10
143.507055
 20
65.733497
 11
143.507055
 21
60.820725
  0
LINE
  8
文字
  6
CONTINUOUS
 10
-131.50633
 20
-80.158047
 11
-131.50633
 21
-22.024302
  0
LINE
  8
文字
  6
CONTINUOUS
 10
74.020345
 20
-80.158047
 11
74.020345
 21
-22.024302
  0
LINE
  8
文字
  6
CONTINUOUS
 10
90.433833
 20
-61.824712
 11
76.76515
 21
-61.824712
  0
LINE
  8
文字
  6
CONTINUOUS
 10
134.01023
 20
-41.82239
 11
134.01023
 21
-48.675
  0
LINE
  8
文字
  6
CONTINUOUS
 10
166.343563
 20
-41.82239
 11
166.343563
 21
-48.675
  0
TEXT
  7
TextStyle03
  8
文字
  6
CONTINUOUS
 10
147.775
 20
-86.75
  1
網入り6.8t
 40
3.0
 72
     5
 11
164.4625
 21
-86.75
  0
TEXT
  7
TextStyle03
  8
文字
  6
CONTINUOUS
 10
154.45
 20
-91.425
  1
×６枚
 40
3.0
 72
     5
 11
164.2
 21
-91.425
  0
TEXT
  7
TextStyle03
  8
文字
  6
CONTINUOUS
 10
60.85
 20
125.25
  1
シリーズ：ＴＦＦＬ
 40
5.0
 72
     5
 11
110.85
 21
125.25
  0
TEXT
  7
TextStyle03
  8
文字
  6
CONTINUOUS
 10
60.85
 20
119.625
  1
　　　　　（上下可動）1300×6000タイプ
 40
5.0
 72
     5
 11
167.1
 21
119.625
  0
TEXT
  7
TextStyle03
  8
文字
  6
CONTINUOUS
 10
60.85
 20
114.0
  1
図面名　：外観姿図
 40
5.0
 72
     5
 11
110.85
 21
114.0
  0
TEXT
  7
TextStyle03
  8
文字
  6
CONTINUOUS
 10
60.85
 20
108.375
  1
　　　　　　
 40
5.0
 72
     5
 11
93.975
 21
108.375
  0
TEXT
  7
TextStyle03
  8
文字
  6
CONTINUOUS
 10
61.0
 20
104.525
  1
ＮＳコード：ＮＳＦＬ
 40
5.0
 72
     5
 11
116.625
 21
104.525
  0
INSERT
  2
*DIM_0002
  8
寸法
  6
CONTINUOUS
 10
0.0
 20
0.0
  0
INSERT
  2
*DIM_0003
  8
寸法
  6
CONTINUOUS
 10
0.0
 20
0.0
  0
INSERT
  2
*DIM_0004
  8
寸法
  6
CONTINUOUS
 10
0.0
 20
0.0
  0
INSERT
  2
*DIM_0005
  8
寸法
  6
CONTINUOUS
 10
0.0
 20
0.0
  0
INSERT
  2
*DIM_0006
  8
寸法
  6
CONTINUOUS
 10
0.0
 20
0.0
  0
INSERT
  2
*DIM_0007
  8
寸法
  6
CONTINUOUS
 10
0.0
 20
0.0
  0
INSERT
  2
*DIM_0008
  8
寸法
  6
CONTINUOUS
 10
0.0
 20
0.0
  0
INSERT
  2
*DIM_0009
  8
寸法
  6
CONTINUOUS
 10
0.0
 20
0.0
  0
INSERT
  2
*DIM_0010
  8
寸法
  6
CONTINUOUS
 10
0.0
 20
0.0
  0
INSERT
  2
*DIM_0011
  8
寸法
  6
CONTINUOUS
 10
0.0
 20
0.0
  0
INSERT
  2
*DIM_0012
  8
寸法
  6
CONTINUOUS
 10
0.0
 20
0.0
  0
INSERT
  2
*DIM_0013
  8
寸法
  6
CONTINUOUS
 10
0.0
 20
0.0
  0
INSERT
  2
*DIM_0014
  8
寸法
  6
CONTINUOUS
 10
0.0
 20
0.0
  0
INSERT
  2
*DIM_0015
  8
寸法
  6
CONTINUOUS
 10
0.0
 20
0.0
  0
INSERT
  2
*DIM_0016
  8
寸法
  6
CONTINUOUS
 10
0.0
 20
0.0
  0
INSERT
  2
*DIM_0017
  8
寸法
  6
CONTINUOUS
 10
0.0
 20
0.0
  0
INSERT
  2
*DIM_0018
  8
寸法
  6
CONTINUOUS
 10
0.0
 20
0.0
  0
INSERT
  2
*DIM_0019
  8
寸法
  6
CONTINUOUS
 10
0.0
 20
0.0
  0
INSERT
  2
*DIM_0020
  8
寸法
  6
CONTINUOUS
 10
0.0
 20
0.0
  0
INSERT
  2
*DIM_0027
  8
寸法
  6
CONTINUOUS
 10
0.0
 20
0.0
  0
INSERT
  2
*DIM_0028
  8
寸法
  6
CONTINUOUS
 10
0.0
 20
0.0
  0
INSERT
  2
*DIM_0029
  8
寸法
  6
CONTINUOUS
 10
0.0
 20
0.0
  0
INSERT
  2
*DIM_0030
  8
寸法
  6
CONTINUOUS
 10
0.0
 20
0.0
  0
INSERT
  2
*DIM_0031
  8
寸法
  6
CONTINUOUS
 10
0.0
 20
0.0
  0
INSERT
  2
*DIM_0032
  8
寸法
  6
CONTINUOUS
 10
0.0
 20
0.0
  0
LINE
  8
別途部材
  6
CONTINUOUS
 62
    47
 10
160.273723
 20
58.565568
 11
160.34039
 21
58.565568
  0
ARC
  8
別途部材
  6
CONTINUOUS
 62
    47
 10
160.273722
 20
58.465567
 40
0.1
 50
90.0
 51
180.0
  0
LINE
  8
別途部材
  6
CONTINUOUS
 62
    47
 10
160.34039
 20
58.409045
 11
161.84039
 21
58.409045
  0
LINE
  8
別途部材
  6
CONTINUOUS
 62
    47
 10
160.273723
 20
11.565857
 11
160.34039
 21
11.565857
  0
ARC
  8
別途部材
  6
CONTINUOUS
 62
    47
 10
160.273722
 20
11.665857
 40
0.1
 50
180.0
 51
270.0
  0
LINE
  8
別途部材
  6
CONTINUOUS
 62
    47
 10
160.34039
 20
11.72238
 11
161.84039
 21
11.72238
  0
LINE
  8
別途部材
  6
CONTINUOUS
 62
    47
 10
160.34039
 20
11.565857
 11
160.34039
 21
35.198768
  0
LINE
  8
別途部材
  6
CONTINUOUS
 62
    47
 10
160.173723
 20
11.665857
 11
160.173723
 21
35.198768
  0
LINE
  8
別途部材
  6
CONTINUOUS
 62
    47
 10
161.84039
 20
11.72238
 11
161.84039
 21
35.198768
  0
LINE
  8
別途部材
  6
CONTINUOUS
 62
    47
 10
162.990393
 20
10.63586
 11
162.990393
 21
35.198768
  0
LINE
  8
別途部材
  6
CONTINUOUS
 62
    47
 10
164.157057
 20
10.63586
 11
164.157057
 21
35.198768
  0
LINE
  8
別途部材
  6
CONTINUOUS
 62
    47
 10
164.157057
 20
59.495565
 11
164.157057
 21
35.198768
  0
LINE
  8
別途部材
  6
CONTINUOUS
 62
    47
 10
162.990393
 20
59.495565
 11
162.990393
 21
35.198768
  0
LINE
  8
別途部材
  6
CONTINUOUS
 62
    47
 10
161.84039
 20
58.409045
 11
161.84039
 21
35.198768
  0
LINE
  8
別途部材
  6
CONTINUOUS
 62
    47
 10
160.34039
 20
58.565568
 11
160.34039
 21
35.198768
  0
LINE
  8
別途部材
  6
CONTINUOUS
 62
    47
 10
160.173723
 20
58.465567
 11
160.173723
 21
35.198768
  0
LINE
  8
別途部材
  6
DOT
 62
    47
 10
143.607055
 20
58.565568
 11
143.673723
 21
58.565568
  0
ARC
  8
別途部材
  6
DOT
 62
    47
 10
143.607055
 20
58.465567
 40
0.1
 50
90.0
 51
180.0
  0
LINE
  8
別途部材
  6
DOT
 62
    47
 10
143.673723
 20
58.409045
 11
145.173723
 21
58.409045
  0
LINE
  8
別途部材
  6
DOT
 62
    47
 10
143.607055
 20
11.565857
 11
143.673723
 21
11.565857
  0
ARC
  8
別途部材
  6
DOT
 62
    47
 10
143.607055
 20
11.665857
 40
0.1
 50
180.0
 51
270.0
  0
LINE
  8
別途部材
  6
DOT
 62
    47
 10
143.673723
 20
11.72238
 11
145.173723
 21
11.72238
  0
LINE
  8
別途部材
  6
DOT
 62
    47
 10
146.323725
 20
10.63586
 11
146.323725
 21
35.198768
  0
LINE
  8
別途部材
  6
DOT
 62
    47
 10
143.507055
 20
11.665857
 11
143.507055
 21
35.198768
  0
LINE
  8
別途部材
  6
DOT
 62
    47
 10
145.173723
 20
11.72238
 11
145.173723
 21
35.198768
  0
LINE
  8
別途部材
  6
DOT
 62
    47
 10
147.49039
 20
10.63586
 11
147.49039
 21
35.198768
  0
LINE
  8
別途部材
  6
DOT
 62
    47
 10
143.673723
 20
11.565857
 11
143.673723
 21
35.198768
  0
LINE
  8
別途部材
  6
DOT
 62
    47
 10
147.49039
 20
59.495565
 11
147.49039
 21
35.198768
  0
LINE
  8
別途部材
  6
DOT
 62
    47
 10
146.323725
 20
59.495565
 11
146.323725
 21
35.198768
  0
LINE
  8
別途部材
  6
DOT
 62
    47
 10
145.173723
 20
58.409045
 11
145.173723
 21
35.198768
  0
LINE
  8
別途部材
  6
DOT
 62
    47
 10
143.507055
 20
58.465567
 11
143.507055
 21
35.198768
  0
LINE
  8
別途部材
  6
DOT
 62
    47
 10
143.673723
 20
58.565568
 11
143.673723
 21
35.198768
  0
LINE
  8
別途部材
  6
CONTINUOUS
 62
    47
 10
-130.576332
 20
-78.59138
 11
-130.576332
 21
-78.658047
  0
ARC
  8
別途部材
  6
CONTINUOUS
 62
    47
 10
-130.47633
 20
-78.591381
 40
0.1
 50
90.0
 51
180.0
  0
LINE
  8
別途部材
  6
CONTINUOUS
 62
    47
 10
-130.41981
 20
-78.658047
 11
-130.41981
 21
-80.158047
  0
LINE
  8
別途部材
  6
CONTINUOUS
 62
    47
 10
73.090347
 20
-78.59138
 11
73.090347
 21
-78.658047
  0
ARC
  8
別途部材
  6
CONTINUOUS
 62
    47
 10
72.990339
 20
-78.591381
 40
0.1
 50
0.0
 51
90.0
  0
LINE
  8
別途部材
  6
CONTINUOUS
 62
    47
 10
72.933825
 20
-78.658047
 11
72.933825
 21
-80.158047
  0
LINE
  8
別途部材
  6
CONTINUOUS
 62
    47
 10
-131.50633
 20
-81.30805
 11
-28.742993
 21
-81.30805
  0
LINE
  8
別途部材
  6
CONTINUOUS
 62
    47
 10
-131.50633
 20
-82.474715
 11
-28.742993
 21
-82.474715
  0
LINE
  8
別途部材
  6
CONTINUOUS
 62
    47
 10
-130.41981
 20
-80.158047
 11
-28.742993
 21
-80.158047
  0
LINE
  8
別途部材
  6
CONTINUOUS
 62
    47
 10
-130.576332
 20
-78.658047
 11
-28.742993
 21
-78.658047
  0
LINE
  8
別途部材
  6
CONTINUOUS
 62
    47
 10
-130.476332
 20
-78.49138
 11
-28.742993
 21
-78.49138
  0
LINE
  8
別途部材
  6
CONTINUOUS
 62
    47
 10
74.020345
 20
-82.474715
 11
-28.742993
 21
-82.474715
  0
LINE
  8
別途部材
  6
CONTINUOUS
 62
    47
 10
74.020345
 20
-81.30805
 11
-28.742993
 21
-81.30805
  0
LINE
  8
別途部材
  6
CONTINUOUS
 62
    47
 10
72.933825
 20
-80.158047
 11
-28.742993
 21
-80.158047
  0
LINE
  8
別途部材
  6
CONTINUOUS
 62
    47
 10
72.990347
 20
-78.49138
 11
-28.742993
 21
-78.49138
  0
LINE
  8
別途部材
  6
CONTINUOUS
 62
    47
 10
73.090347
 20
-78.658047
 11
-28.742993
 21
-78.658047
  0
LINE
  8
別途部材
  6
DOT
 62
    47
 10
-130.576332
 20
-61.924712
 11
-130.576332
 21
-61.99138
  0
ARC
  8
別途部材
  6
DOT
 62
    47
 10
-130.47633
 20
-61.924713
 40
0.1
 50
90.0
 51
180.0
  0
LINE
  8
別途部材
  6
DOT
 62
    47
 10
-130.41981
 20
-61.99138
 11
-130.41981
 21
-63.49138
  0
LINE
  8
別途部材
  6
DOT
 62
    47
 10
73.090347
 20
-61.924712
 11
73.090347
 21
-61.99138
  0
ARC
  8
別途部材
  6
DOT
 62
    47
 10
72.990339
 20
-61.924713
 40
0.1
 50
0.0
 51
90.0
  0
LINE
  8
別途部材
  6
DOT
 62
    47
 10
72.933825
 20
-61.99138
 11
72.933825
 21
-63.49138
  0
LINE
  8
別途部材
  6
DOT
 62
    47
 10
-131.50633
 20
-65.808047
 11
-28.742993
 21
-65.808047
  0
LINE
  8
別途部材
  6
DOT
 62
    47
 10
-131.50633
 20
-64.641382
 11
-28.742993
 21
-64.641382
  0
LINE
  8
別途部材
  6
DOT
 62
    47
 10
-130.41981
 20
-63.49138
 11
-28.742993
 21
-63.49138
  0
LINE
  8
別途部材
  6
DOT
 62
    47
 10
-130.476332
 20
-61.824712
 11
-28.742993
 21
-61.824712
  0
LINE
  8
別途部材
  6
DOT
 62
    47
 10
-130.576332
 20
-61.99138
 11
-28.742993
 21
-61.99138
  0
LINE
  8
別途部材
  6
DOT
 62
    47
 10
74.020345
 20
-65.808047
 11
-28.742993
 21
-65.808047
  0
LINE
  8
別途部材
  6
DOT
 62
    47
 10
74.020345
 20
-64.641382
 11
-28.742993
 21
-64.641382
  0
LINE
  8
別途部材
  6
DOT
 62
    47
 10
72.933825
 20
-63.49138
 11
-28.742993
 21
-63.49138
  0
LINE
  8
別途部材
  6
DOT
 62
    47
 10
72.990347
 20
-61.824712
 11
-28.742993
 21
-61.824712
  0
LINE
  8
別途部材
  6
DOT
 62
    47
 10
73.090347
 20
-61.99138
 11
-28.742993
 21
-61.99138
  0
LINE
  8
曲げ物
  6
CONTINUOUS
 10
55.982738
 20
37.022003
 11
52.287425
 21
33.32669
  0
LINE
  8
曲げ物
  6
CONTINUOUS
 10
55.279268
 20
35.485893
 11
53.823538
 21
34.030163
  0
LINE
  8
曲げ物
  6
CONTINUOUS
 10
54.446628
 20
36.318533
 11
52.990898
 21
34.862803
  0
LINE
  8
曲げ物
  6
CONTINUOUS
 10
23.701115
 20
37.022003
 11
20.005803
 21
33.32669
  0
LINE
  8
曲げ物
  6
CONTINUOUS
 10
22.997645
 20
35.485893
 11
21.541915
 21
34.030163
  0
LINE
  8
曲げ物
  6
CONTINUOUS
 10
22.165005
 20
36.318533
 11
20.709275
 21
34.862803
  0
LINE
  8
曲げ物
  6
CONTINUOUS
 10
-9.110125
 20
37.022003
 11
-12.805437
 21
33.32669
  0
LINE
  8
曲げ物
  6
CONTINUOUS
 10
-9.813595
 20
35.485893
 11
-11.269325
 21
34.030163
  0
LINE
  8
曲げ物
  6
CONTINUOUS
 10
-10.646235
 20
36.318533
 11
-12.101965
 21
34.862803
  0
LINE
  8
曲げ物
  6
CONTINUOUS
 10
-42.918483
 20
37.022003
 11
-46.613795
 21
33.32669
  0
LINE
  8
曲げ物
  6
CONTINUOUS
 10
-43.621953
 20
35.485893
 11
-45.077682
 21
34.030163
  0
LINE
  8
曲げ物
  6
CONTINUOUS
 10
-44.454593
 20
36.318533
 11
-45.910322
 21
34.862803
  0
LINE
  8
曲げ物
  6
CONTINUOUS
 10
-76.439232
 20
37.022003
 11
-80.134545
 21
33.32669
  0
LINE
  8
曲げ物
  6
CONTINUOUS
 10
-77.142702
 20
35.485893
 11
-78.598433
 21
34.030163
  0
LINE
  8
曲げ物
  6
CONTINUOUS
 10
-77.975342
 20
36.318533
 11
-79.431073
 21
34.862803
  0
LINE
  8
曲げ物
  6
CONTINUOUS
 10
-110.960845
 20
37.022003
 11
-114.656157
 21
33.32669
  0
LINE
  8
曲げ物
  6
CONTINUOUS
 10
-111.664315
 20
35.485893
 11
-113.120045
 21
34.030163
  0
LINE
  8
曲げ物
  6
CONTINUOUS
 10
-112.496955
 20
36.318533
 11
-113.952685
 21
34.862803
  0
LINE
  8
曲げ物
  6
CONTINUOUS
 10
166.343563
 20
-49.867045
 11
134.01023
 21
-49.867045
  0
LINE
  8
曲げ物
  6
CONTINUOUS
 10
166.343563
 20
-93.20038
 11
134.01023
 21
-93.20038
  0
LINE
  8
曲げ物
  6
CONTINUOUS
 10
134.01023
 20
-49.867045
 11
134.01023
 21
-93.20038
  0
LINE
  8
曲げ物
  6
CONTINUOUS
 10
166.343563
 20
-49.867045
 11
166.343563
 21
-93.20038
  0
LINE
  8
鉄骨等
  6
CONTINUOUS
 62
    47
 10
164.157057
 20
59.495565
 11
162.990393
 21
59.495565
  0
LINE
  8
鉄骨等
  6
CONTINUOUS
 62
    47
 10
162.990393
 20
59.495565
 11
161.840393
 21
58.092377
  0
LINE
  8
鉄骨等
  6
CONTINUOUS
 62
    47
 10
164.157057
 20
10.63586
 11
162.990393
 21
10.63586
  0
LINE
  8
鉄骨等
  6
CONTINUOUS
 62
    47
 10
162.990393
 20
10.63586
 11
161.840393
 21
12.039045
  0
LINE
  8
鉄骨等
  6
DOT
 62
    47
 10
147.49039
 20
59.495565
 11
146.323725
 21
59.495565
  0
LINE
  8
鉄骨等
  6
DOT
 62
    47
 10
146.323725
 20
59.495565
 11
145.173725
 21
58.092377
  0
LINE
  8
鉄骨等
  6
DOT
 62
    47
 10
147.49039
 20
10.63586
 11
146.323725
 21
10.63586
  0
LINE
  8
鉄骨等
  6
DOT
 62
    47
 10
146.323725
 20
10.63586
 11
145.173725
 21
12.039045
  0
LINE
  8
鉄骨等
  6
CONTINUOUS
 62
    47
 10
-131.50633
 20
-82.474715
 11
-131.50633
 21
-81.30805
  0
LINE
  8
鉄骨等
  6
CONTINUOUS
 62
    47
 10
-131.50633
 20
-81.30805
 11
-130.103145
 21
-80.15805
  0
LINE
  8
鉄骨等
  6
CONTINUOUS
 62
    47
 10
74.020345
 20
-82.474715
 11
74.020345
 21
-81.30805
  0
LINE
  8
鉄骨等
  6
CONTINUOUS
 62
    47
 10
74.020345
 20
-81.30805
 11
72.61716
 21
-80.15805
  0
LINE
  8
鉄骨等
  6
DOT
 62
    47
 10
-131.50633
 20
-65.808047
 11
-131.50633
 21
-64.641382
  0
LINE
  8
鉄骨等
  6
DOT
 62
    47
 10
-131.50633
 20
-64.641382
 11
-130.103145
 21
-63.491382
  0
LINE
  8
鉄骨等
  6
DOT
 62
    47
 10
74.020345
 20
-65.808047
 11
74.020345
 21
-64.641382
  0
LINE
  8
鉄骨等
  6
DOT
 62
    47
 10
74.020345
 20
-64.641382
 11
72.61716
 21
-63.491382
  0
ENDSEC
  0
EOF
