  0
SECTION
  2
HEADER
  9
$EXTMIN
 10
-210.0
 20
-148.5
  9
$EXTMAX
 10
210.0
 20
148.5
  9
$PDMODE
 70
    32
  9
$PDSIZE
 40
1.5
  9
$LTSCALE
 40
10.0
  0
ENDSEC
  0
SECTION
  2
TABLES
  0
TABLE
  2
LTYPE
 70
    15
  0
LTYPE
  2
CONTINUOUS
 70
    64
  3
実線
 72
    65
 73
     0
 40
0.0
  0
LTYPE
  2
DASHED
 70
    64
  3
破線A
 72
    65
 73
     2
 40
0.6
 49
0.4
 49
-0.2
  0
LTYPE
  2
DASHEDX2
 70
    64
  3
破線B
 72
    65
 73
     2
 40
1.3
 49
0.9
 49
-0.4
  0
LTYPE
  2
DASHDOT
 70
    64
  3
１点鎖線A
 72
    65
 73
     4
 40
0.5375
 49
0.375
 49
-0.05
 49
0.0625
 49
-0.05
  0
LTYPE
  2
DASHDOTX2
 70
    64
  3
１点鎖線B
 72
    65
 73
     4
 40
1.075
 49
0.75
 49
-0.1
 49
0.125
 49
-0.1
  0
LTYPE
  2
DIVIDE2
 70
    64
  3
２点鎖線A
 72
    65
 73
     6
 40
0.5125
 49
0.3
 49
-0.0375
 49
0.05
 49
-0.0375
 49
0.05
 49
-0.0375
  0
LTYPE
  2
DIVIDE
 70
    64
  3
２点鎖線B
 72
    65
 73
     6
 40
1.05
 49
0.55
 49
-0.1
 49
0.1
 49
-0.1
 49
0.1
 49
-0.1
  0
LTYPE
  2
DOT
 70
    64
  3
点線A
 72
    65
 73
     2
 40
0.1125
 49
0.0625
 49
-0.05
  0
LTYPE
  2
DOTX2
 70
    64
  3
点線B
 72
    65
 73
     2
 40
0.275
 49
0.15
 49
-0.125
  0
LTYPE
  2
CONTINUOUS
 70
    64
  3
実線
 72
    65
 73
     0
 40
0.0
  0
LTYPE
  2
CONTINUOUS
 70
    64
  3
実線
 72
    65
 73
     0
 40
0.0
  0
LTYPE
  2
CONTINUOUS
 70
    64
  3
実線
 72
    65
 73
     0
 40
0.0
  0
LTYPE
  2
CONTINUOUS
 70
    64
  3
実線
 72
    65
 73
     0
 40
0.0
  0
LTYPE
  2
CONTINUOUS
 70
    64
  3
実線
 72
    65
 73
     0
 40
0.0
  0
LTYPE
  2
CONTINUOUS
 70
    64
  3
実線
 72
    65
 73
     0
 40
0.0
  0
ENDTAB
  0
TABLE
  2
LAYER
 70
    34
  0
LAYER
  2
通り芯
 70
     0
 62
    15
  6
CONTINUOUS
  0
LAYER
  2
補助線
 70
     0
 62
    16
  6
DOT
  0
LAYER
  2
躯体
 70
     0
 62
    31
  6
CONTINUOUS
  0
LAYER
  2
型材
 70
     0
 62
    32
  6
CONTINUOUS
  0
LAYER
  2
型材断面
 70
     0
 62
    47
  6
CONTINUOUS
  0
LAYER
  2
ガラス
 70
     0
 62
    48
  6
CONTINUOUS
  0
LAYER
  2
ゴム等
 70
     0
 62
    63
  6
CONTINUOUS
  0
LAYER
  2
ボルト／ビス
 70
     0
 62
    64
  6
CONTINUOUS
  0
LAYER
  2
文字
 70
     0
 62
    79
  6
CONTINUOUS
  0
LAYER
  2
寸法
 70
     0
 62
    80
  6
CONTINUOUS
  0
LAYER
  2
ﾊｯﾁﾝｸﾞ
 70
     0
 62
    95
  6
CONTINUOUS
  0
LAYER
  2
別途部材
 70
     0
 62
    96
  6
CONTINUOUS
  0
LAYER
  2
曲げ物
 70
     0
 62
   111
  6
CONTINUOUS
  0
LAYER
  2
鉄骨等
 70
     0
 62
   112
  6
CONTINUOUS
  0
LAYER
  2
St
 70
     0
 62
   127
  6
CONTINUOUS
  0
LAYER
  2
その他部品等
 70
     0
 62
   128
  6
CONTINUOUS
  0
LAYER
  2
ｶﾞｽｹｯﾄ
 70
     0
 62
   143
  6
CONTINUOUS
  0
LAYER
  2
ｽｹｯﾁ
 70
     0
 62
    14
  6
CONTINUOUS
  0
LAYER
  2
0
 70
     0
 62
    17
  6
CONTINUOUS
  0
LAYER
  2
1
 70
     0
 62
    30
  6
CONTINUOUS
  0
LAYER
  2
4
 70
     0
 62
    33
  6
CONTINUOUS
  0
LAYER
  2
ﾚｲﾔ3
 70
     0
 62
    46
  6
CONTINUOUS
  0
LAYER
  2
外形線
 70
     0
 62
    49
  6
CONTINUOUS
  0
LAYER
  2
部品
 70
     0
 62
    14
  6
CONTINUOUS
  0
LAYER
  2
サッシ芯
 70
     0
 62
    17
  6
DASHDOTX2
  0
LAYER
  2
寸法線
 70
     0
 62
    62
  6
CONTINUOUS
  0
LAYER
  2
姿図外形線
 70
     0
 62
    65
  6
CONTINUOUS
  0
LAYER
  2
姿補助線
 70
     0
 62
    30
  6
CONTINUOUS
  0
LAYER
  2
透視線
 70
     0
 62
    78
  6
DOT
  0
LAYER
  2
用紙
 70
     0
 62
    81
  6
CONTINUOUS
  0
LAYER
  2
実線図枠
 70
     0
 62
    94
  6
CONTINUOUS
  0
LAYER
  2
補助図枠
 70
     0
 62
    97
  6
CONTINUOUS
  0
LAYER
  2
建具記号
 70
     0
 62
   110
  6
CONTINUOUS
  0
LAYER
  2
補助文字
 70
     0
 62
   113
  6
CONTINUOUS
  0
ENDTAB
  0
TABLE
  2
STYLE
 70
    10
  0
STYLE
  2
STANDARD
 70
     0
 40
1.0
 41
1.0
 42
1.0
 50
0.0
 71
     0
  3
TXT
  4
BIGFONT
  0
STYLE
  2
TATE
 70
     4
 40
1.0
 41
1.0
 42
1.0
 50
0.0
 71
     0
  3
TXT
  4
BIGFONT
  0
STYLE
  2
TextStyle03
 70
     0
 40
1.0
 41
1.0
 42
1.0
 50
0.0
 71
     0
  3
MONOTXT
  4
BIGFONT
  0
STYLE
  2
TextStyle04
 70
     0
 40
1.0
 41
1.0
 42
1.0
 50
0.0
 71
     0
  3
MONOTXT
  4
BIGFONT
  0
STYLE
  2
TextStyle05
 70
     0
 40
1.0
 41
1.0
 42
1.0
 50
0.0
 71
     0
  3
MONOTXT
  4
BIGFONT
  0
STYLE
  2
TextStyle06
 70
     0
 40
1.0
 41
1.0
 42
1.0
 50
0.0
 71
     0
  3
MONOTXT
  4
BIGFONT
  0
STYLE
  2
TextStyle07
 70
     0
 40
1.0
 41
1.0
 42
1.0
 50
0.0
 71
     0
  3
MONOTXT
  4
BIGFONT
  0
STYLE
  2
TextStyle08
 70
     0
 40
1.0
 41
1.0
 42
1.0
 50
0.0
 71
     0
  3
MONOTXT
  4
BIGFONT
  0
STYLE
  2
TextStyle09
 70
     0
 40
1.0
 41
1.0
 42
1.0
 50
0.0
 71
     0
  3
MONOTXT
  4
BIGFONT
  0
STYLE
  2
TextStyle10
 70
     0
 40
1.0
 41
1.0
 42
1.0
 50
0.0
 71
     0
  3
MONOTXT
  4
BIGFONT
  0
ENDTAB
  0
ENDSEC
  0
SECTION
  2
BLOCKS
  0
BLOCK
  2
*GRP_0001
 70
    65
 10
0.0
 20
0.0
  0
LINE
  8
型材断面
  6
CONTINUOUS
 10
195.0
 20
133.5
 11
195.0
 21
-133.5
  0
LINE
  8
型材断面
  6
CONTINUOUS
 10
195.0
 20
-133.5
 11
-185.0
 21
-133.5
  0
LINE
  8
型材断面
  6
CONTINUOUS
 10
-185.0
 20
-133.5
 11
-185.0
 21
133.5
  0
LINE
  8
型材断面
  6
CONTINUOUS
 10
195.0
 20
133.5
 11
-185.0
 21
133.5
  0
LINE
  8
型材断面
  6
CONTINUOUS
 10
145.0
 20
-133.5
 11
145.0
 21
-118.5
  0
LINE
  8
型材断面
  6
CONTINUOUS
 10
195.0
 20
-118.5
 11
145.0
 21
-118.5
  0
ENDBLK
  0
BLOCK
  2
*DIM_0002
 70
    65
 10
0.0
 20
0.0
  0
LINE
  8
寸法
  6
BYBLOCK
 62
     0
 10
-61.953802
 20
-16.511205
 11
-61.953802
 21
-13.121378
  0
LINE
  8
寸法
  6
BYBLOCK
 62
     0
 10
4.712865
 20
-13.121378
 11
-61.953802
 21
-13.121378
  0
POINT
  8
寸法
 62
     0
 10
4.712865
 20
-13.121378
  0
POINT
  8
寸法
 62
     0
 10
-61.953802
 20
-13.121378
  0
TEXT
  7
TextStyle03
  8
寸法
  6
CONTINUOUS
 62
     0
 10
-40.34375
 20
-12.75
  1
呼称寸法　2000
 40
3.0
 72
     5
 11
-16.90625
 21
-12.75
  0
ENDBLK
  0
BLOCK
  2
*DIM_0003
 70
    65
 10
0.0
 20
0.0
  0
LINE
  8
寸法
  6
BYBLOCK
 62
     0
 10
-45.287135
 20
19.183902
 11
-45.287135
 21
14.182178
  0
LINE
  8
寸法
  6
BYBLOCK
 62
     0
 10
-11.9538
 20
19.183902
 11
-11.9538
 21
14.182178
  0
LINE
  8
寸法
  6
BYBLOCK
 62
     0
 10
-45.287135
 20
14.182178
 11
-11.9538
 21
14.182178
  0
POINT
  8
寸法
 62
     0
 10
-45.287135
 20
14.182178
  0
POINT
  8
寸法
 62
     0
 10
-11.9538
 20
14.182178
  0
TEXT
  7
TextStyle03
  8
寸法
  6
CONTINUOUS
 62
     0
 10
-31.90625
 20
14.55
  1
1000
 40
3.0
 72
     5
 11
-25.34375
 21
14.55
  0
ENDBLK
  0
BLOCK
  2
*DIM_0004
 70
    65
 10
0.0
 20
0.0
  0
LINE
  8
寸法
  6
BYBLOCK
 62
     0
 10
5.712865
 20
42.814035
 11
15.437147
 21
42.814035
  0
LINE
  8
寸法
  6
BYBLOCK
 62
     0
 10
8.342995
 20
39.114035
 11
15.437147
 21
39.114035
  0
LINE
  8
寸法
  6
BYBLOCK
 62
     0
 10
15.437147
 20
42.814035
 11
15.437147
 21
39.114035
  0
POINT
  8
寸法
 62
     0
 10
15.437147
 20
42.814035
  0
POINT
  8
寸法
 62
     0
 10
15.437147
 20
39.114035
  0
TEXT
  7
TextStyle03
  8
寸法
  6
CONTINUOUS
 62
     0
 10
15.125
 20
43.8125
  1
111
 40
3.0
 50
90.0
 72
     5
 11
15.125
 21
48.6875
  0
ENDBLK
  0
BLOCK
  2
*DIM_0005
 70
    65
 10
0.0
 20
0.0
  0
LINE
  8
寸法
  6
BYBLOCK
 62
     0
 10
5.712865
 20
22.81403
 11
15.437147
 21
22.814027
  0
LINE
  8
寸法
  6
BYBLOCK
 62
     0
 10
8.342995
 20
26.51403
 11
15.437147
 21
26.514027
  0
LINE
  8
寸法
  6
BYBLOCK
 62
     0
 10
15.437147
 20
22.814027
 11
15.437147
 21
26.514027
  0
POINT
  8
寸法
 62
     0
 10
15.437147
 20
22.814027
  0
POINT
  8
寸法
 62
     0
 10
15.437147
 20
26.514027
  0
TEXT
  7
TextStyle03
  8
寸法
  6
CONTINUOUS
 62
     0
 10
15.45
 20
16.5625
  1
111
 40
3.0
 50
90.0
 72
     5
 11
15.45
 21
21.4375
  0
ENDBLK
  0
BLOCK
  2
*DIM_0006
 70
    65
 10
0.0
 20
0.0
  0
LINE
  8
寸法
  6
BYBLOCK
 62
     0
 10
38.732515
 20
22.814033
 11
38.732515
 21
42.814033
  0
POINT
  8
寸法
 62
     0
 10
38.732515
 20
22.814033
  0
POINT
  8
寸法
 62
     0
 10
38.732515
 20
42.814033
  0
TEXT
  7
TextStyle03
  8
寸法
  6
CONTINUOUS
 62
     0
 10
38.375
 20
21.925
  1
呼称寸法　600
 40
3.0
 50
90.0
 72
     5
 11
38.375
 21
43.675
  0
ENDBLK
  0
BLOCK
  2
*DIM_0007
 70
    65
 10
0.0
 20
0.0
  0
LINE
  8
寸法
  6
BYBLOCK
 62
     0
 10
-64.953802
 20
39.4807
 11
-78.24664
 21
39.4807
  0
LINE
  8
寸法
  6
BYBLOCK
 62
     0
 10
-64.953802
 20
26.147365
 11
-78.24664
 21
26.147365
  0
LINE
  8
寸法
  6
BYBLOCK
 62
     0
 10
-78.24664
 20
39.4807
 11
-78.24664
 21
26.147365
  0
POINT
  8
寸法
 62
     0
 10
-78.24664
 20
39.4807
  0
POINT
  8
寸法
 62
     0
 10
-78.24664
 20
26.147365
  0
TEXT
  7
TextStyle03
  8
寸法
  6
CONTINUOUS
 62
     0
 10
-78.7
 20
30.3625
  1
400
 40
3.0
 50
90.0
 72
     5
 11
-78.7
 21
35.2375
  0
ENDBLK
  0
BLOCK
  2
*DIM_0008
 70
    65
 10
0.0
 20
0.0
  0
LINE
  8
寸法
  6
BYBLOCK
 62
     0
 10
-51.9538
 20
45.814033
 11
-51.9538
 21
74.741653
  0
LINE
  8
寸法
  6
BYBLOCK
 62
     0
 10
-28.620467
 20
45.814033
 11
-28.620467
 21
74.741653
  0
LINE
  8
寸法
  6
BYBLOCK
 62
     0
 10
-51.9538
 20
74.741653
 11
-28.620467
 21
74.741653
  0
POINT
  8
寸法
 62
     0
 10
-51.9538
 20
74.741653
  0
POINT
  8
寸法
 62
     0
 10
-28.620467
 20
74.741653
  0
TEXT
  7
TextStyle03
  8
寸法
  6
CONTINUOUS
 62
     0
 10
-42.7375
 20
75.125
  1
700
 40
3.0
 72
     5
 11
-37.8625
 21
75.125
  0
ENDBLK
  0
BLOCK
  2
*DIM_0009
 70
    65
 10
0.0
 20
0.0
  0
LINE
  8
寸法
  6
BYBLOCK
 62
     0
 10
-5.287135
 20
45.814033
 11
-5.287135
 21
74.741653
  0
LINE
  8
寸法
  6
BYBLOCK
 62
     0
 10
-28.620467
 20
74.741653
 11
-5.287135
 21
74.741653
  0
POINT
  8
寸法
 62
     0
 10
-5.287135
 20
74.741653
  0
TEXT
  7
TextStyle03
  8
寸法
  6
CONTINUOUS
 62
     0
 10
-19.4125
 20
75.125
  1
700
 40
3.0
 72
     5
 11
-14.5375
 21
75.125
  0
ENDBLK
  0
BLOCK
  2
*GRP_0010
 70
    65
 10
0.0
 20
0.0
  0
LINE
  8
別途部材
  6
DOT
 62
    47
 10
86.396248
 20
20.980842
 11
86.462915
 21
20.980842
  0
ARC
  8
別途部材
  6
DOT
 62
    47
 10
86.396248
 20
21.080843
 40
0.1
 50
180.0
 51
270.0
  0
LINE
  8
別途部材
  6
DOT
 62
    47
 10
86.462915
 20
21.137365
 11
87.962915
 21
21.137365
  0
LINE
  8
別途部材
  6
DOT
 62
    47
 10
90.279582
 20
20.050845
 11
90.279582
 21
32.81403
  0
LINE
  8
別途部材
  6
DOT
 62
    47
 10
89.112918
 20
20.050845
 11
89.112918
 21
32.81403
  0
LINE
  8
別途部材
  6
DOT
 62
    47
 10
87.962915
 20
21.137365
 11
87.962915
 21
32.81403
  0
LINE
  8
別途部材
  6
DOT
 62
    47
 10
86.462915
 20
20.980842
 11
86.462915
 21
32.81403
  0
LINE
  8
別途部材
  6
DOT
 62
    47
 10
86.296248
 20
21.080842
 11
86.296248
 21
32.81403
  0
LINE
  8
別途部材
  6
DOT
 62
    47
 10
86.396248
 20
44.64722
 11
86.462915
 21
44.64722
  0
ARC
  8
別途部材
  6
DOT
 62
    47
 10
86.396248
 20
44.547219
 40
0.1
 50
90.0
 51
180.0
  0
LINE
  8
別途部材
  6
DOT
 62
    47
 10
86.462915
 20
44.490697
 11
87.962915
 21
44.490697
  0
LINE
  8
別途部材
  6
DOT
 62
    47
 10
90.279582
 20
45.577218
 11
90.279582
 21
32.81403
  0
LINE
  8
別途部材
  6
DOT
 62
    47
 10
89.112918
 20
45.577218
 11
89.112918
 21
32.81403
  0
LINE
  8
別途部材
  6
DOT
 62
    47
 10
87.962915
 20
44.490697
 11
87.962915
 21
32.81403
  0
LINE
  8
別途部材
  6
DOT
 62
    47
 10
86.462915
 20
44.64722
 11
86.462915
 21
32.81403
  0
LINE
  8
別途部材
  6
DOT
 62
    47
 10
86.296248
 20
44.54722
 11
86.296248
 21
32.81403
  0
LINE
  8
鉄骨等
  6
DOT
 62
    47
 10
90.279582
 20
20.050845
 11
89.112918
 21
20.050845
  0
LINE
  8
鉄骨等
  6
DOT
 62
    47
 10
89.112918
 20
20.050845
 11
87.962918
 21
21.45403
  0
LINE
  8
鉄骨等
  6
DOT
 62
    47
 10
90.279582
 20
45.577218
 11
89.112918
 21
45.577218
  0
LINE
  8
鉄骨等
  6
DOT
 62
    47
 10
89.112918
 20
45.577218
 11
87.962918
 21
44.17403
  0
ENDBLK
  0
BLOCK
  2
*DIM_0011
 70
    65
 10
0.0
 20
0.0
  0
LINE
  8
寸法
  6
CONTINUOUS
 10
-61.953802
 20
-13.121378
 11
-64.717135
 21
-13.121378
  0
POINT
  8
寸法
 10
-61.953802
 20
-13.121378
  0
POINT
  8
寸法
 10
-64.717135
 20
-13.121378
  0
TEXT
  7
TextStyle03
  8
寸法
  6
CONTINUOUS
 10
-69.30625
 20
-12.225
  1
82.9
 40
3.0
 72
     5
 11
-62.74375
 21
-12.225
  0
ENDBLK
  0
BLOCK
  2
*DIM_0012
 70
    65
 10
0.0
 20
0.0
  0
LINE
  8
寸法
  6
CONTINUOUS
 10
7.4762
 20
-13.121378
 11
4.712865
 21
-13.121378
  0
POINT
  8
寸法
 10
7.4762
 20
-13.121378
  0
POINT
  8
寸法
 10
4.712865
 20
-13.121378
  0
TEXT
  7
TextStyle03
  8
寸法
  6
CONTINUOUS
 10
5.81875
 20
-12.275
  1
82.9
 40
3.0
 72
     5
 11
12.38125
 21
-12.275
  0
ENDBLK
  0
BLOCK
  2
*DIM_0013
 70
    65
 10
0.0
 20
0.0
  0
LINE
  8
寸法
  6
CONTINUOUS
 10
38.732515
 20
45.577218
 11
38.732515
 21
42.814033
  0
POINT
  8
寸法
 10
38.732515
 20
45.577218
  0
POINT
  8
寸法
 10
38.732515
 20
42.814033
  0
TEXT
  7
TextStyle03
  8
寸法
  6
CONTINUOUS
 10
40.15
 20
46.64375
  1
82.9
 40
3.0
 50
90.0
 72
     5
 11
40.15
 21
53.20625
  0
ENDBLK
  0
BLOCK
  2
*DIM_0014
 70
    65
 10
0.0
 20
0.0
  0
LINE
  8
寸法
  6
CONTINUOUS
 10
38.732515
 20
22.814033
 11
38.732515
 21
20.050845
  0
POINT
  8
寸法
 10
38.732515
 20
22.814033
  0
POINT
  8
寸法
 10
38.732515
 20
20.050845
  0
TEXT
  7
TextStyle03
  8
寸法
  6
CONTINUOUS
 10
40.15
 20
12.41875
  1
82.9
 40
3.0
 50
90.0
 72
     5
 11
40.15
 21
18.98125
  0
ENDBLK
  0
BLOCK
  2
*DIM_0015
 70
    65
 10
0.0
 20
0.0
  0
LINE
  8
寸法
  6
CONTINUOUS
 10
99.79942
 20
-56.50715
 11
67.066087
 21
-56.50715
  0
POINT
  8
寸法
 10
99.79942
 20
-56.50715
  0
POINT
  8
寸法
 10
67.066087
 20
-56.50715
  0
TEXT
  7
TextStyle03
  8
寸法
  6
CONTINUOUS
 10
80.9875
 20
-56.15
  1
982
 40
3.0
 72
     5
 11
85.8625
 21
-56.15
  0
ENDBLK
  0
BLOCK
  2
*DIM_0016
 70
    65
 10
0.0
 20
0.0
  0
LINE
  8
寸法
  6
BYBLOCK
 62
     0
 10
23.889688
 20
-69.588455
 11
23.889688
 21
-62.255123
  0
POINT
  8
寸法
 62
     0
 10
23.889688
 20
-62.255123
  0
TEXT
  7
TextStyle03
  8
寸法
  6
CONTINUOUS
 62
     0
 10
23.35
 20
-60.56875
  1
上昇168以上
 40
3.0
 50
90.0
 72
     5
 11
23.35
 21
-42.38125
  0
ENDBLK
  0
BLOCK
  2
*DIM_0017
 70
    65
 10
0.0
 20
0.0
  0
LINE
  8
寸法
  6
BYBLOCK
 62
     0
 10
93.62958
 20
51.81515
 11
86.296248
 21
51.81515
  0
POINT
  8
寸法
 62
     0
 10
86.296248
 20
51.81515
  0
TEXT
  7
TextStyle03
  8
寸法
  6
CONTINUOUS
 62
     0
 10
61.60625
 20
50.25
  1
上昇168以上
 40
3.0
 72
     5
 11
79.79375
 21
50.25
  0
ENDBLK
  0
BLOCK
  2
*DIM_0018
 70
    65
 10
0.0
 20
0.0
  0
LINE
  8
寸法
  6
CONTINUOUS
 10
104.79942
 20
-63.785395
 11
108.979767
 21
-63.785395
  0
LINE
  8
寸法
  6
CONTINUOUS
 10
104.79942
 20
-83.785395
 11
108.979767
 21
-83.785395
  0
LINE
  8
寸法
  6
CONTINUOUS
 10
108.979767
 20
-63.785395
 11
108.979767
 21
-83.785395
  0
POINT
  8
寸法
 10
108.979767
 20
-63.785395
  0
POINT
  8
寸法
 10
108.979767
 20
-83.785395
  0
TEXT
  7
TextStyle03
  8
寸法
  6
CONTINUOUS
 10
108.6
 20
-76.2375
  1
600
 40
3.0
 50
90.0
 72
     5
 11
108.6
 21
-71.3625
  0
ENDBLK
  0
BLOCK
  2
*DIM_0019
 70
    65
 10
0.0
 20
0.0
  0
LINE
  8
寸法
  6
CONTINUOUS
 10
11.388378
 20
-69.588455
 11
23.889688
 21
-69.588455
  0
LINE
  8
寸法
  6
CONTINUOUS
 10
12.476202
 20
-77.705008
 11
23.889688
 21
-77.705008
  0
LINE
  8
寸法
  6
CONTINUOUS
 10
23.889688
 20
-69.588455
 11
23.889688
 21
-77.705008
  0
POINT
  8
寸法
 10
23.889688
 20
-69.588455
  0
POINT
  8
寸法
 10
23.889688
 20
-77.705008
  0
TEXT
  7
TextStyle03
  8
寸法
  6
CONTINUOUS
 10
26.925
 20
-77.775
  1
243.5
 40
3.0
 50
90.0
 72
     5
 11
26.925
 21
-69.525
  0
ENDBLK
  0
BLOCK
  2
*DIM_0020
 70
    65
 10
0.0
 20
0.0
  0
LINE
  8
寸法
  6
CONTINUOUS
 10
93.62958
 20
49.457955
 11
93.62958
 21
51.81515
  0
LINE
  8
寸法
  6
CONTINUOUS
 10
101.746133
 20
48.403355
 11
101.746133
 21
51.81515
  0
LINE
  8
寸法
  6
CONTINUOUS
 10
93.62958
 20
51.81515
 11
101.746133
 21
51.81515
  0
POINT
  8
寸法
 10
93.62958
 20
51.81515
  0
POINT
  8
寸法
 10
101.746133
 20
51.81515
  0
TEXT
  7
TextStyle03
  8
寸法
  6
CONTINUOUS
 10
93.6
 20
52.175
  1
243.5
 40
3.0
 72
     5
 11
101.85
 21
52.175
  0
ENDBLK
  0
ENDSEC
  0
SECTION
  2
ENTITIES
  0
POLYLINE
  8
通り芯
  6
CONTINUOUS
 66
     1
 70
     1
  0
VERTEX
  8
通り芯
 10
-210.0
 20
-148.5
  0
VERTEX
  8
通り芯
 10
210.0
 20
-148.5
  0
VERTEX
  8
通り芯
 10
210.0
 20
148.5
  0
VERTEX
  8
通り芯
 10
-210.0
 20
148.5
  0
SEQEND
  0
INSERT
  2
*GRP_0001
  8
型材断面
  6
CONTINUOUS
 10
0.0
 20
0.0
  0
LINE
  8
型材断面
  6
DASHDOT
 10
4.712865
 20
-77.836442
 11
4.712865
 21
42.814033
  0
LINE
  8
型材断面
  6
DASHDOT
 10
-28.620467
 20
-77.836442
 11
-28.620467
 21
42.814033
  0
LINE
  8
型材断面
  6
DASHDOT
 10
-61.953802
 20
-77.836442
 11
-61.953802
 21
42.814033
  0
LINE
  8
型材断面
  6
DASHDOT
 10
102.389627
 20
42.814033
 11
-61.953802
 21
42.814033
  0
LINE
  8
型材断面
  6
DASHDOT
 10
102.389627
 20
32.814033
 11
-61.953802
 21
32.814033
  0
LINE
  8
型材断面
  6
DASHDOT
 10
102.389627
 20
22.814033
 11
-61.953802
 21
22.814033
  0
LINE
  8
型材断面
  6
DASHDOT
 10
-28.620467
 20
22.814033
 11
-28.620467
 21
42.814033
  0
POLYLINE
  8
型材断面
  6
CONTINUOUS
 66
     1
 70
     1
  0
VERTEX
  8
型材断面
 10
-19.76742
 20
13.03811
  0
VERTEX
  8
型材断面
 10
-38.53935
 20
13.03811
  0
VERTEX
  8
型材断面
 10
-38.53935
 20
8.301267
  0
VERTEX
  8
型材断面
 10
-19.76742
 20
8.301267
  0
SEQEND
  0
POLYLINE
  8
型材断面
  6
CONTINUOUS
 66
     1
 70
     1
  0
VERTEX
  8
型材断面
 10
-19.76742
 20
52.589955
  0
VERTEX
  8
型材断面
 10
-38.53935
 20
52.589955
  0
VERTEX
  8
型材断面
 10
-38.53935
 20
57.326798
  0
VERTEX
  8
型材断面
 10
-19.76742
 20
57.326798
  0
SEQEND
  0
LINE
  8
型材断面
  6
CONTINUOUS
 10
-102.80601
 20
80.791505
 11
-102.209955
 21
78.200998
  0
LINE
  8
型材断面
  6
CONTINUOUS
 10
-102.80601
 20
80.791505
 11
-103.402067
 21
78.200998
  0
LINE
  8
型材断面
  6
CONTINUOUS
 10
-103.402067
 20
78.200998
 11
-102.209955
 21
78.200998
  0
LINE
  8
型材断面
  6
CONTINUOUS
 10
-108.828597
 20
74.922105
 11
-62.58682
 21
74.922105
  0
LINE
  8
型材断面
  6
CONTINUOUS
 10
-102.80601
 20
87.32138
 11
-104.30164
 21
84.730873
  0
LINE
  8
型材断面
  6
CONTINUOUS
 10
-102.80601
 20
87.32138
 11
-101.31038
 21
84.730873
  0
LINE
  8
型材断面
  6
CONTINUOUS
 10
-101.31038
 20
84.730873
 11
-104.30164
 21
84.730873
  0
LINE
  8
型材断面
  6
CONTINUOUS
 10
-108.828597
 20
83.792277
 11
-62.58682
 21
83.792277
  0
LINE
  8
型材断面
  6
CONTINUOUS
 10
-108.828597
 20
69.134073
 11
-62.58682
 21
69.134073
  0
LINE
  8
型材断面
  6
CONTINUOUS
 10
-108.828597
 20
63.34604
 11
-62.58682
 21
63.34604
  0
INSERT
  2
*GRP_0010
  8
型材断面
  6
DASHDOT
 10
0.0
 20
0.0
  0
LINE
  8
型材断面
  6
CONTINUOUS
 10
-64.717135
 20
20.050845
 11
7.4762
 21
20.050845
  0
LINE
  8
型材断面
  6
CONTINUOUS
 10
-64.717135
 20
45.577218
 11
7.4762
 21
45.577218
  0
LINE
  8
型材断面
  6
CONTINUOUS
 10
-64.717135
 20
32.81403
 11
-67.307643
 21
34.30966
  0
LINE
  8
型材断面
  6
CONTINUOUS
 10
-64.717135
 20
32.81403
 11
-67.307643
 21
31.3184
  0
LINE
  8
型材断面
  6
CONTINUOUS
 10
-67.307643
 20
31.3184
 11
-67.307643
 21
34.30966
  0
LINE
  8
型材断面
  6
CONTINUOUS
 10
-64.717133
 20
39.114033
 11
-67.307643
 21
38.51798
  0
LINE
  8
型材断面
  6
CONTINUOUS
 10
-64.717133
 20
39.114033
 11
-67.30764
 21
39.710093
  0
LINE
  8
型材断面
  6
CONTINUOUS
 10
-67.30764
 20
39.710093
 11
-67.307643
 21
38.51798
  0
LINE
  8
型材断面
  6
CONTINUOUS
 10
-64.717133
 20
26.514027
 11
-67.307643
 21
27.11008
  0
LINE
  8
型材断面
  6
CONTINUOUS
 10
-64.717133
 20
26.514027
 11
-67.30764
 21
25.917967
  0
LINE
  8
型材断面
  6
CONTINUOUS
 10
-67.30764
 20
25.917967
 11
-67.307643
 21
27.11008
  0
LINE
  8
型材断面
  6
CONTINUOUS
 10
-45.287135
 20
45.577218
 11
-46.782765
 21
48.167725
  0
LINE
  8
型材断面
  6
CONTINUOUS
 10
-45.287135
 20
45.577218
 11
-43.791505
 21
48.167725
  0
LINE
  8
型材断面
  6
CONTINUOUS
 10
-43.791505
 20
48.167725
 11
-46.782765
 21
48.167725
  0
LINE
  8
型材断面
  6
CONTINUOUS
 10
-11.9538
 20
45.577218
 11
-10.45817
 21
48.167725
  0
LINE
  8
型材断面
  6
CONTINUOUS
 10
-11.9538
 20
45.577218
 11
-13.44943
 21
48.167725
  0
LINE
  8
型材断面
  6
CONTINUOUS
 10
-13.44943
 20
48.167725
 11
-10.45817
 21
48.167725
  0
LINE
  8
型材断面
  6
CONTINUOUS
 10
7.4762
 20
32.814033
 11
10.066707
 21
34.309663
  0
LINE
  8
型材断面
  6
CONTINUOUS
 10
7.4762
 20
32.814033
 11
10.066707
 21
31.318403
  0
LINE
  8
型材断面
  6
CONTINUOUS
 10
10.066707
 20
31.318403
 11
10.066707
 21
34.309663
  0
LINE
  8
型材断面
  6
CONTINUOUS
 10
7.476197
 20
39.114035
 11
10.066707
 21
38.517982
  0
LINE
  8
型材断面
  6
CONTINUOUS
 10
7.476197
 20
39.114035
 11
10.066705
 21
39.710095
  0
LINE
  8
型材断面
  6
CONTINUOUS
 10
10.066705
 20
39.710095
 11
10.066707
 21
38.517982
  0
LINE
  8
型材断面
  6
CONTINUOUS
 10
7.476197
 20
26.51403
 11
10.066707
 21
27.110082
  0
LINE
  8
型材断面
  6
CONTINUOUS
 10
7.476197
 20
26.51403
 11
10.066705
 21
25.91797
  0
LINE
  8
型材断面
  6
CONTINUOUS
 10
10.066705
 20
25.91797
 11
10.066707
 21
27.110082
  0
LINE
  8
型材断面
  6
CONTINUOUS
 10
-45.287135
 20
20.050845
 11
-46.782765
 21
17.460338
  0
LINE
  8
型材断面
  6
CONTINUOUS
 10
-45.287135
 20
20.050845
 11
-43.791505
 21
17.460338
  0
LINE
  8
型材断面
  6
CONTINUOUS
 10
-43.791505
 20
17.460338
 11
-46.782765
 21
17.460338
  0
LINE
  8
型材断面
  6
CONTINUOUS
 10
-11.9538
 20
20.050845
 11
-10.45817
 21
17.460338
  0
LINE
  8
型材断面
  6
CONTINUOUS
 10
-11.9538
 20
20.050845
 11
-13.44943
 21
17.460338
  0
LINE
  8
型材断面
  6
CONTINUOUS
 10
-13.44943
 20
17.460338
 11
-10.45817
 21
17.460338
  0
LINE
  8
型材断面
  6
CONTINUOUS
 10
-27.370467
 20
24.314035
 11
-29.870467
 21
24.314035
  0
LINE
  8
型材断面
  6
CONTINUOUS
 10
-27.370467
 20
41.31403
 11
-29.870467
 21
41.31403
  0
LINE
  8
型材断面
  6
CONTINUOUS
 10
-27.370467
 20
24.314035
 11
-27.370467
 21
41.31403
  0
LINE
  8
型材断面
  6
CONTINUOUS
 10
-29.870467
 20
24.314035
 11
-29.870467
 21
41.31403
  0
LINE
  8
型材断面
  6
CONTINUOUS
 10
7.476202
 20
20.050848
 11
7.476202
 21
45.57722
  0
LINE
  8
型材断面
  6
CONTINUOUS
 10
6.310522
 20
20.98068
 11
6.546222
 21
21.21638
  0
LINE
  8
型材断面
  6
CONTINUOUS
 10
3.81052
 20
23.48068
 11
4.04622
 21
23.71638
  0
LINE
  8
型材断面
  6
CONTINUOUS
 10
4.04622
 20
23.71638
 11
6.546222
 21
21.21638
  0
LINE
  8
型材断面
  6
CONTINUOUS
 10
3.81052
 20
23.48068
 11
6.310522
 21
20.98068
  0
LINE
  8
型材断面
  6
CONTINUOUS
 10
7.476055
 20
20.050848
 11
6.42837
 21
21.098527
  0
LINE
  8
型材断面
  6
CONTINUOUS
 10
6.546207
 20
32.814033
 11
6.546222
 21
21.21638
  0
LINE
  8
型材断面
  6
CONTINUOUS
 10
4.046207
 20
33.2307
 11
6.546207
 21
33.2307
  0
LINE
  8
型材断面
  6
CONTINUOUS
 10
4.046207
 20
32.397365
 11
6.546207
 21
32.397365
  0
LINE
  8
型材断面
  6
CONTINUOUS
 10
4.046207
 20
32.397365
 11
4.04622
 21
23.71638
  0
LINE
  8
型材断面
  6
CONTINUOUS
 10
6.310522
 20
44.647385
 11
6.546222
 21
44.411685
  0
LINE
  8
型材断面
  6
CONTINUOUS
 10
3.81052
 20
42.147385
 11
4.04622
 21
41.911685
  0
LINE
  8
型材断面
  6
CONTINUOUS
 10
4.04622
 20
41.911685
 11
6.546222
 21
44.411685
  0
LINE
  8
型材断面
  6
CONTINUOUS
 10
3.81052
 20
42.147385
 11
6.310522
 21
44.647385
  0
LINE
  8
型材断面
  6
CONTINUOUS
 10
7.476055
 20
45.577218
 11
6.42837
 21
44.529537
  0
LINE
  8
型材断面
  6
CONTINUOUS
 10
4.046207
 20
33.2307
 11
4.04622
 21
41.911685
  0
LINE
  8
型材断面
  6
CONTINUOUS
 10
6.546207
 20
32.814033
 11
6.546222
 21
44.411685
  0
LINE
  8
型材断面
  6
CONTINUOUS
 10
-28.620467
 20
44.647363
 11
6.310525
 21
44.647387
  0
LINE
  8
型材断面
  6
CONTINUOUS
 10
-28.620467
 20
20.980703
 11
6.310525
 21
20.980677
  0
LINE
  8
型材断面
  6
CONTINUOUS
 10
-11.537133
 20
23.48069
 11
-11.537133
 21
20.98069
  0
LINE
  8
型材断面
  6
CONTINUOUS
 10
-12.370467
 20
23.48069
 11
-12.370467
 21
20.98069
  0
LINE
  8
型材断面
  6
CONTINUOUS
 10
-11.537133
 20
42.147375
 11
-11.537133
 21
44.647375
  0
LINE
  8
型材断面
  6
CONTINUOUS
 10
-12.370467
 20
42.147375
 11
-12.370467
 21
44.647375
  0
LINE
  8
型材断面
  6
CONTINUOUS
 10
-28.620467
 20
42.147363
 11
-12.370467
 21
42.147375
  0
LINE
  8
型材断面
  6
CONTINUOUS
 10
-11.537133
 20
42.147375
 11
3.810522
 21
42.147387
  0
LINE
  8
型材断面
  6
CONTINUOUS
 10
-28.620467
 20
23.480703
 11
-12.370467
 21
23.48069
  0
LINE
  8
型材断面
  6
CONTINUOUS
 10
-11.537133
 20
23.48069
 11
3.810522
 21
23.480677
  0
LINE
  8
型材断面
  6
CONTINUOUS
 10
-64.717137
 20
20.050848
 11
-64.717137
 21
45.57722
  0
LINE
  8
型材断面
  6
CONTINUOUS
 10
-63.551458
 20
20.98068
 11
-63.787158
 21
21.21638
  0
LINE
  8
型材断面
  6
CONTINUOUS
 10
-61.051455
 20
23.48068
 11
-61.287155
 21
23.71638
  0
LINE
  8
型材断面
  6
CONTINUOUS
 10
-61.287155
 20
23.71638
 11
-63.787158
 21
21.21638
  0
LINE
  8
型材断面
  6
CONTINUOUS
 10
-61.051455
 20
23.48068
 11
-63.551458
 21
20.98068
  0
LINE
  8
型材断面
  6
CONTINUOUS
 10
-64.71699
 20
20.050848
 11
-63.669305
 21
21.098527
  0
LINE
  8
型材断面
  6
CONTINUOUS
 10
-63.787143
 20
32.814033
 11
-63.787158
 21
21.21638
  0
LINE
  8
型材断面
  6
CONTINUOUS
 10
-61.287143
 20
33.2307
 11
-63.787143
 21
33.2307
  0
LINE
  8
型材断面
  6
CONTINUOUS
 10
-61.287143
 20
32.397365
 11
-63.787143
 21
32.397365
  0
LINE
  8
型材断面
  6
CONTINUOUS
 10
-61.287143
 20
32.397365
 11
-61.287155
 21
23.71638
  0
LINE
  8
型材断面
  6
CONTINUOUS
 10
-63.551458
 20
44.647385
 11
-63.787158
 21
44.411685
  0
LINE
  8
型材断面
  6
CONTINUOUS
 10
-61.051455
 20
42.147385
 11
-61.287155
 21
41.911685
  0
LINE
  8
型材断面
  6
CONTINUOUS
 10
-61.287155
 20
41.911685
 11
-63.787158
 21
44.411685
  0
LINE
  8
型材断面
  6
CONTINUOUS
 10
-61.051455
 20
42.147385
 11
-63.551458
 21
44.647385
  0
LINE
  8
型材断面
  6
CONTINUOUS
 10
-64.71699
 20
45.577218
 11
-63.669305
 21
44.529537
  0
LINE
  8
型材断面
  6
CONTINUOUS
 10
-61.287143
 20
33.2307
 11
-61.287155
 21
41.911685
  0
LINE
  8
型材断面
  6
CONTINUOUS
 10
-63.787143
 20
32.814033
 11
-63.787158
 21
44.411685
  0
LINE
  8
型材断面
  6
CONTINUOUS
 10
-45.703802
 20
23.48069
 11
-45.703802
 21
20.98069
  0
LINE
  8
型材断面
  6
CONTINUOUS
 10
-44.870467
 20
23.48069
 11
-44.870467
 21
20.98069
  0
LINE
  8
型材断面
  6
CONTINUOUS
 10
-45.703802
 20
42.147375
 11
-45.703802
 21
44.647375
  0
LINE
  8
型材断面
  6
CONTINUOUS
 10
-44.870467
 20
42.147375
 11
-44.870467
 21
44.647375
  0
LINE
  8
型材断面
  6
CONTINUOUS
 10
-45.703802
 20
42.147375
 11
-61.051458
 21
42.147387
  0
LINE
  8
型材断面
  6
CONTINUOUS
 10
-45.703802
 20
23.48069
 11
-61.051458
 21
23.480677
  0
LINE
  8
型材断面
  6
CONTINUOUS
 10
-28.620467
 20
23.480703
 11
-44.870467
 21
23.48069
  0
LINE
  8
型材断面
  6
CONTINUOUS
 10
-28.620467
 20
42.147363
 11
-44.870467
 21
42.147375
  0
LINE
  8
型材断面
  6
CONTINUOUS
 10
-28.620467
 20
44.647363
 11
-63.55146
 21
44.647387
  0
LINE
  8
型材断面
  6
CONTINUOUS
 10
-28.620467
 20
20.980703
 11
-63.55146
 21
20.980677
  0
LINE
  8
型材断面
  6
CONTINUOUS
 10
6.976202
 20
-77.705008
 11
6.976202
 21
-78.041673
  0
LINE
  8
型材断面
  6
CONTINUOUS
 10
7.279535
 20
-73.608457
 11
7.476202
 21
-73.805125
  0
LINE
  8
型材断面
  6
CONTINUOUS
 10
7.476202
 20
-73.805125
 11
7.476202
 21
-77.705008
  0
LINE
  8
型材断面
  6
CONTINUOUS
 10
101.746133
 20
45.07722
 11
102.082798
 21
45.07722
  0
LINE
  8
型材断面
  6
CONTINUOUS
 10
97.649582
 20
45.380552
 11
97.84625
 21
45.57722
  0
LINE
  8
型材断面
  6
CONTINUOUS
 10
97.84625
 20
45.57722
 11
101.746133
 21
45.57722
  0
LINE
  8
型材断面
  6
CONTINUOUS
 62
    47
 10
97.649627
 20
45.380595
 11
97.649627
 21
32.81403
  0
LINE
  8
型材断面
  6
CONTINUOUS
 10
97.84625
 20
45.57722
 11
97.84625
 21
32.81403
  0
LINE
  8
型材断面
  6
CONTINUOUS
 10
102.082798
 20
45.07722
 11
102.082798
 21
32.81403
  0
LINE
  8
型材断面
  6
CONTINUOUS
 10
101.746133
 20
45.57722
 11
101.746133
 21
32.81403
  0
LINE
  8
型材断面
  6
CONTINUOUS
 10
101.746133
 20
20.55084
 11
102.082798
 21
20.55084
  0
LINE
  8
型材断面
  6
CONTINUOUS
 10
97.649582
 20
20.247508
 11
97.84625
 21
20.05084
  0
LINE
  8
型材断面
  6
CONTINUOUS
 10
97.84625
 20
20.05084
 11
101.746133
 21
20.05084
  0
LINE
  8
型材断面
  6
CONTINUOUS
 62
    47
 10
97.649627
 20
20.247465
 11
97.649627
 21
32.81403
  0
LINE
  8
型材断面
  6
CONTINUOUS
 10
97.84625
 20
20.05084
 11
97.84625
 21
32.81403
  0
LINE
  8
型材断面
  6
CONTINUOUS
 10
102.082798
 20
20.55084
 11
102.082798
 21
32.81403
  0
LINE
  8
型材断面
  6
CONTINUOUS
 10
101.746133
 20
20.05084
 11
101.746133
 21
32.81403
  0
LINE
  8
型材断面
  6
CONTINUOUS
 10
7.476202
 20
-77.705008
 11
-28.620467
 21
-77.705008
  0
LINE
  8
型材断面
  6
CONTINUOUS
 10
6.976202
 20
-78.041673
 11
-28.620467
 21
-78.041673
  0
LINE
  8
型材断面
  6
CONTINUOUS
 62
    47
 10
7.279578
 20
-73.608503
 11
-28.620467
 21
-73.608503
  0
LINE
  8
型材断面
  6
CONTINUOUS
 10
7.476202
 20
-73.805125
 11
-28.620467
 21
-73.805125
  0
LINE
  8
型材断面
  6
CONTINUOUS
 10
-64.217137
 20
-77.705008
 11
-64.217137
 21
-78.041673
  0
LINE
  8
型材断面
  6
CONTINUOUS
 10
-64.52047
 20
-73.608457
 11
-64.717137
 21
-73.805125
  0
LINE
  8
型材断面
  6
CONTINUOUS
 10
-64.717137
 20
-73.805125
 11
-64.717137
 21
-77.705008
  0
LINE
  8
型材断面
  6
CONTINUOUS
 10
-64.717137
 20
-77.705008
 11
-28.620467
 21
-77.705008
  0
LINE
  8
型材断面
  6
CONTINUOUS
 10
-64.217137
 20
-78.041673
 11
-28.620467
 21
-78.041673
  0
LINE
  8
型材断面
  6
CONTINUOUS
 62
    47
 10
-64.520513
 20
-73.608503
 11
-28.620467
 21
-73.608503
  0
LINE
  8
型材断面
  6
CONTINUOUS
 10
-64.717137
 20
-73.805125
 11
-28.620467
 21
-73.805125
  0
TEXT
  7
TextStyle03
  8
文字
  6
CONTINUOUS
 10
-37.575
 20
9.325
  1
可動装置側
 40
3.0
 72
     5
 11
-21.075
 21
9.325
  0
TEXT
  7
TextStyle03
  8
文字
  6
CONTINUOUS
 10
-37.575
 20
53.3
  1
可動装置側
 40
3.0
 72
     5
 11
-21.075
 21
53.3
  0
TEXT
  7
TextStyle03
  8
文字
  6
CONTINUOUS
 10
-100.025
 20
79.425
  1
はケーシング位置を示す
 40
3.0
 72
     5
 11
-63.275
 21
79.425
  0
TEXT
  7
TextStyle03
  8
文字
  6
CONTINUOUS
 10
-100.025
 20
76.05
  1
４ヶ所中1ヶ所に設定
 40
3.0
 72
     5
 11
-68.3375
 21
76.05
  0
TEXT
  7
TextStyle03
  8
文字
  6
CONTINUOUS
 10
-100.025
 20
84.95
  1
は排水穴位置を示す
 40
3.0
 72
     5
 11
-70.025
 21
84.95
  0
TEXT
  7
TextStyle03
  8
文字
  6
CONTINUOUS
 10
-83.05
 20
11.275
  1
アンカーピッチ
 40
3.0
 50
90.0
 72
     5
 11
-83.05
 21
34.525
  0
TEXT
  7
TextStyle03
  8
文字
  6
CONTINUOUS
 10
-54.525
 20
79.675
  1
アンカーピッチ
 40
3.0
 72
     5
 11
-31.275
 21
79.675
  0
TEXT
  7
TextStyle03
  8
文字
  6
CONTINUOUS
 10
-103.75
 20
70.075
  1
アンカー数量　１０ヶ所
 40
3.0
 72
     5
 11
-67.0
 21
70.075
  0
TEXT
  7
TextStyle03
  8
文字
  6
CONTINUOUS
 10
-103.775
 20
64.3
  1
アームユニット数　２ヶ所
 40
3.0
 72
     5
 11
-63.65
 21
64.3
  0
LINE
  8
文字
  6
CONTINUOUS
 10
95.841893
 20
45.577218
 11
38.732515
 21
45.577218
  0
LINE
  8
文字
  6
CONTINUOUS
 10
95.841893
 20
20.050845
 11
38.732515
 21
20.050845
  0
LINE
  8
文字
  6
CONTINUOUS
 10
7.4762
 20
-71.255123
 11
7.4762
 21
-13.121378
  0
LINE
  8
文字
  6
CONTINUOUS
 10
-64.717135
 20
-71.255123
 11
-64.717135
 21
-13.121378
  0
LINE
  8
文字
  6
CONTINUOUS
 10
23.889688
 20
-62.255123
 11
10.286008
 21
-62.255123
  0
LINE
  8
文字
  6
CONTINUOUS
 10
86.296248
 20
51.81515
 11
86.296248
 21
46.902377
  0
LINE
  8
文字
  6
CONTINUOUS
 10
67.066087
 20
-56.50715
 11
67.066087
 21
-62.94033
  0
LINE
  8
文字
  6
CONTINUOUS
 10
99.79942
 20
-56.50715
 11
99.79942
 21
-62.94033
  0
TEXT
  7
TextStyle03
  8
文字
  6
CONTINUOUS
 10
81.275
 20
-77.35
  1
網入り6.8t
 40
3.0
 72
     5
 11
97.9625
 21
-77.35
  0
TEXT
  7
TextStyle03
  8
文字
  6
CONTINUOUS
 10
87.95
 20
-82.025
  1
×２枚
 40
3.0
 72
     5
 11
97.7
 21
-82.025
  0
TEXT
  7
TextStyle03
  8
文字
  6
CONTINUOUS
 10
63.55
 20
125.25
  1
シリーズ：ＴＦＦＬ
 40
5.0
 72
     5
 11
113.55
 21
125.25
  0
TEXT
  7
TextStyle03
  8
文字
  6
CONTINUOUS
 10
63.55
 20
119.625
  1
　　　　　（上下可動）600×2000タイプ
 40
5.0
 72
     5
 11
166.9875
 21
119.625
  0
TEXT
  7
TextStyle03
  8
文字
  6
CONTINUOUS
 10
63.55
 20
114.0
  1
図面名　：外観姿図
 40
5.0
 72
     5
 11
113.55
 21
114.0
  0
TEXT
  7
TextStyle03
  8
文字
  6
CONTINUOUS
 10
63.55
 20
108.375
  1
　　　　　　
 40
5.0
 72
     5
 11
96.675
 21
108.375
  0
TEXT
  7
TextStyle03
  8
文字
  6
CONTINUOUS
 10
63.7
 20
104.525
  1
ＮＳコード：ＮＳＦＬ
 40
5.0
 72
     5
 11
119.325
 21
104.525
  0
INSERT
  2
*DIM_0002
  8
寸法
  6
CONTINUOUS
 10
0.0
 20
0.0
  0
INSERT
  2
*DIM_0003
  8
寸法
  6
CONTINUOUS
 10
0.0
 20
0.0
  0
INSERT
  2
*DIM_0004
  8
寸法
  6
CONTINUOUS
 10
0.0
 20
0.0
  0
INSERT
  2
*DIM_0005
  8
寸法
  6
CONTINUOUS
 10
0.0
 20
0.0
  0
INSERT
  2
*DIM_0006
  8
寸法
  6
CONTINUOUS
 10
0.0
 20
0.0
  0
INSERT
  2
*DIM_0007
  8
寸法
  6
CONTINUOUS
 10
0.0
 20
0.0
  0
INSERT
  2
*DIM_0008
  8
寸法
  6
CONTINUOUS
 10
0.0
 20
0.0
  0
INSERT
  2
*DIM_0009
  8
寸法
  6
CONTINUOUS
 10
0.0
 20
0.0
  0
INSERT
  2
*DIM_0011
  8
寸法
  6
CONTINUOUS
 10
0.0
 20
0.0
  0
INSERT
  2
*DIM_0012
  8
寸法
  6
CONTINUOUS
 10
0.0
 20
0.0
  0
INSERT
  2
*DIM_0013
  8
寸法
  6
CONTINUOUS
 10
0.0
 20
0.0
  0
INSERT
  2
*DIM_0014
  8
寸法
  6
CONTINUOUS
 10
0.0
 20
0.0
  0
INSERT
  2
*DIM_0015
  8
寸法
  6
CONTINUOUS
 10
0.0
 20
0.0
  0
INSERT
  2
*DIM_0016
  8
寸法
  6
CONTINUOUS
 10
0.0
 20
0.0
  0
INSERT
  2
*DIM_0017
  8
寸法
  6
CONTINUOUS
 10
0.0
 20
0.0
  0
INSERT
  2
*DIM_0018
  8
寸法
  6
CONTINUOUS
 10
0.0
 20
0.0
  0
INSERT
  2
*DIM_0019
  8
寸法
  6
CONTINUOUS
 10
0.0
 20
0.0
  0
INSERT
  2
*DIM_0020
  8
寸法
  6
CONTINUOUS
 10
0.0
 20
0.0
  0
LINE
  8
別途部材
  6
CONTINUOUS
 62
    47
 10
93.72958
 20
20.980842
 11
93.796248
 21
20.980842
  0
ARC
  8
別途部材
  6
CONTINUOUS
 62
    47
 10
93.729581
 20
21.080843
 40
0.1
 50
180.0
 51
270.0
  0
LINE
  8
別途部材
  6
CONTINUOUS
 62
    47
 10
93.796248
 20
21.137365
 11
95.296248
 21
21.137365
  0
LINE
  8
別途部材
  6
CONTINUOUS
 62
    47
 10
97.612915
 20
20.050845
 11
97.612915
 21
32.81403
  0
LINE
  8
別途部材
  6
CONTINUOUS
 62
    47
 10
96.44625
 20
20.050845
 11
96.44625
 21
32.81403
  0
LINE
  8
別途部材
  6
CONTINUOUS
 62
    47
 10
95.296248
 20
21.137365
 11
95.296248
 21
32.81403
  0
LINE
  8
別途部材
  6
CONTINUOUS
 62
    47
 10
93.796248
 20
20.980842
 11
93.796248
 21
32.81403
  0
LINE
  8
別途部材
  6
CONTINUOUS
 62
    47
 10
93.62958
 20
21.080842
 11
93.62958
 21
32.81403
  0
LINE
  8
別途部材
  6
CONTINUOUS
 62
    47
 10
93.72958
 20
44.64722
 11
93.796248
 21
44.64722
  0
ARC
  8
別途部材
  6
CONTINUOUS
 62
    47
 10
93.729581
 20
44.547219
 40
0.1
 50
90.0
 51
180.0
  0
LINE
  8
別途部材
  6
CONTINUOUS
 62
    47
 10
93.796248
 20
44.490697
 11
95.296248
 21
44.490697
  0
LINE
  8
別途部材
  6
CONTINUOUS
 62
    47
 10
97.612915
 20
45.577218
 11
97.612915
 21
32.81403
  0
LINE
  8
別途部材
  6
CONTINUOUS
 62
    47
 10
96.44625
 20
45.577218
 11
96.44625
 21
32.81403
  0
LINE
  8
別途部材
  6
CONTINUOUS
 62
    47
 10
95.296248
 20
44.490697
 11
95.296248
 21
32.81403
  0
LINE
  8
別途部材
  6
CONTINUOUS
 62
    47
 10
93.796248
 20
44.64722
 11
93.796248
 21
32.81403
  0
LINE
  8
別途部材
  6
CONTINUOUS
 62
    47
 10
93.62958
 20
44.54722
 11
93.62958
 21
32.81403
  0
LINE
  8
別途部材
  6
CONTINUOUS
 62
    47
 10
-63.787137
 20
-69.688455
 11
-63.787137
 21
-69.755123
  0
ARC
  8
別途部材
  6
CONTINUOUS
 62
    47
 10
-63.687135
 20
-69.688459
 40
0.1
 50
90.0
 51
180.0
  0
LINE
  8
別途部材
  6
CONTINUOUS
 62
    47
 10
-63.630615
 20
-69.755123
 11
-63.630615
 21
-71.255123
  0
LINE
  8
別途部材
  6
CONTINUOUS
 62
    47
 10
-63.687137
 20
-69.588455
 11
-28.620467
 21
-69.588455
  0
LINE
  8
別途部材
  6
CONTINUOUS
 62
    47
 10
-63.787137
 20
-69.755123
 11
-28.620467
 21
-69.755123
  0
LINE
  8
別途部材
  6
CONTINUOUS
 62
    47
 10
-63.630615
 20
-71.255123
 11
-28.620467
 21
-71.255123
  0
LINE
  8
別途部材
  6
CONTINUOUS
 62
    47
 10
-64.717135
 20
-72.405125
 11
-28.620467
 21
-72.405125
  0
LINE
  8
別途部材
  6
CONTINUOUS
 62
    47
 10
-64.717135
 20
-73.57179
 11
-28.620467
 21
-73.57179
  0
LINE
  8
別途部材
  6
CONTINUOUS
 62
    47
 10
6.546203
 20
-69.688455
 11
6.546203
 21
-69.755123
  0
ARC
  8
別途部材
  6
CONTINUOUS
 62
    47
 10
6.4462
 20
-69.688459
 40
0.1
 50
0.0
 51
90.0
  0
LINE
  8
別途部材
  6
CONTINUOUS
 62
    47
 10
6.38968
 20
-69.755123
 11
6.38968
 21
-71.255123
  0
LINE
  8
別途部材
  6
CONTINUOUS
 62
    47
 10
6.446203
 20
-69.588455
 11
-28.620467
 21
-69.588455
  0
LINE
  8
別途部材
  6
CONTINUOUS
 62
    47
 10
6.546203
 20
-69.755123
 11
-28.620467
 21
-69.755123
  0
LINE
  8
別途部材
  6
CONTINUOUS
 62
    47
 10
6.38968
 20
-71.255123
 11
-28.620467
 21
-71.255123
  0
LINE
  8
別途部材
  6
CONTINUOUS
 62
    47
 10
7.4762
 20
-72.405125
 11
-28.620467
 21
-72.405125
  0
LINE
  8
別途部材
  6
CONTINUOUS
 62
    47
 10
7.4762
 20
-73.57179
 11
-28.620467
 21
-73.57179
  0
LINE
  8
別途部材
  6
DOT
 62
    47
 10
-63.787137
 20
-62.355123
 11
-63.787137
 21
-62.42179
  0
ARC
  8
別途部材
  6
DOT
 62
    47
 10
-63.687135
 20
-62.355125
 40
0.1
 50
90.0
 51
180.0
  0
LINE
  8
別途部材
  6
DOT
 62
    47
 10
-63.630615
 20
-62.42179
 11
-63.630615
 21
-63.92179
  0
LINE
  8
別途部材
  6
DOT
 62
    47
 10
-63.687137
 20
-62.255123
 11
-28.620467
 21
-62.255123
  0
LINE
  8
別途部材
  6
DOT
 62
    47
 10
-63.787137
 20
-62.42179
 11
-28.620467
 21
-62.42179
  0
LINE
  8
別途部材
  6
DOT
 62
    47
 10
-63.630615
 20
-63.92179
 11
-28.620467
 21
-63.92179
  0
LINE
  8
別途部材
  6
DOT
 62
    47
 10
-64.717135
 20
-65.071792
 11
-28.620467
 21
-65.071792
  0
LINE
  8
別途部材
  6
DOT
 62
    47
 10
-64.717135
 20
-66.238458
 11
-28.620467
 21
-66.238458
  0
LINE
  8
別途部材
  6
DOT
 62
    47
 10
6.546203
 20
-62.355123
 11
6.546203
 21
-62.42179
  0
ARC
  8
別途部材
  6
DOT
 62
    47
 10
6.4462
 20
-62.355125
 40
0.1
 50
0.0
 51
90.0
  0
LINE
  8
別途部材
  6
DOT
 62
    47
 10
6.38968
 20
-62.42179
 11
6.38968
 21
-63.92179
  0
LINE
  8
別途部材
  6
DOT
 62
    47
 10
6.446203
 20
-62.255123
 11
-28.620467
 21
-62.255123
  0
LINE
  8
別途部材
  6
DOT
 62
    47
 10
6.546203
 20
-62.42179
 11
-28.620467
 21
-62.42179
  0
LINE
  8
別途部材
  6
DOT
 62
    47
 10
6.38968
 20
-63.92179
 11
-28.620467
 21
-63.92179
  0
LINE
  8
別途部材
  6
DOT
 62
    47
 10
7.4762
 20
-65.071792
 11
-28.620467
 21
-65.071792
  0
LINE
  8
別途部材
  6
DOT
 62
    47
 10
7.4762
 20
-66.238458
 11
-28.620467
 21
-66.238458
  0
LINE
  8
別途部材
  6
CONTINUOUS
 10
67.066087
 20
-63.785395
 11
67.066087
 21
-83.785395
  0
LINE
  8
曲げ物
  6
CONTINUOUS
 10
-9.52482
 20
34.739582
 11
-13.220133
 21
31.04427
  0
LINE
  8
曲げ物
  6
CONTINUOUS
 10
-10.22829
 20
33.203472
 11
-11.68402
 21
31.747742
  0
LINE
  8
曲げ物
  6
CONTINUOUS
 10
-11.06093
 20
34.036112
 11
-12.51666
 21
32.580383
  0
LINE
  8
曲げ物
  6
CONTINUOUS
 10
-42.87684
 20
34.739582
 11
-46.572152
 21
31.04427
  0
LINE
  8
曲げ物
  6
CONTINUOUS
 10
-43.58031
 20
33.203472
 11
-45.03604
 21
31.747742
  0
LINE
  8
曲げ物
  6
CONTINUOUS
 10
-44.41295
 20
34.036112
 11
-45.86868
 21
32.580383
  0
LINE
  8
曲げ物
  6
CONTINUOUS
 10
99.79942
 20
-63.785395
 11
67.066087
 21
-63.785395
  0
LINE
  8
曲げ物
  6
CONTINUOUS
 10
99.79942
 20
-83.785395
 11
67.066087
 21
-83.785395
  0
LINE
  8
曲げ物
  6
CONTINUOUS
 10
99.79942
 20
-63.785395
 11
99.79942
 21
-83.785395
  0
LINE
  8
鉄骨等
  6
CONTINUOUS
 62
    47
 10
97.612915
 20
20.050845
 11
96.44625
 21
20.050845
  0
LINE
  8
鉄骨等
  6
CONTINUOUS
 62
    47
 10
96.44625
 20
20.050845
 11
95.29625
 21
21.45403
  0
LINE
  8
鉄骨等
  6
CONTINUOUS
 62
    47
 10
97.612915
 20
45.577218
 11
96.44625
 21
45.577218
  0
LINE
  8
鉄骨等
  6
CONTINUOUS
 62
    47
 10
96.44625
 20
45.577218
 11
95.29625
 21
44.17403
  0
LINE
  8
鉄骨等
  6
CONTINUOUS
 62
    47
 10
-64.717135
 20
-73.57179
 11
-64.717135
 21
-72.405125
  0
LINE
  8
鉄骨等
  6
CONTINUOUS
 62
    47
 10
-64.717135
 20
-72.405125
 11
-63.31395
 21
-71.255125
  0
LINE
  8
鉄骨等
  6
CONTINUOUS
 62
    47
 10
7.4762
 20
-73.57179
 11
7.4762
 21
-72.405125
  0
LINE
  8
鉄骨等
  6
CONTINUOUS
 62
    47
 10
7.4762
 20
-72.405125
 11
6.073015
 21
-71.255125
  0
LINE
  8
鉄骨等
  6
DOT
 62
    47
 10
-64.717135
 20
-66.238458
 11
-64.717135
 21
-65.071792
  0
LINE
  8
鉄骨等
  6
DOT
 62
    47
 10
-64.717135
 20
-65.071792
 11
-63.31395
 21
-63.921792
  0
LINE
  8
鉄骨等
  6
DOT
 62
    47
 10
7.4762
 20
-66.238458
 11
7.4762
 21
-65.071792
  0
LINE
  8
鉄骨等
  6
DOT
 62
    47
 10
7.4762
 20
-65.071792
 11
6.073015
 21
-63.921792
  0
ENDSEC
  0
EOF
