  0
SECTION
  2
HEADER
  9
$EXTMIN
 10
-210.0
 20
-148.5
  9
$EXTMAX
 10
210.0
 20
148.5
  9
$PDMODE
 70
    32
  9
$PDSIZE
 40
1.5
  9
$LTSCALE
 40
10.0
  0
ENDSEC
  0
SECTION
  2
TABLES
  0
TABLE
  2
LTYPE
 70
    15
  0
LTYPE
  2
CONTINUOUS
 70
    64
  3
実線
 72
    65
 73
     0
 40
0.0
  0
LTYPE
  2
DASHED
 70
    64
  3
破線A
 72
    65
 73
     2
 40
0.6
 49
0.4
 49
-0.2
  0
LTYPE
  2
DASHEDX2
 70
    64
  3
破線B
 72
    65
 73
     2
 40
1.3
 49
0.9
 49
-0.4
  0
LTYPE
  2
DASHDOT
 70
    64
  3
１点鎖線A
 72
    65
 73
     4
 40
0.5375
 49
0.375
 49
-0.05
 49
0.0625
 49
-0.05
  0
LTYPE
  2
DASHDOTX2
 70
    64
  3
１点鎖線B
 72
    65
 73
     4
 40
1.075
 49
0.75
 49
-0.1
 49
0.125
 49
-0.1
  0
LTYPE
  2
DIVIDE2
 70
    64
  3
２点鎖線A
 72
    65
 73
     6
 40
0.5125
 49
0.3
 49
-0.0375
 49
0.05
 49
-0.0375
 49
0.05
 49
-0.0375
  0
LTYPE
  2
DIVIDE
 70
    64
  3
２点鎖線B
 72
    65
 73
     6
 40
1.05
 49
0.55
 49
-0.1
 49
0.1
 49
-0.1
 49
0.1
 49
-0.1
  0
LTYPE
  2
DOT
 70
    64
  3
点線A
 72
    65
 73
     2
 40
0.1125
 49
0.0625
 49
-0.05
  0
LTYPE
  2
DOTX2
 70
    64
  3
点線B
 72
    65
 73
     2
 40
0.275
 49
0.15
 49
-0.125
  0
LTYPE
  2
CONTINUOUS
 70
    64
  3
実線
 72
    65
 73
     0
 40
0.0
  0
LTYPE
  2
CONTINUOUS
 70
    64
  3
実線
 72
    65
 73
     0
 40
0.0
  0
LTYPE
  2
CONTINUOUS
 70
    64
  3
実線
 72
    65
 73
     0
 40
0.0
  0
LTYPE
  2
CONTINUOUS
 70
    64
  3
実線
 72
    65
 73
     0
 40
0.0
  0
LTYPE
  2
CONTINUOUS
 70
    64
  3
実線
 72
    65
 73
     0
 40
0.0
  0
LTYPE
  2
CONTINUOUS
 70
    64
  3
実線
 72
    65
 73
     0
 40
0.0
  0
ENDTAB
  0
TABLE
  2
LAYER
 70
    34
  0
LAYER
  2
通り芯
 70
     0
 62
    15
  6
CONTINUOUS
  0
LAYER
  2
補助線
 70
     0
 62
    16
  6
DOT
  0
LAYER
  2
躯体
 70
     0
 62
    31
  6
CONTINUOUS
  0
LAYER
  2
型材
 70
     0
 62
    32
  6
CONTINUOUS
  0
LAYER
  2
型材断面
 70
     0
 62
    47
  6
CONTINUOUS
  0
LAYER
  2
ガラス
 70
     0
 62
    48
  6
CONTINUOUS
  0
LAYER
  2
ゴム等
 70
     0
 62
    63
  6
CONTINUOUS
  0
LAYER
  2
ボルト／ビス
 70
     0
 62
    64
  6
CONTINUOUS
  0
LAYER
  2
文字
 70
     0
 62
    79
  6
CONTINUOUS
  0
LAYER
  2
寸法
 70
     0
 62
    80
  6
CONTINUOUS
  0
LAYER
  2
ﾊｯﾁﾝｸﾞ
 70
     0
 62
    95
  6
CONTINUOUS
  0
LAYER
  2
別途部材
 70
     0
 62
    96
  6
CONTINUOUS
  0
LAYER
  2
曲げ物
 70
     0
 62
   111
  6
CONTINUOUS
  0
LAYER
  2
鉄骨等
 70
     0
 62
   112
  6
CONTINUOUS
  0
LAYER
  2
St
 70
     0
 62
   127
  6
CONTINUOUS
  0
LAYER
  2
その他部品等
 70
     0
 62
   128
  6
CONTINUOUS
  0
LAYER
  2
ｶﾞｽｹｯﾄ
 70
     0
 62
   143
  6
CONTINUOUS
  0
LAYER
  2
ｽｹｯﾁ
 70
     0
 62
    14
  6
CONTINUOUS
  0
LAYER
  2
0
 70
     0
 62
    17
  6
CONTINUOUS
  0
LAYER
  2
1
 70
     0
 62
    30
  6
CONTINUOUS
  0
LAYER
  2
4
 70
     0
 62
    33
  6
CONTINUOUS
  0
LAYER
  2
ﾚｲﾔ3
 70
     0
 62
    46
  6
CONTINUOUS
  0
LAYER
  2
外形線
 70
     0
 62
    49
  6
CONTINUOUS
  0
LAYER
  2
部品
 70
     0
 62
    14
  6
CONTINUOUS
  0
LAYER
  2
サッシ芯
 70
     0
 62
    17
  6
DASHDOTX2
  0
LAYER
  2
寸法線
 70
     0
 62
    62
  6
CONTINUOUS
  0
LAYER
  2
姿図外形線
 70
     0
 62
    65
  6
CONTINUOUS
  0
LAYER
  2
姿補助線
 70
     0
 62
    30
  6
CONTINUOUS
  0
LAYER
  2
透視線
 70
     0
 62
    78
  6
DOT
  0
LAYER
  2
用紙
 70
     0
 62
    81
  6
CONTINUOUS
  0
LAYER
  2
実線図枠
 70
     0
 62
    94
  6
CONTINUOUS
  0
LAYER
  2
補助図枠
 70
     0
 62
    97
  6
CONTINUOUS
  0
LAYER
  2
建具記号
 70
     0
 62
   110
  6
CONTINUOUS
  0
LAYER
  2
補助文字
 70
     0
 62
   113
  6
CONTINUOUS
  0
ENDTAB
  0
TABLE
  2
STYLE
 70
    10
  0
STYLE
  2
STANDARD
 70
     0
 40
1.0
 41
1.0
 42
1.0
 50
0.0
 71
     0
  3
TXT
  4
BIGFONT
  0
STYLE
  2
TATE
 70
     4
 40
1.0
 41
1.0
 42
1.0
 50
0.0
 71
     0
  3
TXT
  4
BIGFONT
  0
STYLE
  2
TextStyle03
 70
     0
 40
1.0
 41
1.0
 42
1.0
 50
0.0
 71
     0
  3
MONOTXT
  4
BIGFONT
  0
STYLE
  2
TextStyle04
 70
     0
 40
1.0
 41
1.0
 42
1.0
 50
0.0
 71
     0
  3
MONOTXT
  4
BIGFONT
  0
STYLE
  2
TextStyle05
 70
     0
 40
1.0
 41
1.0
 42
1.0
 50
0.0
 71
     0
  3
MONOTXT
  4
BIGFONT
  0
STYLE
  2
TextStyle06
 70
     0
 40
1.0
 41
1.0
 42
1.0
 50
0.0
 71
     0
  3
MONOTXT
  4
BIGFONT
  0
STYLE
  2
TextStyle07
 70
     0
 40
1.0
 41
1.0
 42
1.0
 50
0.0
 71
     0
  3
MONOTXT
  4
BIGFONT
  0
STYLE
  2
TextStyle08
 70
     0
 40
1.0
 41
1.0
 42
1.0
 50
0.0
 71
     0
  3
MONOTXT
  4
BIGFONT
  0
STYLE
  2
TextStyle09
 70
     0
 40
1.0
 41
1.0
 42
1.0
 50
0.0
 71
     0
  3
MONOTXT
  4
BIGFONT
  0
STYLE
  2
TextStyle10
 70
     0
 40
1.0
 41
1.0
 42
1.0
 50
0.0
 71
     0
  3
MONOTXT
  4
BIGFONT
  0
ENDTAB
  0
ENDSEC
  0
SECTION
  2
BLOCKS
  0
BLOCK
  2
*GRP_0001
 70
    65
 10
0.0
 20
0.0
  0
LINE
  8
型材断面
  6
CONTINUOUS
 10
195.0
 20
133.5
 11
195.0
 21
-133.5
  0
LINE
  8
型材断面
  6
CONTINUOUS
 10
195.0
 20
-133.5
 11
-185.0
 21
-133.5
  0
LINE
  8
型材断面
  6
CONTINUOUS
 10
-185.0
 20
-133.5
 11
-185.0
 21
133.5
  0
LINE
  8
型材断面
  6
CONTINUOUS
 10
195.0
 20
133.5
 11
-185.0
 21
133.5
  0
LINE
  8
型材断面
  6
CONTINUOUS
 10
145.0
 20
-133.5
 11
145.0
 21
-118.5
  0
LINE
  8
型材断面
  6
CONTINUOUS
 10
195.0
 20
-118.5
 11
145.0
 21
-118.5
  0
ENDBLK
  0
BLOCK
  2
*DIM_0002
 70
    65
 10
0.0
 20
0.0
  0
LINE
  8
寸法
  6
BYBLOCK
 62
     0
 10
-53.775608
 20
19.183902
 11
-53.775608
 21
14.042105
  0
LINE
  8
寸法
  6
BYBLOCK
 62
     0
 10
29.557727
 20
19.183902
 11
29.557727
 21
14.042105
  0
LINE
  8
寸法
  6
BYBLOCK
 62
     0
 10
-53.775608
 20
14.042105
 11
29.557727
 21
14.042105
  0
POINT
  8
寸法
 62
     0
 10
-53.775608
 20
14.042105
  0
POINT
  8
寸法
 62
     0
 10
29.557727
 20
14.042105
  0
TEXT
  7
TextStyle03
  8
寸法
  6
CONTINUOUS
 62
     0
 10
-15.40625
 20
14.4
  1
2500
 40
3.0
 72
     5
 11
-8.84375
 21
14.4
  0
ENDBLK
  0
BLOCK
  2
*DIM_0003
 70
    65
 10
0.0
 20
0.0
  0
LINE
  8
寸法
  6
BYBLOCK
 62
     0
 10
47.224393
 20
42.814035
 11
56.948675
 21
42.814035
  0
LINE
  8
寸法
  6
BYBLOCK
 62
     0
 10
49.854522
 20
39.114035
 11
56.948675
 21
39.114035
  0
LINE
  8
寸法
  6
BYBLOCK
 62
     0
 10
56.948675
 20
42.814035
 11
56.948675
 21
39.114035
  0
POINT
  8
寸法
 62
     0
 10
56.948675
 20
42.814035
  0
POINT
  8
寸法
 62
     0
 10
56.948675
 20
39.114035
  0
TEXT
  7
TextStyle03
  8
寸法
  6
CONTINUOUS
 62
     0
 10
56.625
 20
43.8125
  1
111
 40
3.0
 50
90.0
 72
     5
 11
56.625
 21
48.6875
  0
ENDBLK
  0
BLOCK
  2
*DIM_0004
 70
    65
 10
0.0
 20
0.0
  0
LINE
  8
寸法
  6
BYBLOCK
 62
     0
 10
47.224393
 20
22.81403
 11
56.948675
 21
22.814027
  0
LINE
  8
寸法
  6
BYBLOCK
 62
     0
 10
49.854522
 20
26.51403
 11
56.948675
 21
26.514027
  0
LINE
  8
寸法
  6
BYBLOCK
 62
     0
 10
56.948675
 20
22.814027
 11
56.948675
 21
26.514027
  0
POINT
  8
寸法
 62
     0
 10
56.948675
 20
22.814027
  0
POINT
  8
寸法
 62
     0
 10
56.948675
 20
26.514027
  0
TEXT
  7
TextStyle03
  8
寸法
  6
CONTINUOUS
 62
     0
 10
56.95
 20
16.5625
  1
111
 40
3.0
 50
90.0
 72
     5
 11
56.95
 21
21.4375
  0
ENDBLK
  0
BLOCK
  2
*DIM_0005
 70
    65
 10
0.0
 20
0.0
  0
LINE
  8
寸法
  6
BYBLOCK
 62
     0
 10
-73.442275
 20
39.4807
 11
-86.735113
 21
39.4807
  0
LINE
  8
寸法
  6
BYBLOCK
 62
     0
 10
-73.442275
 20
26.147365
 11
-86.735113
 21
26.147365
  0
LINE
  8
寸法
  6
BYBLOCK
 62
     0
 10
-86.735113
 20
39.4807
 11
-86.735113
 21
26.147365
  0
POINT
  8
寸法
 62
     0
 10
-86.735113
 20
39.4807
  0
POINT
  8
寸法
 62
     0
 10
-86.735113
 20
26.147365
  0
TEXT
  7
TextStyle03
  8
寸法
  6
CONTINUOUS
 62
     0
 10
-87.175
 20
30.3625
  1
400
 40
3.0
 50
90.0
 72
     5
 11
-87.175
 21
35.2375
  0
ENDBLK
  0
BLOCK
  2
*DIM_0006
 70
    65
 10
0.0
 20
0.0
  0
LINE
  8
寸法
  6
BYBLOCK
 62
     0
 10
-65.442273
 20
45.814033
 11
-65.442273
 21
74.922105
  0
LINE
  8
寸法
  6
BYBLOCK
 62
     0
 10
-38.775608
 20
45.814033
 11
-38.775608
 21
74.922105
  0
LINE
  8
寸法
  6
BYBLOCK
 62
     0
 10
-65.442273
 20
74.922105
 11
-38.775608
 21
74.922105
  0
POINT
  8
寸法
 62
     0
 10
-65.442273
 20
74.922105
  0
POINT
  8
寸法
 62
     0
 10
-38.775608
 20
74.922105
  0
TEXT
  7
TextStyle03
  8
寸法
  6
CONTINUOUS
 62
     0
 10
-54.5625
 20
75.3
  1
800
 40
3.0
 72
     5
 11
-49.6875
 21
75.3
  0
ENDBLK
  0
BLOCK
  2
*DIM_0007
 70
    65
 10
0.0
 20
0.0
  0
LINE
  8
寸法
  6
BYBLOCK
 62
     0
 10
-12.10894
 20
45.814033
 11
-12.10894
 21
74.922105
  0
LINE
  8
寸法
  6
BYBLOCK
 62
     0
 10
-38.775608
 20
74.922105
 11
-12.10894
 21
74.922105
  0
POINT
  8
寸法
 62
     0
 10
-12.10894
 20
74.922105
  0
TEXT
  7
TextStyle03
  8
寸法
  6
CONTINUOUS
 62
     0
 10
-27.9125
 20
75.3
  1
800
 40
3.0
 72
     5
 11
-23.0375
 21
75.3
  0
ENDBLK
  0
BLOCK
  2
*DIM_0008
 70
    65
 10
0.0
 20
0.0
  0
LINE
  8
寸法
  6
BYBLOCK
 62
     0
 10
14.557727
 20
45.814033
 11
14.557727
 21
74.922105
  0
LINE
  8
寸法
  6
BYBLOCK
 62
     0
 10
-12.10894
 20
74.922105
 11
14.557727
 21
74.922105
  0
POINT
  8
寸法
 62
     0
 10
14.557727
 20
74.922105
  0
TEXT
  7
TextStyle03
  8
寸法
  6
CONTINUOUS
 62
     0
 10
-1.2375
 20
75.3
  1
800
 40
3.0
 72
     5
 11
3.6375
 21
75.3
  0
ENDBLK
  0
BLOCK
  2
*DIM_0009
 70
    65
 10
0.0
 20
0.0
  0
LINE
  8
寸法
  6
BYBLOCK
 62
     0
 10
41.224393
 20
45.814033
 11
41.224393
 21
74.922105
  0
LINE
  8
寸法
  6
BYBLOCK
 62
     0
 10
14.557727
 20
74.922105
 11
41.224393
 21
74.922105
  0
POINT
  8
寸法
 62
     0
 10
41.224393
 20
74.922105
  0
TEXT
  7
TextStyle03
  8
寸法
  6
CONTINUOUS
 62
     0
 10
25.4375
 20
75.3
  1
800
 40
3.0
 72
     5
 11
30.3125
 21
75.3
  0
ENDBLK
  0
BLOCK
  2
*GRP_0010
 70
    65
 10
0.0
 20
0.0
  0
LINE
  8
別途部材
  6
DOT
 62
    47
 10
127.907775
 20
20.980845
 11
127.974443
 21
20.980845
  0
ARC
  8
別途部材
  6
DOT
 62
    47
 10
127.907775
 20
21.080846
 40
0.1
 50
180.0
 51
270.0
  0
LINE
  8
別途部材
  6
DOT
 62
    47
 10
127.974443
 20
21.137368
 11
129.474443
 21
21.137368
  0
LINE
  8
別途部材
  6
DOT
 62
    47
 10
131.79111
 20
20.050848
 11
131.79111
 21
32.814033
  0
LINE
  8
別途部材
  6
DOT
 62
    47
 10
130.624445
 20
20.050848
 11
130.624445
 21
32.814033
  0
LINE
  8
別途部材
  6
DOT
 62
    47
 10
129.474443
 20
21.137368
 11
129.474443
 21
32.814033
  0
LINE
  8
別途部材
  6
DOT
 62
    47
 10
127.974443
 20
20.980845
 11
127.974443
 21
32.814033
  0
LINE
  8
別途部材
  6
DOT
 62
    47
 10
127.807775
 20
21.080845
 11
127.807775
 21
32.814033
  0
LINE
  8
別途部材
  6
DOT
 62
    47
 10
127.907775
 20
44.647222
 11
127.974443
 21
44.647222
  0
ARC
  8
別途部材
  6
DOT
 62
    47
 10
127.907775
 20
44.547222
 40
0.1
 50
90.0
 51
180.0
  0
LINE
  8
別途部材
  6
DOT
 62
    47
 10
127.974443
 20
44.4907
 11
129.474443
 21
44.4907
  0
LINE
  8
別途部材
  6
DOT
 62
    47
 10
131.79111
 20
45.57722
 11
131.79111
 21
32.814033
  0
LINE
  8
別途部材
  6
DOT
 62
    47
 10
130.624445
 20
45.57722
 11
130.624445
 21
32.814033
  0
LINE
  8
別途部材
  6
DOT
 62
    47
 10
129.474443
 20
44.4907
 11
129.474443
 21
32.814033
  0
LINE
  8
別途部材
  6
DOT
 62
    47
 10
127.974443
 20
44.647222
 11
127.974443
 21
32.814033
  0
LINE
  8
別途部材
  6
DOT
 62
    47
 10
127.807775
 20
44.547222
 11
127.807775
 21
32.814033
  0
LINE
  8
鉄骨等
  6
DOT
 62
    47
 10
131.79111
 20
20.050848
 11
130.624445
 21
20.050848
  0
LINE
  8
鉄骨等
  6
DOT
 62
    47
 10
130.624445
 20
20.050848
 11
129.474445
 21
21.454032
  0
LINE
  8
鉄骨等
  6
DOT
 62
    47
 10
131.79111
 20
45.57722
 11
130.624445
 21
45.57722
  0
LINE
  8
鉄骨等
  6
DOT
 62
    47
 10
130.624445
 20
45.57722
 11
129.474445
 21
44.174033
  0
ENDBLK
  0
BLOCK
  2
*DIM_0011
 70
    65
 10
0.0
 20
0.0
  0
LINE
  8
寸法
  6
BYBLOCK
 62
     0
 10
80.244043
 20
22.814035
 11
80.244043
 21
42.814035
  0
POINT
  8
寸法
 62
     0
 10
80.244043
 20
22.814035
  0
POINT
  8
寸法
 62
     0
 10
80.244043
 20
42.814035
  0
TEXT
  7
TextStyle03
  8
寸法
  6
CONTINUOUS
 62
     0
 10
79.875
 20
21.925
  1
呼称寸法　600
 40
3.0
 50
90.0
 72
     5
 11
79.875
 21
43.675
  0
ENDBLK
  0
BLOCK
  2
*DIM_0012
 70
    65
 10
0.0
 20
0.0
  0
LINE
  8
寸法
  6
CONTINUOUS
 10
80.244043
 20
45.57722
 11
80.244043
 21
42.814035
  0
POINT
  8
寸法
 10
80.244043
 20
45.57722
  0
POINT
  8
寸法
 10
80.244043
 20
42.814035
  0
TEXT
  7
TextStyle03
  8
寸法
  6
CONTINUOUS
 10
81.65
 20
46.64375
  1
82.9
 40
3.0
 50
90.0
 72
     5
 11
81.65
 21
53.20625
  0
ENDBLK
  0
BLOCK
  2
*DIM_0013
 70
    65
 10
0.0
 20
0.0
  0
LINE
  8
寸法
  6
CONTINUOUS
 10
80.244043
 20
22.814035
 11
80.244043
 21
20.050848
  0
POINT
  8
寸法
 10
80.244043
 20
22.814035
  0
POINT
  8
寸法
 10
80.244043
 20
20.050848
  0
TEXT
  7
TextStyle03
  8
寸法
  6
CONTINUOUS
 10
81.65
 20
12.41875
  1
82.9
 40
3.0
 50
90.0
 72
     5
 11
81.65
 21
18.98125
  0
ENDBLK
  0
BLOCK
  2
*DIM_0014
 70
    65
 10
0.0
 20
0.0
  0
LINE
  8
寸法
  6
CONTINUOUS
 10
-70.442278
 20
-12.609317
 11
-73.20561
 21
-12.609317
  0
POINT
  8
寸法
 10
-70.442278
 20
-12.609317
  0
POINT
  8
寸法
 10
-73.20561
 20
-12.609317
  0
TEXT
  7
TextStyle03
  8
寸法
  6
CONTINUOUS
 10
-77.80625
 20
-11.7
  1
82.9
 40
3.0
 72
     5
 11
-71.24375
 21
-11.7
  0
ENDBLK
  0
BLOCK
  2
*DIM_0015
 70
    65
 10
0.0
 20
0.0
  0
LINE
  8
寸法
  6
CONTINUOUS
 10
48.987728
 20
-12.609317
 11
46.224393
 21
-12.609317
  0
POINT
  8
寸法
 10
48.987728
 20
-12.609317
  0
POINT
  8
寸法
 10
46.224393
 20
-12.609317
  0
TEXT
  7
TextStyle03
  8
寸法
  6
CONTINUOUS
 10
47.26875
 20
-11.75
  1
82.9
 40
3.0
 72
     5
 11
53.83125
 21
-11.75
  0
ENDBLK
  0
BLOCK
  2
*DIM_0016
 70
    65
 10
0.0
 20
0.0
  0
LINE
  8
寸法
  6
CONTINUOUS
 10
-70.442275
 20
-12.609317
 11
46.224393
 21
-12.609317
  0
POINT
  8
寸法
 10
-70.442275
 20
-12.609317
  0
POINT
  8
寸法
 10
46.224393
 20
-12.609317
  0
TEXT
  7
TextStyle03
  8
寸法
  6
CONTINUOUS
 10
-23.84375
 20
-12.25
  1
呼称寸法　3500
 40
3.0
 72
     5
 11
-0.40625
 21
-12.25
  0
ENDBLK
  0
BLOCK
  2
*GRP_0017
 70
    65
 10
0.0
 20
0.0
  0
LINE
  8
補助線
  6
BYBLOCK
 62
    64
 10
-58.701142
 20
-74.615697
 11
-58.850068
 21
-74.690523
  0
LINE
  8
補助線
  6
BYBLOCK
 62
    64
 10
-58.813018
 20
-74.578645
 11
-58.738192
 21
-74.727573
  0
LINE
  8
補助線
  6
BYBLOCK
 62
    64
 10
-48.782662
 20
-69.63234
 11
-48.93159
 21
-69.707165
  0
LINE
  8
補助線
  6
BYBLOCK
 62
    64
 10
-48.89454
 20
-69.595287
 11
-48.819715
 21
-69.744215
  0
LINE
  8
補助線
  6
BYBLOCK
 62
    64
 10
-39.013112
 20
-64.723808
 11
-38.864185
 21
-64.648982
  0
LINE
  8
補助線
  6
BYBLOCK
 62
    64
 10
-38.976062
 20
-64.61193
 11
-38.901238
 21
-64.760858
  0
LINE
  8
型材断面
  6
CONTINUOUS
 10
-59.447583
 20
-74.058133
 11
-59.669885
 21
-74.729385
  0
LINE
  8
型材断面
  6
CONTINUOUS
 10
-59.669885
 20
-74.729385
 11
-59.370582
 21
-75.32509
  0
LINE
  8
型材断面
  6
CONTINUOUS
 10
-59.370582
 20
-75.32509
 11
-58.69933
 21
-75.547393
  0
LINE
  8
型材断面
  6
CONTINUOUS
 10
-39.014925
 20
-63.792115
 11
-38.34367
 21
-64.014418
  0
LINE
  8
型材断面
  6
CONTINUOUS
 10
-38.34367
 20
-64.014418
 11
-38.044368
 21
-64.610123
  0
LINE
  8
型材断面
  6
CONTINUOUS
 10
-38.044368
 20
-64.610123
 11
-38.266673
 21
-65.281375
  0
LINE
  8
型材断面
  6
CONTINUOUS
 10
-59.447583
 20
-74.058133
 11
-39.014925
 21
-63.792115
  0
LINE
  8
型材断面
  6
CONTINUOUS
 10
-58.69933
 20
-75.547393
 11
-38.266673
 21
-65.281375
  0
CIRCLE
  8
ボルト／ビス
  6
CONTINUOUS
 10
-58.775605
 20
-74.65311
 40
0.250185
  0
CIRCLE
  8
ボルト／ビス
  6
CONTINUOUS
 10
-58.775605
 20
-74.65311
 40
0.301025
  0
LINE
  8
ボルト／ビス
  6
CONTINUOUS
 62
    64
 10
-59.02537
 20
-74.638608
 11
-58.887925
 21
-74.429558
  0
LINE
  8
ボルト／ビス
  6
CONTINUOUS
 62
    64
 10
-58.63816
 20
-74.44406
 11
-58.887925
 21
-74.429558
  0
LINE
  8
ボルト／ビス
  6
CONTINUOUS
 62
    64
 10
-58.91305
 20
-74.86216
 11
-58.663285
 21
-74.876663
  0
LINE
  8
ボルト／ビス
  6
CONTINUOUS
 62
    64
 10
-58.52584
 20
-74.667612
 11
-58.663285
 21
-74.876663
  0
LINE
  8
ボルト／ビス
  6
CONTINUOUS
 62
    64
 10
-59.02537
 20
-74.638608
 11
-58.91305
 21
-74.86216
  0
LINE
  8
ボルト／ビス
  6
CONTINUOUS
 62
    64
 10
-58.63816
 20
-74.44406
 11
-58.52584
 21
-74.667612
  0
CIRCLE
  8
ボルト／ビス
  6
CONTINUOUS
 62
    64
 10
-58.775605
 20
-74.65311
 40
0.216668
  0
CIRCLE
  8
ボルト／ビス
  6
CONTINUOUS
 10
-48.857128
 20
-69.669752
 40
0.250185
  0
CIRCLE
  8
ボルト／ビス
  6
CONTINUOUS
 10
-48.857128
 20
-69.669752
 40
0.301025
  0
LINE
  8
ボルト／ビス
  6
CONTINUOUS
 62
    64
 10
-49.106892
 20
-69.655248
 11
-48.969448
 21
-69.446198
  0
LINE
  8
ボルト／ビス
  6
CONTINUOUS
 62
    64
 10
-48.719682
 20
-69.4607
 11
-48.969448
 21
-69.446198
  0
LINE
  8
ボルト／ビス
  6
CONTINUOUS
 62
    64
 10
-48.994572
 20
-69.878802
 11
-48.744805
 21
-69.893307
  0
LINE
  8
ボルト／ビス
  6
CONTINUOUS
 62
    64
 10
-48.607363
 20
-69.684257
 11
-48.744805
 21
-69.893307
  0
LINE
  8
ボルト／ビス
  6
CONTINUOUS
 62
    64
 10
-49.106892
 20
-69.655248
 11
-48.994572
 21
-69.878802
  0
LINE
  8
ボルト／ビス
  6
CONTINUOUS
 62
    64
 10
-48.719682
 20
-69.4607
 11
-48.607363
 21
-69.684257
  0
CIRCLE
  8
ボルト／ビス
  6
CONTINUOUS
 62
    64
 10
-48.857128
 20
-69.669752
 40
0.216668
  0
CIRCLE
  8
ボルト／ビス
  6
CONTINUOUS
 10
-38.93865
 20
-64.686395
 40
0.250185
  0
CIRCLE
  8
ボルト／ビス
  6
CONTINUOUS
 10
-38.93865
 20
-64.686395
 40
0.301025
  0
LINE
  8
ボルト／ビス
  6
CONTINUOUS
 62
    64
 10
-38.801205
 20
-64.477345
 11
-39.05097
 21
-64.462842
  0
LINE
  8
ボルト／ビス
  6
CONTINUOUS
 62
    64
 10
-39.188415
 20
-64.671893
 11
-39.05097
 21
-64.462842
  0
LINE
  8
ボルト／ビス
  6
CONTINUOUS
 62
    64
 10
-38.688885
 20
-64.7009
 11
-38.826328
 21
-64.909948
  0
LINE
  8
ボルト／ビス
  6
CONTINUOUS
 62
    64
 10
-39.076095
 20
-64.895445
 11
-38.826328
 21
-64.909948
  0
LINE
  8
ボルト／ビス
  6
CONTINUOUS
 62
    64
 10
-38.801205
 20
-64.477345
 11
-38.688885
 21
-64.7009
  0
LINE
  8
ボルト／ビス
  6
CONTINUOUS
 62
    64
 10
-39.188415
 20
-64.671893
 11
-39.076095
 21
-64.895445
  0
CIRCLE
  8
ボルト／ビス
  6
CONTINUOUS
 62
    64
 10
-38.93865
 20
-64.686395
 40
0.216668
  0
ENDBLK
  0
BLOCK
  2
*GRP_0018
 70
    65
 10
0.0
 20
0.0
  0
LINE
  8
補助線
  6
BYBLOCK
 62
    64
 10
-39.013112
 20
-74.615697
 11
-38.864188
 21
-74.690523
  0
LINE
  8
補助線
  6
BYBLOCK
 62
    64
 10
-38.901238
 20
-74.578645
 11
-38.976062
 21
-74.727573
  0
LINE
  8
補助線
  6
BYBLOCK
 62
    64
 10
-48.931592
 20
-69.63234
 11
-48.782665
 21
-69.707165
  0
LINE
  8
補助線
  6
BYBLOCK
 62
    64
 10
-48.819715
 20
-69.595287
 11
-48.89454
 21
-69.744215
  0
LINE
  8
補助線
  6
BYBLOCK
 62
    64
 10
-58.701142
 20
-64.723808
 11
-58.85007
 21
-64.648982
  0
LINE
  8
補助線
  6
BYBLOCK
 62
    64
 10
-58.738192
 20
-64.61193
 11
-58.813018
 21
-64.760858
  0
LINE
  8
型材断面
  6
CONTINUOUS
 10
-38.266673
 20
-74.058133
 11
-38.04437
 21
-74.729385
  0
LINE
  8
型材断面
  6
CONTINUOUS
 10
-38.04437
 20
-74.729385
 11
-38.343672
 21
-75.32509
  0
LINE
  8
型材断面
  6
CONTINUOUS
 10
-38.343672
 20
-75.32509
 11
-39.014925
 21
-75.547393
  0
LINE
  8
型材断面
  6
CONTINUOUS
 10
-58.69933
 20
-63.792115
 11
-59.370585
 21
-64.014418
  0
LINE
  8
型材断面
  6
CONTINUOUS
 10
-59.370585
 20
-64.014418
 11
-59.669888
 21
-64.610123
  0
LINE
  8
型材断面
  6
CONTINUOUS
 10
-59.669888
 20
-64.610123
 11
-59.447583
 21
-65.281375
  0
LINE
  8
型材断面
  6
CONTINUOUS
 10
-38.266673
 20
-74.058133
 11
-58.69933
 21
-63.792115
  0
LINE
  8
型材断面
  6
CONTINUOUS
 10
-39.014925
 20
-75.547393
 11
-59.447583
 21
-65.281375
  0
CIRCLE
  8
ボルト／ビス
  6
CONTINUOUS
 10
-38.93865
 20
-74.65311
 40
0.250185
  0
CIRCLE
  8
ボルト／ビス
  6
CONTINUOUS
 10
-38.93865
 20
-74.65311
 40
0.301025
  0
LINE
  8
ボルト／ビス
  6
CONTINUOUS
 62
    64
 10
-38.688885
 20
-74.638608
 11
-38.82633
 21
-74.429558
  0
LINE
  8
ボルト／ビス
  6
CONTINUOUS
 62
    64
 10
-39.076095
 20
-74.44406
 11
-38.82633
 21
-74.429558
  0
LINE
  8
ボルト／ビス
  6
CONTINUOUS
 62
    64
 10
-38.801205
 20
-74.86216
 11
-39.05097
 21
-74.876663
  0
LINE
  8
ボルト／ビス
  6
CONTINUOUS
 62
    64
 10
-39.188415
 20
-74.667612
 11
-39.05097
 21
-74.876663
  0
LINE
  8
ボルト／ビス
  6
CONTINUOUS
 62
    64
 10
-38.688885
 20
-74.638608
 11
-38.801205
 21
-74.86216
  0
LINE
  8
ボルト／ビス
  6
CONTINUOUS
 62
    64
 10
-39.076095
 20
-74.44406
 11
-39.188415
 21
-74.667612
  0
CIRCLE
  8
ボルト／ビス
  6
CONTINUOUS
 62
    64
 10
-38.93865
 20
-74.65311
 40
0.216668
  0
CIRCLE
  8
ボルト／ビス
  6
CONTINUOUS
 10
-48.857128
 20
-69.669752
 40
0.250185
  0
CIRCLE
  8
ボルト／ビス
  6
CONTINUOUS
 10
-48.857128
 20
-69.669752
 40
0.301025
  0
LINE
  8
ボルト／ビス
  6
CONTINUOUS
 62
    64
 10
-48.607363
 20
-69.655248
 11
-48.744808
 21
-69.446198
  0
LINE
  8
ボルト／ビス
  6
CONTINUOUS
 62
    64
 10
-48.994572
 20
-69.4607
 11
-48.744808
 21
-69.446198
  0
LINE
  8
ボルト／ビス
  6
CONTINUOUS
 62
    64
 10
-48.719682
 20
-69.878802
 11
-48.96945
 21
-69.893307
  0
LINE
  8
ボルト／ビス
  6
CONTINUOUS
 62
    64
 10
-49.106892
 20
-69.684257
 11
-48.96945
 21
-69.893307
  0
LINE
  8
ボルト／ビス
  6
CONTINUOUS
 62
    64
 10
-48.607363
 20
-69.655248
 11
-48.719682
 21
-69.878802
  0
LINE
  8
ボルト／ビス
  6
CONTINUOUS
 62
    64
 10
-48.994572
 20
-69.4607
 11
-49.106892
 21
-69.684257
  0
CIRCLE
  8
ボルト／ビス
  6
CONTINUOUS
 62
    64
 10
-48.857128
 20
-69.669752
 40
0.216668
  0
CIRCLE
  8
ボルト／ビス
  6
CONTINUOUS
 10
-58.775605
 20
-64.686395
 40
0.250185
  0
CIRCLE
  8
ボルト／ビス
  6
CONTINUOUS
 10
-58.775605
 20
-64.686395
 40
0.301025
  0
LINE
  8
ボルト／ビス
  6
CONTINUOUS
 62
    64
 10
-58.91305
 20
-64.477345
 11
-58.663285
 21
-64.462842
  0
LINE
  8
ボルト／ビス
  6
CONTINUOUS
 62
    64
 10
-58.52584
 20
-64.671893
 11
-58.663285
 21
-64.462842
  0
LINE
  8
ボルト／ビス
  6
CONTINUOUS
 62
    64
 10
-59.02537
 20
-64.7009
 11
-58.887928
 21
-64.909948
  0
LINE
  8
ボルト／ビス
  6
CONTINUOUS
 62
    64
 10
-58.63816
 20
-64.895445
 11
-58.887928
 21
-64.909948
  0
LINE
  8
ボルト／ビス
  6
CONTINUOUS
 62
    64
 10
-58.91305
 20
-64.477345
 11
-59.02537
 21
-64.7009
  0
LINE
  8
ボルト／ビス
  6
CONTINUOUS
 62
    64
 10
-58.52584
 20
-64.671893
 11
-58.63816
 21
-64.895445
  0
CIRCLE
  8
ボルト／ビス
  6
CONTINUOUS
 62
    64
 10
-58.775605
 20
-64.686395
 40
0.216668
  0
ENDBLK
  0
BLOCK
  2
*GRP_0019
 70
    65
 10
0.0
 20
0.0
  0
LINE
  8
補助線
  6
BYBLOCK
 62
    64
 10
34.483267
 20
-74.615697
 11
34.632193
 21
-74.690523
  0
LINE
  8
補助線
  6
BYBLOCK
 62
    64
 10
34.595142
 20
-74.578645
 11
34.520318
 21
-74.727573
  0
LINE
  8
補助線
  6
BYBLOCK
 62
    64
 10
24.564788
 20
-69.63234
 11
24.713715
 21
-69.707165
  0
LINE
  8
補助線
  6
BYBLOCK
 62
    64
 10
24.676665
 20
-69.595287
 11
24.60184
 21
-69.744215
  0
LINE
  8
補助線
  6
BYBLOCK
 62
    64
 10
14.795238
 20
-64.723808
 11
14.64631
 21
-64.648982
  0
LINE
  8
補助線
  6
BYBLOCK
 62
    64
 10
14.758187
 20
-64.61193
 11
14.683362
 21
-64.760858
  0
LINE
  8
型材断面
  6
CONTINUOUS
 10
35.229708
 20
-74.058133
 11
35.45201
 21
-74.729385
  0
LINE
  8
型材断面
  6
CONTINUOUS
 10
35.45201
 20
-74.729385
 11
35.152707
 21
-75.32509
  0
LINE
  8
型材断面
  6
CONTINUOUS
 10
35.152707
 20
-75.32509
 11
34.481455
 21
-75.547393
  0
LINE
  8
型材断面
  6
CONTINUOUS
 10
14.79705
 20
-63.792115
 11
14.125795
 21
-64.014418
  0
LINE
  8
型材断面
  6
CONTINUOUS
 10
14.125795
 20
-64.014418
 11
13.826492
 21
-64.610123
  0
LINE
  8
型材断面
  6
CONTINUOUS
 10
13.826492
 20
-64.610123
 11
14.048798
 21
-65.281375
  0
LINE
  8
型材断面
  6
CONTINUOUS
 10
35.229708
 20
-74.058133
 11
14.79705
 21
-63.792115
  0
LINE
  8
型材断面
  6
CONTINUOUS
 10
34.481455
 20
-75.547393
 11
14.048798
 21
-65.281375
  0
CIRCLE
  8
ボルト／ビス
  6
CONTINUOUS
 10
34.55773
 20
-74.65311
 40
0.250185
  0
CIRCLE
  8
ボルト／ビス
  6
CONTINUOUS
 10
34.55773
 20
-74.65311
 40
0.301025
  0
LINE
  8
ボルト／ビス
  6
CONTINUOUS
 62
    64
 10
34.807495
 20
-74.638608
 11
34.67005
 21
-74.429558
  0
LINE
  8
ボルト／ビス
  6
CONTINUOUS
 62
    64
 10
34.420285
 20
-74.44406
 11
34.67005
 21
-74.429558
  0
LINE
  8
ボルト／ビス
  6
CONTINUOUS
 62
    64
 10
34.695175
 20
-74.86216
 11
34.44541
 21
-74.876663
  0
LINE
  8
ボルト／ビス
  6
CONTINUOUS
 62
    64
 10
34.307965
 20
-74.667612
 11
34.44541
 21
-74.876663
  0
LINE
  8
ボルト／ビス
  6
CONTINUOUS
 62
    64
 10
34.807495
 20
-74.638608
 11
34.695175
 21
-74.86216
  0
LINE
  8
ボルト／ビス
  6
CONTINUOUS
 62
    64
 10
34.420285
 20
-74.44406
 11
34.307965
 21
-74.667612
  0
CIRCLE
  8
ボルト／ビス
  6
CONTINUOUS
 62
    64
 10
34.55773
 20
-74.65311
 40
0.216668
  0
CIRCLE
  8
ボルト／ビス
  6
CONTINUOUS
 10
24.639252
 20
-69.669752
 40
0.250185
  0
CIRCLE
  8
ボルト／ビス
  6
CONTINUOUS
 10
24.639252
 20
-69.669752
 40
0.301025
  0
LINE
  8
ボルト／ビス
  6
CONTINUOUS
 62
    64
 10
24.889018
 20
-69.655248
 11
24.751572
 21
-69.446198
  0
LINE
  8
ボルト／ビス
  6
CONTINUOUS
 62
    64
 10
24.501807
 20
-69.4607
 11
24.751572
 21
-69.446198
  0
LINE
  8
ボルト／ビス
  6
CONTINUOUS
 62
    64
 10
24.776698
 20
-69.878802
 11
24.52693
 21
-69.893307
  0
LINE
  8
ボルト／ビス
  6
CONTINUOUS
 62
    64
 10
24.389487
 20
-69.684257
 11
24.52693
 21
-69.893307
  0
LINE
  8
ボルト／ビス
  6
CONTINUOUS
 62
    64
 10
24.889018
 20
-69.655248
 11
24.776698
 21
-69.878802
  0
LINE
  8
ボルト／ビス
  6
CONTINUOUS
 62
    64
 10
24.501807
 20
-69.4607
 11
24.389487
 21
-69.684257
  0
CIRCLE
  8
ボルト／ビス
  6
CONTINUOUS
 62
    64
 10
24.639252
 20
-69.669752
 40
0.216668
  0
CIRCLE
  8
ボルト／ビス
  6
CONTINUOUS
 10
14.720775
 20
-64.686395
 40
0.250185
  0
CIRCLE
  8
ボルト／ビス
  6
CONTINUOUS
 10
14.720775
 20
-64.686395
 40
0.301025
  0
LINE
  8
ボルト／ビス
  6
CONTINUOUS
 62
    64
 10
14.58333
 20
-64.477345
 11
14.833095
 21
-64.462842
  0
LINE
  8
ボルト／ビス
  6
CONTINUOUS
 62
    64
 10
14.97054
 20
-64.671893
 11
14.833095
 21
-64.462842
  0
LINE
  8
ボルト／ビス
  6
CONTINUOUS
 62
    64
 10
14.47101
 20
-64.7009
 11
14.608453
 21
-64.909948
  0
LINE
  8
ボルト／ビス
  6
CONTINUOUS
 62
    64
 10
14.85822
 20
-64.895445
 11
14.608453
 21
-64.909948
  0
LINE
  8
ボルト／ビス
  6
CONTINUOUS
 62
    64
 10
14.58333
 20
-64.477345
 11
14.47101
 21
-64.7009
  0
LINE
  8
ボルト／ビス
  6
CONTINUOUS
 62
    64
 10
14.97054
 20
-64.671893
 11
14.85822
 21
-64.895445
  0
CIRCLE
  8
ボルト／ビス
  6
CONTINUOUS
 62
    64
 10
14.720775
 20
-64.686395
 40
0.216668
  0
ENDBLK
  0
BLOCK
  2
*GRP_0020
 70
    65
 10
0.0
 20
0.0
  0
LINE
  8
補助線
  6
BYBLOCK
 62
    64
 10
14.795238
 20
-74.615697
 11
14.646313
 21
-74.690523
  0
LINE
  8
補助線
  6
BYBLOCK
 62
    64
 10
14.683362
 20
-74.578645
 11
14.758187
 21
-74.727573
  0
LINE
  8
補助線
  6
BYBLOCK
 62
    64
 10
24.713717
 20
-69.63234
 11
24.56479
 21
-69.707165
  0
LINE
  8
補助線
  6
BYBLOCK
 62
    64
 10
24.60184
 20
-69.595287
 11
24.676665
 21
-69.744215
  0
LINE
  8
補助線
  6
BYBLOCK
 62
    64
 10
34.483267
 20
-64.723808
 11
34.632195
 21
-64.648982
  0
LINE
  8
補助線
  6
BYBLOCK
 62
    64
 10
34.520318
 20
-64.61193
 11
34.595142
 21
-64.760858
  0
LINE
  8
型材断面
  6
CONTINUOUS
 10
14.048798
 20
-74.058133
 11
13.826495
 21
-74.729385
  0
LINE
  8
型材断面
  6
CONTINUOUS
 10
13.826495
 20
-74.729385
 11
14.125798
 21
-75.32509
  0
LINE
  8
型材断面
  6
CONTINUOUS
 10
14.125798
 20
-75.32509
 11
14.79705
 21
-75.547393
  0
LINE
  8
型材断面
  6
CONTINUOUS
 10
34.481455
 20
-63.792115
 11
35.15271
 21
-64.014418
  0
LINE
  8
型材断面
  6
CONTINUOUS
 10
35.15271
 20
-64.014418
 11
35.452012
 21
-64.610123
  0
LINE
  8
型材断面
  6
CONTINUOUS
 10
35.452012
 20
-64.610123
 11
35.229708
 21
-65.281375
  0
LINE
  8
型材断面
  6
CONTINUOUS
 10
14.048798
 20
-74.058133
 11
34.481455
 21
-63.792115
  0
LINE
  8
型材断面
  6
CONTINUOUS
 10
14.79705
 20
-75.547393
 11
35.229708
 21
-65.281375
  0
CIRCLE
  8
ボルト／ビス
  6
CONTINUOUS
 10
14.720775
 20
-74.65311
 40
0.250185
  0
CIRCLE
  8
ボルト／ビス
  6
CONTINUOUS
 10
14.720775
 20
-74.65311
 40
0.301025
  0
LINE
  8
ボルト／ビス
  6
CONTINUOUS
 62
    64
 10
14.47101
 20
-74.638608
 11
14.608455
 21
-74.429558
  0
LINE
  8
ボルト／ビス
  6
CONTINUOUS
 62
    64
 10
14.85822
 20
-74.44406
 11
14.608455
 21
-74.429558
  0
LINE
  8
ボルト／ビス
  6
CONTINUOUS
 62
    64
 10
14.58333
 20
-74.86216
 11
14.833095
 21
-74.876663
  0
LINE
  8
ボルト／ビス
  6
CONTINUOUS
 62
    64
 10
14.97054
 20
-74.667612
 11
14.833095
 21
-74.876663
  0
LINE
  8
ボルト／ビス
  6
CONTINUOUS
 62
    64
 10
14.47101
 20
-74.638608
 11
14.58333
 21
-74.86216
  0
LINE
  8
ボルト／ビス
  6
CONTINUOUS
 62
    64
 10
14.85822
 20
-74.44406
 11
14.97054
 21
-74.667612
  0
CIRCLE
  8
ボルト／ビス
  6
CONTINUOUS
 62
    64
 10
14.720775
 20
-74.65311
 40
0.216668
  0
CIRCLE
  8
ボルト／ビス
  6
CONTINUOUS
 10
24.639252
 20
-69.669752
 40
0.250185
  0
CIRCLE
  8
ボルト／ビス
  6
CONTINUOUS
 10
24.639252
 20
-69.669752
 40
0.301025
  0
LINE
  8
ボルト／ビス
  6
CONTINUOUS
 62
    64
 10
24.389487
 20
-69.655248
 11
24.526932
 21
-69.446198
  0
LINE
  8
ボルト／ビス
  6
CONTINUOUS
 62
    64
 10
24.776698
 20
-69.4607
 11
24.526932
 21
-69.446198
  0
LINE
  8
ボルト／ビス
  6
CONTINUOUS
 62
    64
 10
24.501807
 20
-69.878802
 11
24.751575
 21
-69.893307
  0
LINE
  8
ボルト／ビス
  6
CONTINUOUS
 62
    64
 10
24.889018
 20
-69.684257
 11
24.751575
 21
-69.893307
  0
LINE
  8
ボルト／ビス
  6
CONTINUOUS
 62
    64
 10
24.389487
 20
-69.655248
 11
24.501807
 21
-69.878802
  0
LINE
  8
ボルト／ビス
  6
CONTINUOUS
 62
    64
 10
24.776698
 20
-69.4607
 11
24.889018
 21
-69.684257
  0
CIRCLE
  8
ボルト／ビス
  6
CONTINUOUS
 62
    64
 10
24.639252
 20
-69.669752
 40
0.216668
  0
CIRCLE
  8
ボルト／ビス
  6
CONTINUOUS
 10
34.55773
 20
-64.686395
 40
0.250185
  0
CIRCLE
  8
ボルト／ビス
  6
CONTINUOUS
 10
34.55773
 20
-64.686395
 40
0.301025
  0
LINE
  8
ボルト／ビス
  6
CONTINUOUS
 62
    64
 10
34.695175
 20
-64.477345
 11
34.44541
 21
-64.462842
  0
LINE
  8
ボルト／ビス
  6
CONTINUOUS
 62
    64
 10
34.307965
 20
-64.671893
 11
34.44541
 21
-64.462842
  0
LINE
  8
ボルト／ビス
  6
CONTINUOUS
 62
    64
 10
34.807495
 20
-64.7009
 11
34.670053
 21
-64.909948
  0
LINE
  8
ボルト／ビス
  6
CONTINUOUS
 62
    64
 10
34.420285
 20
-64.895445
 11
34.670053
 21
-64.909948
  0
LINE
  8
ボルト／ビス
  6
CONTINUOUS
 62
    64
 10
34.695175
 20
-64.477345
 11
34.807495
 21
-64.7009
  0
LINE
  8
ボルト／ビス
  6
CONTINUOUS
 62
    64
 10
34.307965
 20
-64.671893
 11
34.420285
 21
-64.895445
  0
CIRCLE
  8
ボルト／ビス
  6
CONTINUOUS
 62
    64
 10
34.55773
 20
-64.686395
 40
0.216668
  0
ENDBLK
  0
BLOCK
  2
*DIM_0021
 70
    65
 10
0.0
 20
0.0
  0
LINE
  8
寸法
  6
CONTINUOUS
 10
141.310947
 20
-55.854007
 11
103.210947
 21
-55.854007
  0
POINT
  8
寸法
 10
141.310947
 20
-55.854007
  0
POINT
  8
寸法
 10
103.210947
 20
-55.854007
  0
TEXT
  7
TextStyle03
  8
寸法
  6
CONTINUOUS
 10
118.96875
 20
-55.5
  1
1143
 40
3.0
 72
     5
 11
125.53125
 21
-55.5
  0
ENDBLK
  0
BLOCK
  2
*DIM_0022
 70
    65
 10
0.0
 20
0.0
  0
LINE
  8
寸法
  6
BYBLOCK
 62
     0
 10
65.401215
 20
-69.076395
 11
65.401215
 21
-61.743062
  0
POINT
  8
寸法
 62
     0
 10
65.401215
 20
-61.743062
  0
TEXT
  7
TextStyle03
  8
寸法
  6
CONTINUOUS
 62
     0
 10
65.075
 20
-60.26875
  1
上昇195以上
 40
3.0
 50
90.0
 72
     5
 11
65.075
 21
-42.08125
  0
ENDBLK
  0
BLOCK
  2
*DIM_0023
 70
    65
 10
0.0
 20
0.0
  0
LINE
  8
寸法
  6
BYBLOCK
 62
     0
 10
135.141108
 20
51.815152
 11
127.807775
 21
51.815152
  0
POINT
  8
寸法
 62
     0
 10
127.807775
 20
51.815152
  0
TEXT
  7
TextStyle03
  8
寸法
  6
CONTINUOUS
 62
     0
 10
106.08125
 20
50.15
  1
上昇195以上
 40
3.0
 72
     5
 11
124.26875
 21
50.15
  0
ENDBLK
  0
BLOCK
  2
*DIM_0024
 70
    65
 10
0.0
 20
0.0
  0
LINE
  8
寸法
  6
CONTINUOUS
 10
146.310947
 20
-63.785395
 11
150.489517
 21
-63.785395
  0
LINE
  8
寸法
  6
CONTINUOUS
 10
146.310947
 20
-83.785395
 11
150.489517
 21
-83.785395
  0
LINE
  8
寸法
  6
CONTINUOUS
 10
150.489517
 20
-63.785395
 11
150.489517
 21
-83.785395
  0
POINT
  8
寸法
 10
150.489517
 20
-63.785395
  0
POINT
  8
寸法
 10
150.489517
 20
-83.785395
  0
TEXT
  7
TextStyle03
  8
寸法
  6
CONTINUOUS
 10
150.1
 20
-76.2375
  1
600
 40
3.0
 50
90.0
 72
     5
 11
150.1
 21
-71.3625
  0
ENDBLK
  0
BLOCK
  2
*DIM_0025
 70
    65
 10
0.0
 20
0.0
  0
LINE
  8
寸法
  6
CONTINUOUS
 10
52.899905
 20
-69.076395
 11
65.401215
 21
-69.076395
  0
LINE
  8
寸法
  6
CONTINUOUS
 10
53.98773
 20
-77.192947
 11
65.401215
 21
-77.192947
  0
LINE
  8
寸法
  6
CONTINUOUS
 10
65.401215
 20
-69.076395
 11
65.401215
 21
-77.192947
  0
POINT
  8
寸法
 10
65.401215
 20
-69.076395
  0
POINT
  8
寸法
 10
65.401215
 20
-77.192947
  0
TEXT
  7
TextStyle03
  8
寸法
  6
CONTINUOUS
 10
68.425
 20
-77.275
  1
243.5
 40
3.0
 50
90.0
 72
     5
 11
68.425
 21
-69.025
  0
ENDBLK
  0
BLOCK
  2
*DIM_0026
 70
    65
 10
0.0
 20
0.0
  0
LINE
  8
寸法
  6
CONTINUOUS
 10
135.141108
 20
49.457957
 11
135.141108
 21
51.815152
  0
LINE
  8
寸法
  6
CONTINUOUS
 10
143.25766
 20
48.403357
 11
143.25766
 21
51.815152
  0
LINE
  8
寸法
  6
CONTINUOUS
 10
135.141108
 20
51.815152
 11
143.25766
 21
51.815152
  0
POINT
  8
寸法
 10
135.141108
 20
51.815152
  0
POINT
  8
寸法
 10
143.25766
 20
51.815152
  0
TEXT
  7
TextStyle03
  8
寸法
  6
CONTINUOUS
 10
135.1
 20
52.175
  1
243.5
 40
3.0
 72
     5
 11
143.35
 21
52.175
  0
ENDBLK
  0
ENDSEC
  0
SECTION
  2
ENTITIES
  0
POLYLINE
  8
通り芯
  6
CONTINUOUS
 66
     1
 70
     1
  0
VERTEX
  8
通り芯
 10
-210.0
 20
-148.5
  0
VERTEX
  8
通り芯
 10
210.0
 20
-148.5
  0
VERTEX
  8
通り芯
 10
210.0
 20
148.5
  0
VERTEX
  8
通り芯
 10
-210.0
 20
148.5
  0
SEQEND
  0
INSERT
  2
*GRP_0001
  8
型材断面
  6
CONTINUOUS
 10
0.0
 20
0.0
  0
LINE
  8
型材断面
  6
DASHDOT
 10
46.224393
 20
-77.836442
 11
46.224393
 21
42.814033
  0
LINE
  8
型材断面
  6
DASHDOT
 10
-12.10894
 20
-77.836442
 11
-12.10894
 21
42.814033
  0
LINE
  8
型材断面
  6
DASHDOT
 10
-70.442275
 20
-77.836442
 11
-70.442275
 21
42.814033
  0
LINE
  8
型材断面
  6
DASHDOT
 10
143.901155
 20
42.814033
 11
-70.442275
 21
42.814033
  0
LINE
  8
型材断面
  6
DASHDOT
 10
143.901155
 20
32.814033
 11
-70.442275
 21
32.814033
  0
LINE
  8
型材断面
  6
DASHDOT
 10
143.901155
 20
22.814033
 11
-70.442275
 21
22.814033
  0
POLYLINE
  8
型材断面
  6
CONTINUOUS
 66
     1
 70
     1
  0
VERTEX
  8
型材断面
 10
-2.750177
 20
13.03811
  0
VERTEX
  8
型材断面
 10
-21.522108
 20
13.03811
  0
VERTEX
  8
型材断面
 10
-21.522108
 20
8.301267
  0
VERTEX
  8
型材断面
 10
-2.750177
 20
8.301267
  0
SEQEND
  0
POLYLINE
  8
型材断面
  6
CONTINUOUS
 66
     1
 70
     1
  0
VERTEX
  8
型材断面
 10
-2.750177
 20
52.589955
  0
VERTEX
  8
型材断面
 10
-21.522108
 20
52.589955
  0
VERTEX
  8
型材断面
 10
-21.522108
 20
57.326798
  0
VERTEX
  8
型材断面
 10
-2.750177
 20
57.326798
  0
SEQEND
  0
LINE
  8
型材断面
  6
CONTINUOUS
 10
-111.294482
 20
80.791505
 11
-110.698427
 21
78.200998
  0
LINE
  8
型材断面
  6
CONTINUOUS
 10
-111.294482
 20
80.791505
 11
-111.89054
 21
78.200998
  0
LINE
  8
型材断面
  6
CONTINUOUS
 10
-111.89054
 20
78.200998
 11
-110.698427
 21
78.200998
  0
LINE
  8
型材断面
  6
CONTINUOUS
 10
-117.31707
 20
74.922105
 11
-71.075292
 21
74.922105
  0
LINE
  8
型材断面
  6
CONTINUOUS
 10
-111.294482
 20
87.32138
 11
-112.790113
 21
84.730873
  0
LINE
  8
型材断面
  6
CONTINUOUS
 10
-111.294482
 20
87.32138
 11
-109.798852
 21
84.730873
  0
LINE
  8
型材断面
  6
CONTINUOUS
 10
-109.798852
 20
84.730873
 11
-112.790113
 21
84.730873
  0
LINE
  8
型材断面
  6
CONTINUOUS
 10
-117.31707
 20
83.792277
 11
-71.075292
 21
83.792277
  0
LINE
  8
型材断面
  6
CONTINUOUS
 10
-117.31707
 20
69.134073
 11
-71.075292
 21
69.134073
  0
LINE
  8
型材断面
  6
CONTINUOUS
 10
-117.31707
 20
63.34604
 11
-71.075292
 21
63.34604
  0
INSERT
  2
*GRP_0010
  8
型材断面
  6
DASHDOT
 10
0.0
 20
0.0
  0
INSERT
  2
*GRP_0017
  8
型材断面
  6
CONTINUOUS
 10
0.0
 20
0.0
  0
INSERT
  2
*GRP_0018
  8
型材断面
  6
CONTINUOUS
 10
0.0
 20
0.0
  0
INSERT
  2
*GRP_0019
  8
型材断面
  6
CONTINUOUS
 10
0.0
 20
0.0
  0
INSERT
  2
*GRP_0020
  8
型材断面
  6
CONTINUOUS
 10
0.0
 20
0.0
  0
LINE
  8
型材断面
  6
CONTINUOUS
 10
-73.20561
 20
20.050848
 11
48.987728
 21
20.050848
  0
LINE
  8
型材断面
  6
CONTINUOUS
 10
-73.20561
 20
45.57722
 11
48.987728
 21
45.57722
  0
LINE
  8
型材断面
  6
CONTINUOUS
 10
-73.20561
 20
32.814035
 11
-75.796118
 21
34.309665
  0
LINE
  8
型材断面
  6
CONTINUOUS
 10
-73.20561
 20
32.814035
 11
-75.796118
 21
31.318405
  0
LINE
  8
型材断面
  6
CONTINUOUS
 10
-75.796118
 20
31.318405
 11
-75.796118
 21
34.309665
  0
LINE
  8
型材断面
  6
CONTINUOUS
 10
-73.205608
 20
39.114038
 11
-75.796118
 21
38.517985
  0
LINE
  8
型材断面
  6
CONTINUOUS
 10
-73.205608
 20
39.114038
 11
-75.796115
 21
39.710097
  0
LINE
  8
型材断面
  6
CONTINUOUS
 10
-75.796115
 20
39.710097
 11
-75.796118
 21
38.517985
  0
LINE
  8
型材断面
  6
CONTINUOUS
 10
-73.205608
 20
26.514033
 11
-75.796118
 21
27.110085
  0
LINE
  8
型材断面
  6
CONTINUOUS
 10
-73.205608
 20
26.514033
 11
-75.796115
 21
25.917972
  0
LINE
  8
型材断面
  6
CONTINUOUS
 10
-75.796115
 20
25.917972
 11
-75.796118
 21
27.110085
  0
LINE
  8
型材断面
  6
CONTINUOUS
 10
-53.775608
 20
45.57722
 11
-55.271238
 21
48.167727
  0
LINE
  8
型材断面
  6
CONTINUOUS
 10
-53.775608
 20
45.57722
 11
-52.279978
 21
48.167727
  0
LINE
  8
型材断面
  6
CONTINUOUS
 10
-52.279978
 20
48.167727
 11
-55.271238
 21
48.167727
  0
LINE
  8
型材断面
  6
CONTINUOUS
 10
29.557727
 20
45.57722
 11
31.053357
 21
48.167727
  0
LINE
  8
型材断面
  6
CONTINUOUS
 10
29.557727
 20
45.57722
 11
28.062097
 21
48.167727
  0
LINE
  8
型材断面
  6
CONTINUOUS
 10
28.062097
 20
48.167727
 11
31.053357
 21
48.167727
  0
LINE
  8
型材断面
  6
CONTINUOUS
 10
48.987728
 20
32.814033
 11
51.578235
 21
34.309663
  0
LINE
  8
型材断面
  6
CONTINUOUS
 10
48.987728
 20
32.814033
 11
51.578235
 21
31.318403
  0
LINE
  8
型材断面
  6
CONTINUOUS
 10
51.578235
 20
31.318403
 11
51.578235
 21
34.309663
  0
LINE
  8
型材断面
  6
CONTINUOUS
 10
48.987725
 20
39.114035
 11
51.578235
 21
38.517982
  0
LINE
  8
型材断面
  6
CONTINUOUS
 10
48.987725
 20
39.114035
 11
51.578233
 21
39.710095
  0
LINE
  8
型材断面
  6
CONTINUOUS
 10
51.578233
 20
39.710095
 11
51.578235
 21
38.517982
  0
LINE
  8
型材断面
  6
CONTINUOUS
 10
48.987725
 20
26.51403
 11
51.578235
 21
27.110082
  0
LINE
  8
型材断面
  6
CONTINUOUS
 10
48.987725
 20
26.51403
 11
51.578233
 21
25.91797
  0
LINE
  8
型材断面
  6
CONTINUOUS
 10
51.578233
 20
25.91797
 11
51.578235
 21
27.110082
  0
LINE
  8
型材断面
  6
CONTINUOUS
 10
-53.775608
 20
20.050848
 11
-55.271238
 21
17.46034
  0
LINE
  8
型材断面
  6
CONTINUOUS
 10
-53.775608
 20
20.050848
 11
-52.279978
 21
17.46034
  0
LINE
  8
型材断面
  6
CONTINUOUS
 10
-52.279978
 20
17.46034
 11
-55.271238
 21
17.46034
  0
LINE
  8
型材断面
  6
CONTINUOUS
 10
29.557727
 20
20.050848
 11
31.053357
 21
17.46034
  0
LINE
  8
型材断面
  6
CONTINUOUS
 10
29.557727
 20
20.050848
 11
28.062097
 21
17.46034
  0
LINE
  8
型材断面
  6
CONTINUOUS
 10
28.062097
 20
17.46034
 11
31.053357
 21
17.46034
  0
LINE
  8
型材断面
  6
DASHDOT
 10
7.531063
 20
22.814033
 11
7.531063
 21
42.814033
  0
LINE
  8
型材断面
  6
CONTINUOUS
 10
8.781063
 20
24.314178
 11
6.281063
 21
24.314178
  0
LINE
  8
型材断面
  6
CONTINUOUS
 10
8.781063
 20
41.313888
 11
6.281063
 21
41.313888
  0
LINE
  8
型材断面
  6
CONTINUOUS
 10
8.781063
 20
24.314178
 11
8.781063
 21
41.313888
  0
LINE
  8
型材断面
  6
CONTINUOUS
 10
6.281063
 20
24.314178
 11
6.281063
 21
41.313888
  0
LINE
  8
型材断面
  6
CONTINUOUS
 10
48.98773
 20
20.050848
 11
48.98773
 21
45.57722
  0
LINE
  8
型材断面
  6
CONTINUOUS
 10
47.82205
 20
20.98068
 11
48.05775
 21
21.21638
  0
LINE
  8
型材断面
  6
CONTINUOUS
 10
45.322048
 20
23.48068
 11
45.557748
 21
23.71638
  0
LINE
  8
型材断面
  6
CONTINUOUS
 10
45.557748
 20
23.71638
 11
48.05775
 21
21.21638
  0
LINE
  8
型材断面
  6
CONTINUOUS
 10
45.322048
 20
23.48068
 11
47.82205
 21
20.98068
  0
LINE
  8
型材断面
  6
CONTINUOUS
 10
48.987582
 20
20.050848
 11
47.939898
 21
21.098527
  0
LINE
  8
型材断面
  6
CONTINUOUS
 10
48.057735
 20
32.814033
 11
48.05775
 21
21.21638
  0
LINE
  8
型材断面
  6
CONTINUOUS
 10
45.557735
 20
33.2307
 11
48.057735
 21
33.2307
  0
LINE
  8
型材断面
  6
CONTINUOUS
 10
45.557735
 20
32.397365
 11
48.057735
 21
32.397365
  0
LINE
  8
型材断面
  6
CONTINUOUS
 10
45.557735
 20
32.397365
 11
45.557748
 21
23.71638
  0
LINE
  8
型材断面
  6
CONTINUOUS
 10
47.82205
 20
44.647385
 11
48.05775
 21
44.411685
  0
LINE
  8
型材断面
  6
CONTINUOUS
 10
45.322048
 20
42.147385
 11
45.557748
 21
41.911685
  0
LINE
  8
型材断面
  6
CONTINUOUS
 10
45.557748
 20
41.911685
 11
48.05775
 21
44.411685
  0
LINE
  8
型材断面
  6
CONTINUOUS
 10
45.322048
 20
42.147385
 11
47.82205
 21
44.647385
  0
LINE
  8
型材断面
  6
CONTINUOUS
 10
48.987582
 20
45.577218
 11
47.939898
 21
44.529537
  0
LINE
  8
型材断面
  6
CONTINUOUS
 10
45.557735
 20
33.2307
 11
45.557748
 21
41.911685
  0
LINE
  8
型材断面
  6
CONTINUOUS
 10
48.057735
 20
32.814033
 11
48.05775
 21
44.411685
  0
LINE
  8
型材断面
  6
CONTINUOUS
 10
27.294395
 20
23.480845
 11
27.294395
 21
20.980845
  0
LINE
  8
型材断面
  6
CONTINUOUS
 10
26.46106
 20
20.980845
 11
26.46106
 21
23.480845
  0
LINE
  8
型材断面
  6
CONTINUOUS
 10
-11.692273
 20
23.480845
 11
-11.692273
 21
20.980845
  0
LINE
  8
型材断面
  6
CONTINUOUS
 10
-12.525608
 20
20.980845
 11
-12.525608
 21
23.480845
  0
LINE
  8
型材断面
  6
CONTINUOUS
 10
27.294395
 20
42.14722
 11
27.294395
 21
44.64722
  0
LINE
  8
型材断面
  6
CONTINUOUS
 10
26.46106
 20
44.64722
 11
26.46106
 21
42.14722
  0
LINE
  8
型材断面
  6
CONTINUOUS
 10
-11.692273
 20
42.14722
 11
-11.692273
 21
44.64722
  0
LINE
  8
型材断面
  6
CONTINUOUS
 10
-12.525608
 20
44.64722
 11
-12.525608
 21
42.14722
  0
LINE
  8
型材断面
  6
CONTINUOUS
 10
-11.692273
 20
23.480845
 11
26.46106
 21
23.480845
  0
LINE
  8
型材断面
  6
CONTINUOUS
 10
27.294395
 20
23.480845
 11
45.321882
 21
23.480845
  0
LINE
  8
型材断面
  6
CONTINUOUS
 10
-11.692273
 20
42.147222
 11
26.46106
 21
42.147222
  0
LINE
  8
型材断面
  6
CONTINUOUS
 10
27.294395
 20
42.147222
 11
45.321885
 21
42.147222
  0
LINE
  8
型材断面
  6
DASHDOT
 10
-31.748942
 20
22.814033
 11
-31.748942
 21
42.814033
  0
LINE
  8
型材断面
  6
CONTINUOUS
 10
-32.998942
 20
24.314178
 11
-30.498942
 21
24.314178
  0
LINE
  8
型材断面
  6
CONTINUOUS
 10
-32.998942
 20
41.313888
 11
-30.498942
 21
41.313888
  0
LINE
  8
型材断面
  6
CONTINUOUS
 10
-32.998942
 20
24.314178
 11
-32.998942
 21
41.313888
  0
LINE
  8
型材断面
  6
CONTINUOUS
 10
-30.498942
 20
24.314178
 11
-30.498942
 21
41.313888
  0
LINE
  8
型材断面
  6
CONTINUOUS
 10
-73.20561
 20
20.050848
 11
-73.20561
 21
45.57722
  0
LINE
  8
型材断面
  6
CONTINUOUS
 10
-72.03993
 20
20.98068
 11
-72.27563
 21
21.21638
  0
LINE
  8
型材断面
  6
CONTINUOUS
 10
-69.539927
 20
23.48068
 11
-69.775627
 21
23.71638
  0
LINE
  8
型材断面
  6
CONTINUOUS
 10
-69.775627
 20
23.71638
 11
-72.27563
 21
21.21638
  0
LINE
  8
型材断面
  6
CONTINUOUS
 10
-69.539927
 20
23.48068
 11
-72.03993
 21
20.98068
  0
LINE
  8
型材断面
  6
CONTINUOUS
 10
-73.205462
 20
20.050848
 11
-72.157777
 21
21.098527
  0
LINE
  8
型材断面
  6
CONTINUOUS
 10
-72.275615
 20
32.814033
 11
-72.27563
 21
21.21638
  0
LINE
  8
型材断面
  6
CONTINUOUS
 10
-69.775615
 20
33.2307
 11
-72.275615
 21
33.2307
  0
LINE
  8
型材断面
  6
CONTINUOUS
 10
-69.775615
 20
32.397365
 11
-72.275615
 21
32.397365
  0
LINE
  8
型材断面
  6
CONTINUOUS
 10
-69.775615
 20
32.397365
 11
-69.775627
 21
23.71638
  0
LINE
  8
型材断面
  6
CONTINUOUS
 10
-72.03993
 20
44.647385
 11
-72.27563
 21
44.411685
  0
LINE
  8
型材断面
  6
CONTINUOUS
 10
-69.539927
 20
42.147385
 11
-69.775627
 21
41.911685
  0
LINE
  8
型材断面
  6
CONTINUOUS
 10
-69.775627
 20
41.911685
 11
-72.27563
 21
44.411685
  0
LINE
  8
型材断面
  6
CONTINUOUS
 10
-69.539927
 20
42.147385
 11
-72.03993
 21
44.647385
  0
LINE
  8
型材断面
  6
CONTINUOUS
 10
-73.205462
 20
45.577218
 11
-72.157777
 21
44.529537
  0
LINE
  8
型材断面
  6
CONTINUOUS
 10
-69.775615
 20
33.2307
 11
-69.775627
 21
41.911685
  0
LINE
  8
型材断面
  6
CONTINUOUS
 10
-72.275615
 20
32.814033
 11
-72.27563
 21
44.411685
  0
LINE
  8
型材断面
  6
CONTINUOUS
 10
-51.512275
 20
23.480845
 11
-51.512275
 21
20.980845
  0
LINE
  8
型材断面
  6
CONTINUOUS
 10
-50.67894
 20
20.980845
 11
-50.67894
 21
23.480845
  0
LINE
  8
型材断面
  6
CONTINUOUS
 10
-51.512275
 20
42.14722
 11
-51.512275
 21
44.64722
  0
LINE
  8
型材断面
  6
CONTINUOUS
 10
-50.67894
 20
44.64722
 11
-50.67894
 21
42.14722
  0
LINE
  8
型材断面
  6
CONTINUOUS
 10
-51.512275
 20
23.480845
 11
-69.539762
 21
23.480845
  0
LINE
  8
型材断面
  6
CONTINUOUS
 10
-51.512275
 20
42.147222
 11
-69.539765
 21
42.147222
  0
LINE
  8
型材断面
  6
CONTINUOUS
 10
-12.525608
 20
42.147222
 11
-50.67894
 21
42.147222
  0
LINE
  8
型材断面
  6
CONTINUOUS
 10
-12.525608
 20
23.480845
 11
-50.67894
 21
23.480845
  0
LINE
  8
型材断面
  6
CONTINUOUS
 10
47.821888
 20
44.647222
 11
-72.039768
 21
44.647222
  0
LINE
  8
型材断面
  6
CONTINUOUS
 10
47.821885
 20
20.980845
 11
-72.039765
 21
20.980845
  0
LINE
  8
型材断面
  6
CONTINUOUS
 10
48.48773
 20
-77.192947
 11
48.48773
 21
-77.529612
  0
LINE
  8
型材断面
  6
CONTINUOUS
 10
48.791063
 20
-73.096397
 11
48.98773
 21
-73.293065
  0
LINE
  8
型材断面
  6
CONTINUOUS
 10
48.98773
 20
-73.293065
 11
48.98773
 21
-77.192947
  0
LINE
  8
型材断面
  6
CONTINUOUS
 10
143.25766
 20
45.077223
 11
143.594325
 21
45.077223
  0
LINE
  8
型材断面
  6
CONTINUOUS
 10
139.16111
 20
45.380555
 11
139.357777
 21
45.577223
  0
LINE
  8
型材断面
  6
CONTINUOUS
 10
139.357777
 20
45.577223
 11
143.25766
 21
45.577223
  0
LINE
  8
型材断面
  6
CONTINUOUS
 62
    47
 10
139.161155
 20
45.380597
 11
139.161155
 21
32.814033
  0
LINE
  8
型材断面
  6
CONTINUOUS
 10
139.357777
 20
45.577223
 11
139.357777
 21
32.814033
  0
LINE
  8
型材断面
  6
CONTINUOUS
 10
143.594325
 20
45.077223
 11
143.594325
 21
32.814033
  0
LINE
  8
型材断面
  6
CONTINUOUS
 10
143.25766
 20
45.577223
 11
143.25766
 21
32.814033
  0
LINE
  8
型材断面
  6
CONTINUOUS
 10
143.25766
 20
20.550842
 11
143.594325
 21
20.550842
  0
LINE
  8
型材断面
  6
CONTINUOUS
 10
139.16111
 20
20.24751
 11
139.357777
 21
20.050842
  0
LINE
  8
型材断面
  6
CONTINUOUS
 10
139.357777
 20
20.050842
 11
143.25766
 21
20.050842
  0
LINE
  8
型材断面
  6
CONTINUOUS
 62
    47
 10
139.161155
 20
20.247467
 11
139.161155
 21
32.814033
  0
LINE
  8
型材断面
  6
CONTINUOUS
 10
139.357777
 20
20.050842
 11
139.357777
 21
32.814033
  0
LINE
  8
型材断面
  6
CONTINUOUS
 10
143.594325
 20
20.550842
 11
143.594325
 21
32.814033
  0
LINE
  8
型材断面
  6
CONTINUOUS
 10
143.25766
 20
20.050842
 11
143.25766
 21
32.814033
  0
LINE
  8
型材断面
  6
CONTINUOUS
 10
48.98773
 20
-77.192947
 11
-12.10894
 21
-77.192947
  0
LINE
  8
型材断面
  6
CONTINUOUS
 10
48.48773
 20
-77.529612
 11
-12.10894
 21
-77.529612
  0
LINE
  8
型材断面
  6
CONTINUOUS
 62
    47
 10
48.791105
 20
-73.096443
 11
-12.10894
 21
-73.096443
  0
LINE
  8
型材断面
  6
CONTINUOUS
 10
48.98773
 20
-73.293065
 11
-12.10894
 21
-73.293065
  0
LINE
  8
型材断面
  6
CONTINUOUS
 10
-72.70561
 20
-77.192947
 11
-72.70561
 21
-77.529612
  0
LINE
  8
型材断面
  6
CONTINUOUS
 10
-73.008943
 20
-73.096397
 11
-73.20561
 21
-73.293065
  0
LINE
  8
型材断面
  6
CONTINUOUS
 10
-73.20561
 20
-73.293065
 11
-73.20561
 21
-77.192947
  0
LINE
  8
型材断面
  6
CONTINUOUS
 10
-73.20561
 20
-77.192947
 11
-12.10894
 21
-77.192947
  0
LINE
  8
型材断面
  6
CONTINUOUS
 10
-72.70561
 20
-77.529612
 11
-12.10894
 21
-77.529612
  0
LINE
  8
型材断面
  6
CONTINUOUS
 62
    47
 10
-73.008985
 20
-73.096443
 11
-12.10894
 21
-73.096443
  0
LINE
  8
型材断面
  6
CONTINUOUS
 10
-73.20561
 20
-73.293065
 11
-12.10894
 21
-73.293065
  0
TEXT
  7
TextStyle03
  8
文字
  6
CONTINUOUS
 10
-20.525
 20
9.325
  1
可動装置側
 40
3.0
 72
     5
 11
-4.025
 21
9.325
  0
TEXT
  7
TextStyle03
  8
文字
  6
CONTINUOUS
 10
-20.525
 20
53.3
  1
可動装置側
 40
3.0
 72
     5
 11
-4.025
 21
53.3
  0
TEXT
  7
TextStyle03
  8
文字
  6
CONTINUOUS
 10
-108.5
 20
79.425
  1
はケーシング位置を示す
 40
3.0
 72
     5
 11
-71.75
 21
79.425
  0
TEXT
  7
TextStyle03
  8
文字
  6
CONTINUOUS
 10
-108.5
 20
76.05
  1
４ヶ所中1ヶ所に設定
 40
3.0
 72
     5
 11
-76.8125
 21
76.05
  0
TEXT
  7
TextStyle03
  8
文字
  6
CONTINUOUS
 10
-108.5
 20
84.95
  1
は排水穴位置を示す
 40
3.0
 72
     5
 11
-78.5
 21
84.95
  0
TEXT
  7
TextStyle03
  8
文字
  6
CONTINUOUS
 10
-91.525
 20
11.275
  1
アンカーピッチ
 40
3.0
 50
90.0
 72
     5
 11
-91.525
 21
34.525
  0
TEXT
  7
TextStyle03
  8
文字
  6
CONTINUOUS
 10
-59.3
 20
79.775
  1
アンカーピッチ
 40
3.0
 72
     5
 11
-36.05
 21
79.775
  0
TEXT
  7
TextStyle03
  8
文字
  6
CONTINUOUS
 10
-112.225
 20
70.075
  1
アンカー数量　１４ヶ所
 40
3.0
 72
     5
 11
-75.475
 21
70.075
  0
TEXT
  7
TextStyle03
  8
文字
  6
CONTINUOUS
 10
-112.275
 20
64.3
  1
アームユニット数　４ヶ所
 40
3.0
 72
     5
 11
-72.15
 21
64.3
  0
LINE
  8
文字
  6
CONTINUOUS
 10
137.35342
 20
45.57722
 11
80.244043
 21
45.57722
  0
LINE
  8
文字
  6
CONTINUOUS
 10
137.35342
 20
20.050848
 11
80.244043
 21
20.050848
  0
LINE
  8
文字
  6
CONTINUOUS
 10
127.807775
 20
51.815152
 11
127.807775
 21
46.90238
  0
LINE
  8
文字
  6
CONTINUOUS
 10
-73.20561
 20
-70.743062
 11
-73.20561
 21
-12.609317
  0
LINE
  8
文字
  6
CONTINUOUS
 10
48.987728
 20
-70.743062
 11
48.987728
 21
-12.609317
  0
LINE
  8
文字
  6
CONTINUOUS
 10
65.401215
 20
-61.743062
 11
51.797535
 21
-61.743062
  0
LINE
  8
文字
  6
CONTINUOUS
 10
141.310947
 20
-55.854007
 11
141.310947
 21
-62.81774
  0
LINE
  8
文字
  6
CONTINUOUS
 10
103.210947
 20
-55.854007
 11
103.210947
 21
-62.81774
  0
TEXT
  7
TextStyle03
  8
文字
  6
CONTINUOUS
 10
122.775
 20
-77.35
  1
網入り6.8t
 40
3.0
 72
     5
 11
139.4625
 21
-77.35
  0
TEXT
  7
TextStyle03
  8
文字
  6
CONTINUOUS
 10
129.45
 20
-82.025
  1
×３枚
 40
3.0
 72
     5
 11
139.2
 21
-82.025
  0
TEXT
  7
TextStyle03
  8
文字
  6
CONTINUOUS
 10
59.65
 20
125.25
  1
シリーズ：ＴＦＦＬ
 40
5.0
 72
     5
 11
109.65
 21
125.25
  0
TEXT
  7
TextStyle03
  8
文字
  6
CONTINUOUS
 10
59.65
 20
119.625
  1
　　　　　（上下可動）600×3500タイプ
 40
5.0
 72
     5
 11
163.0875
 21
119.625
  0
TEXT
  7
TextStyle03
  8
文字
  6
CONTINUOUS
 10
59.65
 20
114.0
  1
図面名　：外観姿図
 40
5.0
 72
     5
 11
109.65
 21
114.0
  0
TEXT
  7
TextStyle03
  8
文字
  6
CONTINUOUS
 10
59.65
 20
108.375
  1
　　　　　　
 40
5.0
 72
     5
 11
92.775
 21
108.375
  0
TEXT
  7
TextStyle03
  8
文字
  6
CONTINUOUS
 10
59.8
 20
104.525
  1
ＮＳコード：ＮＳＦＬ
 40
5.0
 72
     5
 11
115.425
 21
104.525
  0
INSERT
  2
*DIM_0002
  8
寸法
  6
CONTINUOUS
 10
0.0
 20
0.0
  0
INSERT
  2
*DIM_0003
  8
寸法
  6
CONTINUOUS
 10
0.0
 20
0.0
  0
INSERT
  2
*DIM_0004
  8
寸法
  6
CONTINUOUS
 10
0.0
 20
0.0
  0
INSERT
  2
*DIM_0005
  8
寸法
  6
CONTINUOUS
 10
0.0
 20
0.0
  0
INSERT
  2
*DIM_0006
  8
寸法
  6
CONTINUOUS
 10
0.0
 20
0.0
  0
INSERT
  2
*DIM_0007
  8
寸法
  6
CONTINUOUS
 10
0.0
 20
0.0
  0
INSERT
  2
*DIM_0008
  8
寸法
  6
CONTINUOUS
 10
0.0
 20
0.0
  0
INSERT
  2
*DIM_0009
  8
寸法
  6
CONTINUOUS
 10
0.0
 20
0.0
  0
INSERT
  2
*DIM_0011
  8
寸法
  6
CONTINUOUS
 10
0.0
 20
0.0
  0
INSERT
  2
*DIM_0012
  8
寸法
  6
CONTINUOUS
 10
0.0
 20
0.0
  0
INSERT
  2
*DIM_0013
  8
寸法
  6
CONTINUOUS
 10
0.0
 20
0.0
  0
INSERT
  2
*DIM_0014
  8
寸法
  6
CONTINUOUS
 10
0.0
 20
0.0
  0
INSERT
  2
*DIM_0015
  8
寸法
  6
CONTINUOUS
 10
0.0
 20
0.0
  0
INSERT
  2
*DIM_0016
  8
寸法
  6
CONTINUOUS
 10
0.0
 20
0.0
  0
INSERT
  2
*DIM_0021
  8
寸法
  6
CONTINUOUS
 10
0.0
 20
0.0
  0
INSERT
  2
*DIM_0022
  8
寸法
  6
CONTINUOUS
 10
0.0
 20
0.0
  0
INSERT
  2
*DIM_0023
  8
寸法
  6
CONTINUOUS
 10
0.0
 20
0.0
  0
INSERT
  2
*DIM_0024
  8
寸法
  6
CONTINUOUS
 10
0.0
 20
0.0
  0
INSERT
  2
*DIM_0025
  8
寸法
  6
CONTINUOUS
 10
0.0
 20
0.0
  0
INSERT
  2
*DIM_0026
  8
寸法
  6
CONTINUOUS
 10
0.0
 20
0.0
  0
LINE
  8
別途部材
  6
CONTINUOUS
 62
    47
 10
135.241108
 20
20.980845
 11
135.307775
 21
20.980845
  0
ARC
  8
別途部材
  6
CONTINUOUS
 62
    47
 10
135.241108
 20
21.080846
 40
0.1
 50
180.0
 51
270.0
  0
LINE
  8
別途部材
  6
CONTINUOUS
 62
    47
 10
135.307775
 20
21.137368
 11
136.807775
 21
21.137368
  0
LINE
  8
別途部材
  6
CONTINUOUS
 62
    47
 10
139.124443
 20
20.050848
 11
139.124443
 21
32.814033
  0
LINE
  8
別途部材
  6
CONTINUOUS
 62
    47
 10
137.957777
 20
20.050848
 11
137.957777
 21
32.814033
  0
LINE
  8
別途部材
  6
CONTINUOUS
 62
    47
 10
136.807775
 20
21.137368
 11
136.807775
 21
32.814033
  0
LINE
  8
別途部材
  6
CONTINUOUS
 62
    47
 10
135.307775
 20
20.980845
 11
135.307775
 21
32.814033
  0
LINE
  8
別途部材
  6
CONTINUOUS
 62
    47
 10
135.141108
 20
21.080845
 11
135.141108
 21
32.814033
  0
LINE
  8
別途部材
  6
CONTINUOUS
 62
    47
 10
135.241108
 20
44.647222
 11
135.307775
 21
44.647222
  0
ARC
  8
別途部材
  6
CONTINUOUS
 62
    47
 10
135.241108
 20
44.547222
 40
0.1
 50
90.0
 51
180.0
  0
LINE
  8
別途部材
  6
CONTINUOUS
 62
    47
 10
135.307775
 20
44.4907
 11
136.807775
 21
44.4907
  0
LINE
  8
別途部材
  6
CONTINUOUS
 62
    47
 10
139.124443
 20
45.57722
 11
139.124443
 21
32.814033
  0
LINE
  8
別途部材
  6
CONTINUOUS
 62
    47
 10
137.957777
 20
45.57722
 11
137.957777
 21
32.814033
  0
LINE
  8
別途部材
  6
CONTINUOUS
 62
    47
 10
136.807775
 20
44.4907
 11
136.807775
 21
32.814033
  0
LINE
  8
別途部材
  6
CONTINUOUS
 62
    47
 10
135.307775
 20
44.647222
 11
135.307775
 21
32.814033
  0
LINE
  8
別途部材
  6
CONTINUOUS
 62
    47
 10
135.141108
 20
44.547222
 11
135.141108
 21
32.814033
  0
LINE
  8
別途部材
  6
CONTINUOUS
 62
    47
 10
-72.275612
 20
-69.176395
 11
-72.275612
 21
-69.243062
  0
ARC
  8
別途部材
  6
CONTINUOUS
 62
    47
 10
-72.17561
 20
-69.176398
 40
0.1
 50
90.0
 51
180.0
  0
LINE
  8
別途部材
  6
CONTINUOUS
 62
    47
 10
-72.11909
 20
-69.243062
 11
-72.11909
 21
-70.743062
  0
LINE
  8
別途部材
  6
DOT
 62
    47
 10
-72.275612
 20
-61.843062
 11
-72.275612
 21
-61.90973
  0
ARC
  8
別途部材
  6
DOT
 62
    47
 10
-72.17561
 20
-61.843064
 40
0.1
 50
90.0
 51
180.0
  0
LINE
  8
別途部材
  6
DOT
 62
    47
 10
-72.11909
 20
-61.90973
 11
-72.11909
 21
-63.40973
  0
LINE
  8
別途部材
  6
CONTINUOUS
 62
    47
 10
48.05773
 20
-69.176395
 11
48.05773
 21
-69.243062
  0
ARC
  8
別途部材
  6
CONTINUOUS
 62
    47
 10
47.957726
 20
-69.176398
 40
0.1
 50
0.0
 51
90.0
  0
LINE
  8
別途部材
  6
CONTINUOUS
 62
    47
 10
47.901208
 20
-69.243062
 11
47.901208
 21
-70.743062
  0
LINE
  8
別途部材
  6
DOT
 62
    47
 10
48.05773
 20
-61.843062
 11
48.05773
 21
-61.90973
  0
ARC
  8
別途部材
  6
DOT
 62
    47
 10
47.957726
 20
-61.843064
 40
0.1
 50
0.0
 51
90.0
  0
LINE
  8
別途部材
  6
DOT
 62
    47
 10
47.901208
 20
-61.90973
 11
47.901208
 21
-63.40973
  0
LINE
  8
別途部材
  6
DOT
 62
    47
 10
-72.11909
 20
-63.40973
 11
-12.10894
 21
-63.40973
  0
LINE
  8
別途部材
  6
DOT
 62
    47
 10
-72.275612
 20
-61.90973
 11
-12.10894
 21
-61.90973
  0
LINE
  8
別途部材
  6
DOT
 62
    47
 10
-72.175612
 20
-61.743062
 11
-12.10894
 21
-61.743062
  0
LINE
  8
別途部材
  6
DOT
 62
    47
 10
-73.20561
 20
-64.559732
 11
-12.10894
 21
-64.559732
  0
LINE
  8
別途部材
  6
DOT
 62
    47
 10
-73.20561
 20
-65.726397
 11
-12.10894
 21
-65.726397
  0
LINE
  8
別途部材
  6
CONTINUOUS
 62
    47
 10
-72.175612
 20
-69.076395
 11
-12.10894
 21
-69.076395
  0
LINE
  8
別途部材
  6
CONTINUOUS
 62
    47
 10
-72.275612
 20
-69.243062
 11
-12.10894
 21
-69.243062
  0
LINE
  8
別途部材
  6
CONTINUOUS
 62
    47
 10
-72.11909
 20
-70.743062
 11
-12.10894
 21
-70.743062
  0
LINE
  8
別途部材
  6
CONTINUOUS
 62
    47
 10
-73.20561
 20
-71.893065
 11
-12.10894
 21
-71.893065
  0
LINE
  8
別途部材
  6
CONTINUOUS
 62
    47
 10
-73.20561
 20
-73.05973
 11
-12.10894
 21
-73.05973
  0
LINE
  8
別途部材
  6
CONTINUOUS
 62
    47
 10
48.987728
 20
-73.05973
 11
-12.10894
 21
-73.05973
  0
LINE
  8
別途部材
  6
CONTINUOUS
 62
    47
 10
48.987728
 20
-71.893065
 11
-12.10894
 21
-71.893065
  0
LINE
  8
別途部材
  6
CONTINUOUS
 62
    47
 10
47.901208
 20
-70.743062
 11
-12.10894
 21
-70.743062
  0
LINE
  8
別途部材
  6
CONTINUOUS
 62
    47
 10
48.05773
 20
-69.243062
 11
-12.10894
 21
-69.243062
  0
LINE
  8
別途部材
  6
CONTINUOUS
 62
    47
 10
47.95773
 20
-69.076395
 11
-12.10894
 21
-69.076395
  0
LINE
  8
別途部材
  6
DOT
 62
    47
 10
48.987728
 20
-65.726397
 11
-12.10894
 21
-65.726397
  0
LINE
  8
別途部材
  6
DOT
 62
    47
 10
48.987728
 20
-64.559732
 11
-12.10894
 21
-64.559732
  0
LINE
  8
別途部材
  6
DOT
 62
    47
 10
47.901208
 20
-63.40973
 11
-12.10894
 21
-63.40973
  0
LINE
  8
別途部材
  6
DOT
 62
    47
 10
47.95773
 20
-61.743062
 11
-12.10894
 21
-61.743062
  0
LINE
  8
別途部材
  6
DOT
 62
    47
 10
48.05773
 20
-61.90973
 11
-12.10894
 21
-61.90973
  0
LINE
  8
別途部材
  6
CONTINUOUS
 10
103.210947
 20
-63.785395
 11
103.210947
 21
-83.785395
  0
LINE
  8
曲げ物
  6
CONTINUOUS
 10
28.944153
 20
34.739582
 11
25.24884
 21
31.04427
  0
LINE
  8
曲げ物
  6
CONTINUOUS
 10
28.240683
 20
33.203472
 11
26.784952
 21
31.747742
  0
LINE
  8
曲げ物
  6
CONTINUOUS
 10
27.408043
 20
34.036112
 11
25.952312
 21
32.580383
  0
LINE
  8
曲げ物
  6
CONTINUOUS
 10
-10.21441
 20
34.739582
 11
-13.909723
 21
31.04427
  0
LINE
  8
曲げ物
  6
CONTINUOUS
 10
-10.91788
 20
33.203472
 11
-12.37361
 21
31.747742
  0
LINE
  8
曲げ物
  6
CONTINUOUS
 10
-11.75052
 20
34.036112
 11
-13.20625
 21
32.580383
  0
LINE
  8
曲げ物
  6
CONTINUOUS
 10
-49.553438
 20
34.739582
 11
-53.24875
 21
31.04427
  0
LINE
  8
曲げ物
  6
CONTINUOUS
 10
-50.256908
 20
33.203472
 11
-51.712637
 21
31.747742
  0
LINE
  8
曲げ物
  6
CONTINUOUS
 10
-51.089548
 20
34.036112
 11
-52.545277
 21
32.580383
  0
LINE
  8
曲げ物
  6
CONTINUOUS
 10
141.310947
 20
-63.785395
 11
103.210947
 21
-63.785395
  0
LINE
  8
曲げ物
  6
CONTINUOUS
 10
141.310947
 20
-83.785395
 11
103.210947
 21
-83.785395
  0
LINE
  8
曲げ物
  6
CONTINUOUS
 10
141.310947
 20
-63.785395
 11
141.310947
 21
-83.785395
  0
LINE
  8
鉄骨等
  6
CONTINUOUS
 62
    47
 10
139.124443
 20
20.050848
 11
137.957777
 21
20.050848
  0
LINE
  8
鉄骨等
  6
CONTINUOUS
 62
    47
 10
137.957777
 20
20.050848
 11
136.807777
 21
21.454032
  0
LINE
  8
鉄骨等
  6
CONTINUOUS
 62
    47
 10
139.124443
 20
45.57722
 11
137.957777
 21
45.57722
  0
LINE
  8
鉄骨等
  6
CONTINUOUS
 62
    47
 10
137.957777
 20
45.57722
 11
136.807777
 21
44.174033
  0
LINE
  8
鉄骨等
  6
CONTINUOUS
 62
    47
 10
-73.20561
 20
-73.05973
 11
-73.20561
 21
-71.893065
  0
LINE
  8
鉄骨等
  6
CONTINUOUS
 62
    47
 10
-73.20561
 20
-71.893065
 11
-71.802425
 21
-70.743065
  0
LINE
  8
鉄骨等
  6
DOT
 62
    47
 10
-73.20561
 20
-65.726397
 11
-73.20561
 21
-64.559732
  0
LINE
  8
鉄骨等
  6
DOT
 62
    47
 10
-73.20561
 20
-64.559732
 11
-71.802425
 21
-63.409732
  0
LINE
  8
鉄骨等
  6
CONTINUOUS
 62
    47
 10
48.987728
 20
-73.05973
 11
48.987728
 21
-71.893065
  0
LINE
  8
鉄骨等
  6
CONTINUOUS
 62
    47
 10
48.987728
 20
-71.893065
 11
47.584542
 21
-70.743065
  0
LINE
  8
鉄骨等
  6
DOT
 62
    47
 10
48.987728
 20
-65.726397
 11
48.987728
 21
-64.559732
  0
LINE
  8
鉄骨等
  6
DOT
 62
    47
 10
48.987728
 20
-64.559732
 11
47.584542
 21
-63.409732
  0
ENDSEC
  0
EOF
