  0
SECTION
  2
HEADER
  9
$EXTMIN
 10
-210.0
 20
-148.5
  9
$EXTMAX
 10
210.0
 20
148.5
  9
$PDMODE
 70
    32
  9
$PDSIZE
 40
1.5
  9
$LTSCALE
 40
10.0
  0
ENDSEC
  0
SECTION
  2
TABLES
  0
TABLE
  2
LTYPE
 70
    15
  0
LTYPE
  2
CONTINUOUS
 70
    64
  3
実線
 72
    65
 73
     0
 40
0.0
  0
LTYPE
  2
DASHED
 70
    64
  3
破線A
 72
    65
 73
     2
 40
0.6
 49
0.4
 49
-0.2
  0
LTYPE
  2
DASHEDX2
 70
    64
  3
破線B
 72
    65
 73
     2
 40
1.3
 49
0.9
 49
-0.4
  0
LTYPE
  2
DASHDOT
 70
    64
  3
１点鎖線A
 72
    65
 73
     4
 40
0.5375
 49
0.375
 49
-0.05
 49
0.0625
 49
-0.05
  0
LTYPE
  2
DASHDOTX2
 70
    64
  3
１点鎖線B
 72
    65
 73
     4
 40
1.075
 49
0.75
 49
-0.1
 49
0.125
 49
-0.1
  0
LTYPE
  2
DIVIDE2
 70
    64
  3
２点鎖線A
 72
    65
 73
     6
 40
0.5125
 49
0.3
 49
-0.0375
 49
0.05
 49
-0.0375
 49
0.05
 49
-0.0375
  0
LTYPE
  2
DIVIDE
 70
    64
  3
２点鎖線B
 72
    65
 73
     6
 40
1.05
 49
0.55
 49
-0.1
 49
0.1
 49
-0.1
 49
0.1
 49
-0.1
  0
LTYPE
  2
DOT
 70
    64
  3
点線A
 72
    65
 73
     2
 40
0.1125
 49
0.0625
 49
-0.05
  0
LTYPE
  2
DOTX2
 70
    64
  3
点線B
 72
    65
 73
     2
 40
0.275
 49
0.15
 49
-0.125
  0
LTYPE
  2
CONTINUOUS
 70
    64
  3
実線
 72
    65
 73
     0
 40
0.0
  0
LTYPE
  2
CONTINUOUS
 70
    64
  3
実線
 72
    65
 73
     0
 40
0.0
  0
LTYPE
  2
CONTINUOUS
 70
    64
  3
実線
 72
    65
 73
     0
 40
0.0
  0
LTYPE
  2
CONTINUOUS
 70
    64
  3
実線
 72
    65
 73
     0
 40
0.0
  0
LTYPE
  2
CONTINUOUS
 70
    64
  3
実線
 72
    65
 73
     0
 40
0.0
  0
LTYPE
  2
CONTINUOUS
 70
    64
  3
実線
 72
    65
 73
     0
 40
0.0
  0
ENDTAB
  0
TABLE
  2
LAYER
 70
    34
  0
LAYER
  2
通り芯
 70
     0
 62
    15
  6
CONTINUOUS
  0
LAYER
  2
補助線
 70
     0
 62
    16
  6
DOT
  0
LAYER
  2
躯体
 70
     0
 62
    31
  6
CONTINUOUS
  0
LAYER
  2
型材
 70
     0
 62
    32
  6
CONTINUOUS
  0
LAYER
  2
型材断面
 70
     0
 62
    47
  6
CONTINUOUS
  0
LAYER
  2
ガラス
 70
     0
 62
    48
  6
CONTINUOUS
  0
LAYER
  2
ゴム等
 70
     0
 62
    63
  6
CONTINUOUS
  0
LAYER
  2
ボルト／ビス
 70
     0
 62
    64
  6
CONTINUOUS
  0
LAYER
  2
文字
 70
     0
 62
    79
  6
CONTINUOUS
  0
LAYER
  2
寸法
 70
     0
 62
    80
  6
CONTINUOUS
  0
LAYER
  2
ﾊｯﾁﾝｸﾞ
 70
     0
 62
    95
  6
CONTINUOUS
  0
LAYER
  2
別途部材
 70
     0
 62
    96
  6
CONTINUOUS
  0
LAYER
  2
曲げ物
 70
     0
 62
   111
  6
CONTINUOUS
  0
LAYER
  2
鉄骨等
 70
     0
 62
   112
  6
CONTINUOUS
  0
LAYER
  2
St
 70
     0
 62
   127
  6
CONTINUOUS
  0
LAYER
  2
その他部品等
 70
     0
 62
   128
  6
CONTINUOUS
  0
LAYER
  2
ｶﾞｽｹｯﾄ
 70
     0
 62
   143
  6
CONTINUOUS
  0
LAYER
  2
ｽｹｯﾁ
 70
     0
 62
    14
  6
CONTINUOUS
  0
LAYER
  2
0
 70
     0
 62
    17
  6
CONTINUOUS
  0
LAYER
  2
1
 70
     0
 62
    30
  6
CONTINUOUS
  0
LAYER
  2
4
 70
     0
 62
    33
  6
CONTINUOUS
  0
LAYER
  2
ﾚｲﾔ3
 70
     0
 62
    46
  6
CONTINUOUS
  0
LAYER
  2
外形線
 70
     0
 62
    49
  6
CONTINUOUS
  0
LAYER
  2
部品
 70
     0
 62
    14
  6
CONTINUOUS
  0
LAYER
  2
サッシ芯
 70
     0
 62
    17
  6
DASHDOTX2
  0
LAYER
  2
寸法線
 70
     0
 62
    62
  6
CONTINUOUS
  0
LAYER
  2
姿図外形線
 70
     0
 62
    65
  6
CONTINUOUS
  0
LAYER
  2
姿補助線
 70
     0
 62
    30
  6
CONTINUOUS
  0
LAYER
  2
透視線
 70
     0
 62
    78
  6
DOT
  0
LAYER
  2
用紙
 70
     0
 62
    81
  6
CONTINUOUS
  0
LAYER
  2
実線図枠
 70
     0
 62
    94
  6
CONTINUOUS
  0
LAYER
  2
補助図枠
 70
     0
 62
    97
  6
CONTINUOUS
  0
LAYER
  2
建具記号
 70
     0
 62
   110
  6
CONTINUOUS
  0
LAYER
  2
補助文字
 70
     0
 62
   113
  6
CONTINUOUS
  0
ENDTAB
  0
TABLE
  2
STYLE
 70
    10
  0
STYLE
  2
STANDARD
 70
     0
 40
1.0
 41
1.0
 42
1.0
 50
0.0
 71
     0
  3
TXT
  4
BIGFONT
  0
STYLE
  2
TATE
 70
     4
 40
1.0
 41
1.0
 42
1.0
 50
0.0
 71
     0
  3
TXT
  4
BIGFONT
  0
STYLE
  2
TextStyle03
 70
     0
 40
1.0
 41
1.0
 42
1.0
 50
0.0
 71
     0
  3
MONOTXT
  4
BIGFONT
  0
STYLE
  2
TextStyle04
 70
     0
 40
1.0
 41
1.0
 42
1.0
 50
0.0
 71
     0
  3
MONOTXT
  4
BIGFONT
  0
STYLE
  2
TextStyle05
 70
     0
 40
1.0
 41
1.0
 42
1.0
 50
0.0
 71
     0
  3
MONOTXT
  4
BIGFONT
  0
STYLE
  2
TextStyle06
 70
     0
 40
1.0
 41
1.0
 42
1.0
 50
0.0
 71
     0
  3
MONOTXT
  4
BIGFONT
  0
STYLE
  2
TextStyle07
 70
     0
 40
1.0
 41
1.0
 42
1.0
 50
0.0
 71
     0
  3
MONOTXT
  4
BIGFONT
  0
STYLE
  2
TextStyle08
 70
     0
 40
1.0
 41
1.0
 42
1.0
 50
0.0
 71
     0
  3
MONOTXT
  4
BIGFONT
  0
STYLE
  2
TextStyle09
 70
     0
 40
1.0
 41
1.0
 42
1.0
 50
0.0
 71
     0
  3
MONOTXT
  4
BIGFONT
  0
STYLE
  2
TextStyle10
 70
     0
 40
1.0
 41
1.0
 42
1.0
 50
0.0
 71
     0
  3
MONOTXT
  4
BIGFONT
  0
ENDTAB
  0
ENDSEC
  0
SECTION
  2
BLOCKS
  0
BLOCK
  2
*GRP_0001
 70
    65
 10
0.0
 20
0.0
  0
LINE
  8
型材断面
  6
CONTINUOUS
 10
195.0
 20
133.5
 11
195.0
 21
-133.5
  0
LINE
  8
型材断面
  6
CONTINUOUS
 10
195.0
 20
-133.5
 11
-185.0
 21
-133.5
  0
LINE
  8
型材断面
  6
CONTINUOUS
 10
-185.0
 20
-133.5
 11
-185.0
 21
133.5
  0
LINE
  8
型材断面
  6
CONTINUOUS
 10
195.0
 20
133.5
 11
-185.0
 21
133.5
  0
LINE
  8
型材断面
  6
CONTINUOUS
 10
145.0
 20
-133.5
 11
145.0
 21
-118.5
  0
LINE
  8
型材断面
  6
CONTINUOUS
 10
195.0
 20
-118.5
 11
145.0
 21
-118.5
  0
ENDBLK
  0
BLOCK
  2
*DIM_0002
 70
    65
 10
0.0
 20
0.0
  0
LINE
  8
寸法
  6
BYBLOCK
 62
     0
 10
-70.442273
 20
19.183902
 11
-70.442273
 21
14.13158
  0
LINE
  8
寸法
  6
BYBLOCK
 62
     0
 10
29.557723
 20
19.183902
 11
29.557723
 21
14.13158
  0
LINE
  8
寸法
  6
BYBLOCK
 62
     0
 10
-70.442273
 20
14.13158
 11
29.557723
 21
14.13158
  0
POINT
  8
寸法
 62
     0
 10
-70.442273
 20
14.13158
  0
POINT
  8
寸法
 62
     0
 10
29.557723
 20
14.13158
  0
TEXT
  7
TextStyle03
  8
寸法
  6
CONTINUOUS
 62
     0
 10
-23.73125
 20
14.5
  1
3000
 40
3.0
 72
     5
 11
-17.16875
 21
14.5
  0
ENDBLK
  0
BLOCK
  2
*DIM_0003
 70
    65
 10
0.0
 20
0.0
  0
LINE
  8
寸法
  6
BYBLOCK
 62
     0
 10
47.224393
 20
42.814035
 11
56.948675
 21
42.814035
  0
LINE
  8
寸法
  6
BYBLOCK
 62
     0
 10
49.854522
 20
39.114035
 11
56.948675
 21
39.114035
  0
LINE
  8
寸法
  6
BYBLOCK
 62
     0
 10
56.948675
 20
42.814035
 11
56.948675
 21
39.114035
  0
POINT
  8
寸法
 62
     0
 10
56.948675
 20
42.814035
  0
POINT
  8
寸法
 62
     0
 10
56.948675
 20
39.114035
  0
TEXT
  7
TextStyle03
  8
寸法
  6
CONTINUOUS
 62
     0
 10
56.625
 20
43.8125
  1
111
 40
3.0
 50
90.0
 72
     5
 11
56.625
 21
48.6875
  0
ENDBLK
  0
BLOCK
  2
*DIM_0004
 70
    65
 10
0.0
 20
0.0
  0
LINE
  8
寸法
  6
BYBLOCK
 62
     0
 10
47.224393
 20
22.81403
 11
56.948675
 21
22.814027
  0
LINE
  8
寸法
  6
BYBLOCK
 62
     0
 10
49.854522
 20
26.51403
 11
56.948675
 21
26.514027
  0
LINE
  8
寸法
  6
BYBLOCK
 62
     0
 10
56.948675
 20
22.814027
 11
56.948675
 21
26.514027
  0
POINT
  8
寸法
 62
     0
 10
56.948675
 20
22.814027
  0
POINT
  8
寸法
 62
     0
 10
56.948675
 20
26.514027
  0
TEXT
  7
TextStyle03
  8
寸法
  6
CONTINUOUS
 62
     0
 10
56.95
 20
16.5625
  1
111
 40
3.0
 50
90.0
 72
     5
 11
56.95
 21
21.4375
  0
ENDBLK
  0
BLOCK
  2
*DIM_0005
 70
    65
 10
0.0
 20
0.0
  0
LINE
  8
寸法
  6
BYBLOCK
 62
     0
 10
-90.10894
 20
39.4807
 11
-103.401778
 21
39.4807
  0
LINE
  8
寸法
  6
BYBLOCK
 62
     0
 10
-90.10894
 20
26.147365
 11
-103.401778
 21
26.147365
  0
LINE
  8
寸法
  6
BYBLOCK
 62
     0
 10
-103.401778
 20
39.4807
 11
-103.401778
 21
26.147365
  0
POINT
  8
寸法
 62
     0
 10
-103.401778
 20
39.4807
  0
POINT
  8
寸法
 62
     0
 10
-103.401778
 20
26.147365
  0
TEXT
  7
TextStyle03
  8
寸法
  6
CONTINUOUS
 62
     0
 10
-103.825
 20
30.3625
  1
400
 40
3.0
 50
90.0
 72
     5
 11
-103.825
 21
35.2375
  0
ENDBLK
  0
BLOCK
  2
*DIM_0006
 70
    65
 10
0.0
 20
0.0
  0
LINE
  8
寸法
  6
BYBLOCK
 62
     0
 10
-78.775608
 20
45.814033
 11
-78.775608
 21
74.922105
  0
LINE
  8
寸法
  6
BYBLOCK
 62
     0
 10
-55.442275
 20
45.814033
 11
-55.442275
 21
74.922105
  0
LINE
  8
寸法
  6
BYBLOCK
 62
     0
 10
-78.775608
 20
74.922105
 11
-55.442275
 21
74.922105
  0
POINT
  8
寸法
 62
     0
 10
-78.775608
 20
74.922105
  0
POINT
  8
寸法
 62
     0
 10
-55.442275
 20
74.922105
  0
TEXT
  7
TextStyle03
  8
寸法
  6
CONTINUOUS
 62
     0
 10
-69.5625
 20
75.275
  1
700
 40
3.0
 72
     5
 11
-64.6875
 21
75.275
  0
ENDBLK
  0
BLOCK
  2
*DIM_0007
 70
    65
 10
0.0
 20
0.0
  0
LINE
  8
寸法
  6
BYBLOCK
 62
     0
 10
-32.108943
 20
45.814033
 11
-32.108943
 21
74.922105
  0
LINE
  8
寸法
  6
BYBLOCK
 62
     0
 10
-55.442275
 20
74.922105
 11
-32.108943
 21
74.922105
  0
POINT
  8
寸法
 62
     0
 10
-32.108943
 20
74.922105
  0
TEXT
  7
TextStyle03
  8
寸法
  6
CONTINUOUS
 62
     0
 10
-46.2375
 20
75.275
  1
700
 40
3.0
 72
     5
 11
-41.3625
 21
75.275
  0
ENDBLK
  0
BLOCK
  2
*DIM_0008
 70
    65
 10
0.0
 20
0.0
  0
LINE
  8
寸法
  6
BYBLOCK
 62
     0
 10
-8.775608
 20
45.814033
 11
-8.775608
 21
74.922105
  0
LINE
  8
寸法
  6
BYBLOCK
 62
     0
 10
-32.108943
 20
74.922105
 11
-8.775608
 21
74.922105
  0
POINT
  8
寸法
 62
     0
 10
-8.775608
 20
74.922105
  0
TEXT
  7
TextStyle03
  8
寸法
  6
CONTINUOUS
 62
     0
 10
-22.9125
 20
75.275
  1
700
 40
3.0
 72
     5
 11
-18.0375
 21
75.275
  0
ENDBLK
  0
BLOCK
  2
*DIM_0009
 70
    65
 10
0.0
 20
0.0
  0
LINE
  8
寸法
  6
BYBLOCK
 62
     0
 10
14.557725
 20
45.814033
 11
14.557725
 21
74.922105
  0
LINE
  8
寸法
  6
BYBLOCK
 62
     0
 10
-8.775608
 20
74.922105
 11
14.557725
 21
74.922105
  0
POINT
  8
寸法
 62
     0
 10
14.557725
 20
74.922105
  0
TEXT
  7
TextStyle03
  8
寸法
  6
CONTINUOUS
 62
     0
 10
0.4375
 20
75.275
  1
700
 40
3.0
 72
     5
 11
5.3125
 21
75.275
  0
ENDBLK
  0
BLOCK
  2
*DIM_0010
 70
    65
 10
0.0
 20
0.0
  0
LINE
  8
寸法
  6
BYBLOCK
 62
     0
 10
37.891057
 20
45.814033
 11
37.891057
 21
74.922105
  0
LINE
  8
寸法
  6
BYBLOCK
 62
     0
 10
14.557725
 20
74.922105
 11
37.891057
 21
74.922105
  0
POINT
  8
寸法
 62
     0
 10
37.891057
 20
74.922105
  0
TEXT
  7
TextStyle03
  8
寸法
  6
CONTINUOUS
 62
     0
 10
23.7625
 20
75.275
  1
700
 40
3.0
 72
     5
 11
28.6375
 21
75.275
  0
ENDBLK
  0
BLOCK
  2
*GRP_0011
 70
    65
 10
0.0
 20
0.0
  0
LINE
  8
別途部材
  6
DOT
 62
    47
 10
127.907775
 20
20.980845
 11
127.974443
 21
20.980845
  0
ARC
  8
別途部材
  6
DOT
 62
    47
 10
127.907778
 20
21.080846
 40
0.1
 50
180.0
 51
270.0
  0
LINE
  8
別途部材
  6
DOT
 62
    47
 10
127.974443
 20
21.137368
 11
129.474443
 21
21.137368
  0
LINE
  8
別途部材
  6
DOT
 62
    47
 10
131.79111
 20
20.050848
 11
131.79111
 21
32.814033
  0
LINE
  8
別途部材
  6
DOT
 62
    47
 10
130.624445
 20
20.050848
 11
130.624445
 21
32.814033
  0
LINE
  8
別途部材
  6
DOT
 62
    47
 10
129.474443
 20
21.137368
 11
129.474443
 21
32.814033
  0
LINE
  8
別途部材
  6
DOT
 62
    47
 10
127.974443
 20
20.980845
 11
127.974443
 21
32.814033
  0
LINE
  8
別途部材
  6
DOT
 62
    47
 10
127.807775
 20
21.080845
 11
127.807775
 21
32.814033
  0
LINE
  8
別途部材
  6
DOT
 62
    47
 10
127.907775
 20
44.647222
 11
127.974443
 21
44.647222
  0
ARC
  8
別途部材
  6
DOT
 62
    47
 10
127.907778
 20
44.547222
 40
0.1
 50
90.0
 51
180.0
  0
LINE
  8
別途部材
  6
DOT
 62
    47
 10
127.974443
 20
44.4907
 11
129.474443
 21
44.4907
  0
LINE
  8
別途部材
  6
DOT
 62
    47
 10
131.79111
 20
45.57722
 11
131.79111
 21
32.814033
  0
LINE
  8
別途部材
  6
DOT
 62
    47
 10
130.624445
 20
45.57722
 11
130.624445
 21
32.814033
  0
LINE
  8
別途部材
  6
DOT
 62
    47
 10
129.474443
 20
44.4907
 11
129.474443
 21
32.814033
  0
LINE
  8
別途部材
  6
DOT
 62
    47
 10
127.974443
 20
44.647222
 11
127.974443
 21
32.814033
  0
LINE
  8
別途部材
  6
DOT
 62
    47
 10
127.807775
 20
44.547222
 11
127.807775
 21
32.814033
  0
LINE
  8
鉄骨等
  6
DOT
 62
    47
 10
131.79111
 20
20.050848
 11
130.624445
 21
20.050848
  0
LINE
  8
鉄骨等
  6
DOT
 62
    47
 10
130.624445
 20
20.050848
 11
129.474445
 21
21.454032
  0
LINE
  8
鉄骨等
  6
DOT
 62
    47
 10
131.79111
 20
45.57722
 11
130.624445
 21
45.57722
  0
LINE
  8
鉄骨等
  6
DOT
 62
    47
 10
130.624445
 20
45.57722
 11
129.474445
 21
44.174033
  0
ENDBLK
  0
BLOCK
  2
*DIM_0012
 70
    65
 10
0.0
 20
0.0
  0
LINE
  8
寸法
  6
BYBLOCK
 62
     0
 10
80.244043
 20
22.814035
 11
80.244043
 21
42.814035
  0
POINT
  8
寸法
 62
     0
 10
80.244043
 20
22.814035
  0
POINT
  8
寸法
 62
     0
 10
80.244043
 20
42.814035
  0
TEXT
  7
TextStyle03
  8
寸法
  6
CONTINUOUS
 62
     0
 10
79.875
 20
21.925
  1
呼称寸法　600
 40
3.0
 50
90.0
 72
     5
 11
79.875
 21
43.675
  0
ENDBLK
  0
BLOCK
  2
*DIM_0013
 70
    65
 10
0.0
 20
0.0
  0
LINE
  8
寸法
  6
CONTINUOUS
 10
80.244043
 20
45.57722
 11
80.244043
 21
42.814035
  0
POINT
  8
寸法
 10
80.244043
 20
45.57722
  0
POINT
  8
寸法
 10
80.244043
 20
42.814035
  0
TEXT
  7
TextStyle03
  8
寸法
  6
CONTINUOUS
 10
81.65
 20
46.64375
  1
82.9
 40
3.0
 50
90.0
 72
     5
 11
81.65
 21
53.20625
  0
ENDBLK
  0
BLOCK
  2
*DIM_0014
 70
    65
 10
0.0
 20
0.0
  0
LINE
  8
寸法
  6
CONTINUOUS
 10
80.244043
 20
22.814035
 11
80.244043
 21
20.050848
  0
POINT
  8
寸法
 10
80.244043
 20
22.814035
  0
POINT
  8
寸法
 10
80.244043
 20
20.050848
  0
TEXT
  7
TextStyle03
  8
寸法
  6
CONTINUOUS
 10
81.65
 20
12.41875
  1
82.9
 40
3.0
 50
90.0
 72
     5
 11
81.65
 21
18.98125
  0
ENDBLK
  0
BLOCK
  2
*DIM_0015
 70
    65
 10
0.0
 20
0.0
  0
LINE
  8
寸法
  6
CONTINUOUS
 10
-87.108945
 20
-12.609317
 11
-89.872278
 21
-12.609317
  0
POINT
  8
寸法
 10
-87.108945
 20
-12.609317
  0
POINT
  8
寸法
 10
-89.872278
 20
-12.609317
  0
TEXT
  7
TextStyle03
  8
寸法
  6
CONTINUOUS
 10
-94.45625
 20
-11.675
  1
82.9
 40
3.0
 72
     5
 11
-87.89375
 21
-11.675
  0
ENDBLK
  0
BLOCK
  2
*DIM_0016
 70
    65
 10
0.0
 20
0.0
  0
LINE
  8
寸法
  6
CONTINUOUS
 10
48.987728
 20
-12.609317
 11
46.224393
 21
-12.609317
  0
POINT
  8
寸法
 10
48.987728
 20
-12.609317
  0
POINT
  8
寸法
 10
46.224393
 20
-12.609317
  0
TEXT
  7
TextStyle03
  8
寸法
  6
CONTINUOUS
 10
47.26875
 20
-11.725
  1
82.9
 40
3.0
 72
     5
 11
53.83125
 21
-11.725
  0
ENDBLK
  0
BLOCK
  2
*DIM_0017
 70
    65
 10
0.0
 20
0.0
  0
LINE
  8
寸法
  6
CONTINUOUS
 10
-87.10894
 20
-12.609317
 11
46.224393
 21
-12.609317
  0
POINT
  8
寸法
 10
-87.10894
 20
-12.609317
  0
POINT
  8
寸法
 10
46.224393
 20
-12.609317
  0
TEXT
  7
TextStyle03
  8
寸法
  6
CONTINUOUS
 10
-32.16875
 20
-12.25
  1
呼称寸法　4000
 40
3.0
 72
     5
 11
-8.73125
 21
-12.25
  0
ENDBLK
  0
BLOCK
  2
*GRP_0018
 70
    65
 10
0.0
 20
0.0
  0
LINE
  8
補助線
  6
BYBLOCK
 62
    64
 10
-75.36781
 20
-74.615697
 11
-75.516735
 21
-74.690523
  0
LINE
  8
補助線
  6
BYBLOCK
 62
    64
 10
-75.479685
 20
-74.578645
 11
-75.40486
 21
-74.727573
  0
LINE
  8
補助線
  6
BYBLOCK
 62
    64
 10
-65.44933
 20
-69.63234
 11
-65.598258
 21
-69.707165
  0
LINE
  8
補助線
  6
BYBLOCK
 62
    64
 10
-65.561207
 20
-69.595287
 11
-65.486383
 21
-69.744215
  0
LINE
  8
補助線
  6
BYBLOCK
 62
    64
 10
-55.67978
 20
-64.723808
 11
-55.530853
 21
-64.648982
  0
LINE
  8
補助線
  6
BYBLOCK
 62
    64
 10
-55.64273
 20
-64.61193
 11
-55.567905
 21
-64.760858
  0
LINE
  8
型材断面
  6
CONTINUOUS
 10
-76.11425
 20
-74.058133
 11
-76.336553
 21
-74.729385
  0
LINE
  8
型材断面
  6
CONTINUOUS
 10
-76.336553
 20
-74.729385
 11
-76.03725
 21
-75.32509
  0
LINE
  8
型材断面
  6
CONTINUOUS
 10
-76.03725
 20
-75.32509
 11
-75.365997
 21
-75.547393
  0
LINE
  8
型材断面
  6
CONTINUOUS
 10
-55.681592
 20
-63.792115
 11
-55.010337
 21
-64.014418
  0
LINE
  8
型材断面
  6
CONTINUOUS
 10
-55.010337
 20
-64.014418
 11
-54.711035
 21
-64.610123
  0
LINE
  8
型材断面
  6
CONTINUOUS
 10
-54.711035
 20
-64.610123
 11
-54.93334
 21
-65.281375
  0
LINE
  8
型材断面
  6
CONTINUOUS
 10
-76.11425
 20
-74.058133
 11
-55.681592
 21
-63.792115
  0
LINE
  8
型材断面
  6
CONTINUOUS
 10
-75.365997
 20
-75.547393
 11
-54.93334
 21
-65.281375
  0
CIRCLE
  8
ボルト／ビス
  6
CONTINUOUS
 10
-75.442273
 20
-74.65311
 40
0.250185
  0
CIRCLE
  8
ボルト／ビス
  6
CONTINUOUS
 10
-75.442273
 20
-74.65311
 40
0.301025
  0
LINE
  8
ボルト／ビス
  6
CONTINUOUS
 62
    64
 10
-75.692037
 20
-74.638608
 11
-75.554593
 21
-74.429558
  0
LINE
  8
ボルト／ビス
  6
CONTINUOUS
 62
    64
 10
-75.304828
 20
-74.44406
 11
-75.554593
 21
-74.429558
  0
LINE
  8
ボルト／ビス
  6
CONTINUOUS
 62
    64
 10
-75.579717
 20
-74.86216
 11
-75.329953
 21
-74.876663
  0
LINE
  8
ボルト／ビス
  6
CONTINUOUS
 62
    64
 10
-75.192508
 20
-74.667612
 11
-75.329953
 21
-74.876663
  0
LINE
  8
ボルト／ビス
  6
CONTINUOUS
 62
    64
 10
-75.692037
 20
-74.638608
 11
-75.579717
 21
-74.86216
  0
LINE
  8
ボルト／ビス
  6
CONTINUOUS
 62
    64
 10
-75.304828
 20
-74.44406
 11
-75.192508
 21
-74.667612
  0
CIRCLE
  8
ボルト／ビス
  6
CONTINUOUS
 62
    64
 10
-75.442273
 20
-74.65311
 40
0.216668
  0
CIRCLE
  8
ボルト／ビス
  6
CONTINUOUS
 10
-65.523795
 20
-69.669752
 40
0.250185
  0
CIRCLE
  8
ボルト／ビス
  6
CONTINUOUS
 10
-65.523795
 20
-69.669752
 40
0.301025
  0
LINE
  8
ボルト／ビス
  6
CONTINUOUS
 62
    64
 10
-65.77356
 20
-69.655248
 11
-65.636115
 21
-69.446198
  0
LINE
  8
ボルト／ビス
  6
CONTINUOUS
 62
    64
 10
-65.38635
 20
-69.4607
 11
-65.636115
 21
-69.446198
  0
LINE
  8
ボルト／ビス
  6
CONTINUOUS
 62
    64
 10
-65.66124
 20
-69.878802
 11
-65.411473
 21
-69.893307
  0
LINE
  8
ボルト／ビス
  6
CONTINUOUS
 62
    64
 10
-65.27403
 20
-69.684257
 11
-65.411473
 21
-69.893307
  0
LINE
  8
ボルト／ビス
  6
CONTINUOUS
 62
    64
 10
-65.77356
 20
-69.655248
 11
-65.66124
 21
-69.878802
  0
LINE
  8
ボルト／ビス
  6
CONTINUOUS
 62
    64
 10
-65.38635
 20
-69.4607
 11
-65.27403
 21
-69.684257
  0
CIRCLE
  8
ボルト／ビス
  6
CONTINUOUS
 62
    64
 10
-65.523795
 20
-69.669752
 40
0.216668
  0
CIRCLE
  8
ボルト／ビス
  6
CONTINUOUS
 10
-55.605317
 20
-64.686395
 40
0.250185
  0
CIRCLE
  8
ボルト／ビス
  6
CONTINUOUS
 10
-55.605317
 20
-64.686395
 40
0.301025
  0
LINE
  8
ボルト／ビス
  6
CONTINUOUS
 62
    64
 10
-55.467872
 20
-64.477345
 11
-55.717638
 21
-64.462842
  0
LINE
  8
ボルト／ビス
  6
CONTINUOUS
 62
    64
 10
-55.855083
 20
-64.671893
 11
-55.717638
 21
-64.462842
  0
LINE
  8
ボルト／ビス
  6
CONTINUOUS
 62
    64
 10
-55.355552
 20
-64.7009
 11
-55.492995
 21
-64.909948
  0
LINE
  8
ボルト／ビス
  6
CONTINUOUS
 62
    64
 10
-55.742763
 20
-64.895445
 11
-55.492995
 21
-64.909948
  0
LINE
  8
ボルト／ビス
  6
CONTINUOUS
 62
    64
 10
-55.467872
 20
-64.477345
 11
-55.355552
 21
-64.7009
  0
LINE
  8
ボルト／ビス
  6
CONTINUOUS
 62
    64
 10
-55.855083
 20
-64.671893
 11
-55.742763
 21
-64.895445
  0
CIRCLE
  8
ボルト／ビス
  6
CONTINUOUS
 62
    64
 10
-55.605317
 20
-64.686395
 40
0.216668
  0
ENDBLK
  0
BLOCK
  2
*GRP_0019
 70
    65
 10
0.0
 20
0.0
  0
LINE
  8
補助線
  6
BYBLOCK
 62
    64
 10
-55.67978
 20
-74.615697
 11
-55.530855
 21
-74.690523
  0
LINE
  8
補助線
  6
BYBLOCK
 62
    64
 10
-55.567905
 20
-74.578645
 11
-55.64273
 21
-74.727573
  0
LINE
  8
補助線
  6
BYBLOCK
 62
    64
 10
-65.59826
 20
-69.63234
 11
-65.449333
 21
-69.707165
  0
LINE
  8
補助線
  6
BYBLOCK
 62
    64
 10
-65.486383
 20
-69.595287
 11
-65.561207
 21
-69.744215
  0
LINE
  8
補助線
  6
BYBLOCK
 62
    64
 10
-75.36781
 20
-64.723808
 11
-75.516738
 21
-64.648982
  0
LINE
  8
補助線
  6
BYBLOCK
 62
    64
 10
-75.40486
 20
-64.61193
 11
-75.479685
 21
-64.760858
  0
LINE
  8
型材断面
  6
CONTINUOUS
 10
-54.93334
 20
-74.058133
 11
-54.711038
 21
-74.729385
  0
LINE
  8
型材断面
  6
CONTINUOUS
 10
-54.711038
 20
-74.729385
 11
-55.01034
 21
-75.32509
  0
LINE
  8
型材断面
  6
CONTINUOUS
 10
-55.01034
 20
-75.32509
 11
-55.681592
 21
-75.547393
  0
LINE
  8
型材断面
  6
CONTINUOUS
 10
-75.365997
 20
-63.792115
 11
-76.037252
 21
-64.014418
  0
LINE
  8
型材断面
  6
CONTINUOUS
 10
-76.037252
 20
-64.014418
 11
-76.336555
 21
-64.610123
  0
LINE
  8
型材断面
  6
CONTINUOUS
 10
-76.336555
 20
-64.610123
 11
-76.11425
 21
-65.281375
  0
LINE
  8
型材断面
  6
CONTINUOUS
 10
-54.93334
 20
-74.058133
 11
-75.365997
 21
-63.792115
  0
LINE
  8
型材断面
  6
CONTINUOUS
 10
-55.681592
 20
-75.547393
 11
-76.11425
 21
-65.281375
  0
CIRCLE
  8
ボルト／ビス
  6
CONTINUOUS
 10
-55.605317
 20
-74.65311
 40
0.250185
  0
CIRCLE
  8
ボルト／ビス
  6
CONTINUOUS
 10
-55.605317
 20
-74.65311
 40
0.301025
  0
LINE
  8
ボルト／ビス
  6
CONTINUOUS
 62
    64
 10
-55.355552
 20
-74.638608
 11
-55.492998
 21
-74.429558
  0
LINE
  8
ボルト／ビス
  6
CONTINUOUS
 62
    64
 10
-55.742763
 20
-74.44406
 11
-55.492998
 21
-74.429558
  0
LINE
  8
ボルト／ビス
  6
CONTINUOUS
 62
    64
 10
-55.467872
 20
-74.86216
 11
-55.717638
 21
-74.876663
  0
LINE
  8
ボルト／ビス
  6
CONTINUOUS
 62
    64
 10
-55.855083
 20
-74.667612
 11
-55.717638
 21
-74.876663
  0
LINE
  8
ボルト／ビス
  6
CONTINUOUS
 62
    64
 10
-55.355552
 20
-74.638608
 11
-55.467872
 21
-74.86216
  0
LINE
  8
ボルト／ビス
  6
CONTINUOUS
 62
    64
 10
-55.742763
 20
-74.44406
 11
-55.855083
 21
-74.667612
  0
CIRCLE
  8
ボルト／ビス
  6
CONTINUOUS
 62
    64
 10
-55.605317
 20
-74.65311
 40
0.216668
  0
CIRCLE
  8
ボルト／ビス
  6
CONTINUOUS
 10
-65.523795
 20
-69.669752
 40
0.250185
  0
CIRCLE
  8
ボルト／ビス
  6
CONTINUOUS
 10
-65.523795
 20
-69.669752
 40
0.301025
  0
LINE
  8
ボルト／ビス
  6
CONTINUOUS
 62
    64
 10
-65.27403
 20
-69.655248
 11
-65.411475
 21
-69.446198
  0
LINE
  8
ボルト／ビス
  6
CONTINUOUS
 62
    64
 10
-65.66124
 20
-69.4607
 11
-65.411475
 21
-69.446198
  0
LINE
  8
ボルト／ビス
  6
CONTINUOUS
 62
    64
 10
-65.38635
 20
-69.878802
 11
-65.636117
 21
-69.893307
  0
LINE
  8
ボルト／ビス
  6
CONTINUOUS
 62
    64
 10
-65.77356
 20
-69.684257
 11
-65.636117
 21
-69.893307
  0
LINE
  8
ボルト／ビス
  6
CONTINUOUS
 62
    64
 10
-65.27403
 20
-69.655248
 11
-65.38635
 21
-69.878802
  0
LINE
  8
ボルト／ビス
  6
CONTINUOUS
 62
    64
 10
-65.66124
 20
-69.4607
 11
-65.77356
 21
-69.684257
  0
CIRCLE
  8
ボルト／ビス
  6
CONTINUOUS
 62
    64
 10
-65.523795
 20
-69.669752
 40
0.216668
  0
CIRCLE
  8
ボルト／ビス
  6
CONTINUOUS
 10
-75.442273
 20
-64.686395
 40
0.250185
  0
CIRCLE
  8
ボルト／ビス
  6
CONTINUOUS
 10
-75.442273
 20
-64.686395
 40
0.301025
  0
LINE
  8
ボルト／ビス
  6
CONTINUOUS
 62
    64
 10
-75.579717
 20
-64.477345
 11
-75.329953
 21
-64.462842
  0
LINE
  8
ボルト／ビス
  6
CONTINUOUS
 62
    64
 10
-75.192508
 20
-64.671893
 11
-75.329953
 21
-64.462842
  0
LINE
  8
ボルト／ビス
  6
CONTINUOUS
 62
    64
 10
-75.692037
 20
-64.7009
 11
-75.554595
 21
-64.909948
  0
LINE
  8
ボルト／ビス
  6
CONTINUOUS
 62
    64
 10
-75.304828
 20
-64.895445
 11
-75.554595
 21
-64.909948
  0
LINE
  8
ボルト／ビス
  6
CONTINUOUS
 62
    64
 10
-75.579717
 20
-64.477345
 11
-75.692037
 21
-64.7009
  0
LINE
  8
ボルト／ビス
  6
CONTINUOUS
 62
    64
 10
-75.192508
 20
-64.671893
 11
-75.304828
 21
-64.895445
  0
CIRCLE
  8
ボルト／ビス
  6
CONTINUOUS
 62
    64
 10
-75.442273
 20
-64.686395
 40
0.216668
  0
ENDBLK
  0
BLOCK
  2
*GRP_0020
 70
    65
 10
0.0
 20
0.0
  0
LINE
  8
補助線
  6
BYBLOCK
 62
    64
 10
34.483265
 20
-74.615697
 11
34.63219
 21
-74.690523
  0
LINE
  8
補助線
  6
BYBLOCK
 62
    64
 10
34.59514
 20
-74.578645
 11
34.520315
 21
-74.727573
  0
LINE
  8
補助線
  6
BYBLOCK
 62
    64
 10
24.564785
 20
-69.63234
 11
24.713712
 21
-69.707165
  0
LINE
  8
補助線
  6
BYBLOCK
 62
    64
 10
24.676663
 20
-69.595287
 11
24.601837
 21
-69.744215
  0
LINE
  8
補助線
  6
BYBLOCK
 62
    64
 10
14.795235
 20
-64.723808
 11
14.646307
 21
-64.648982
  0
LINE
  8
補助線
  6
BYBLOCK
 62
    64
 10
14.758185
 20
-64.61193
 11
14.68336
 21
-64.760858
  0
LINE
  8
型材断面
  6
CONTINUOUS
 10
35.229705
 20
-74.058133
 11
35.452008
 21
-74.729385
  0
LINE
  8
型材断面
  6
CONTINUOUS
 10
35.452008
 20
-74.729385
 11
35.152705
 21
-75.32509
  0
LINE
  8
型材断面
  6
CONTINUOUS
 10
35.152705
 20
-75.32509
 11
34.481452
 21
-75.547393
  0
LINE
  8
型材断面
  6
CONTINUOUS
 10
14.797048
 20
-63.792115
 11
14.125792
 21
-64.014418
  0
LINE
  8
型材断面
  6
CONTINUOUS
 10
14.125792
 20
-64.014418
 11
13.82649
 21
-64.610123
  0
LINE
  8
型材断面
  6
CONTINUOUS
 10
13.82649
 20
-64.610123
 11
14.048795
 21
-65.281375
  0
LINE
  8
型材断面
  6
CONTINUOUS
 10
35.229705
 20
-74.058133
 11
14.797048
 21
-63.792115
  0
LINE
  8
型材断面
  6
CONTINUOUS
 10
34.481452
 20
-75.547393
 11
14.048795
 21
-65.281375
  0
CIRCLE
  8
ボルト／ビス
  6
CONTINUOUS
 10
34.557727
 20
-74.65311
 40
0.250185
  0
CIRCLE
  8
ボルト／ビス
  6
CONTINUOUS
 10
34.557727
 20
-74.65311
 40
0.301025
  0
LINE
  8
ボルト／ビス
  6
CONTINUOUS
 62
    64
 10
34.807493
 20
-74.638608
 11
34.670047
 21
-74.429558
  0
LINE
  8
ボルト／ビス
  6
CONTINUOUS
 62
    64
 10
34.420283
 20
-74.44406
 11
34.670047
 21
-74.429558
  0
LINE
  8
ボルト／ビス
  6
CONTINUOUS
 62
    64
 10
34.695173
 20
-74.86216
 11
34.445407
 21
-74.876663
  0
LINE
  8
ボルト／ビス
  6
CONTINUOUS
 62
    64
 10
34.307963
 20
-74.667612
 11
34.445407
 21
-74.876663
  0
LINE
  8
ボルト／ビス
  6
CONTINUOUS
 62
    64
 10
34.807493
 20
-74.638608
 11
34.695173
 21
-74.86216
  0
LINE
  8
ボルト／ビス
  6
CONTINUOUS
 62
    64
 10
34.420283
 20
-74.44406
 11
34.307963
 21
-74.667612
  0
CIRCLE
  8
ボルト／ビス
  6
CONTINUOUS
 62
    64
 10
34.557727
 20
-74.65311
 40
0.216668
  0
CIRCLE
  8
ボルト／ビス
  6
CONTINUOUS
 10
24.63925
 20
-69.669752
 40
0.250185
  0
CIRCLE
  8
ボルト／ビス
  6
CONTINUOUS
 10
24.63925
 20
-69.669752
 40
0.301025
  0
LINE
  8
ボルト／ビス
  6
CONTINUOUS
 62
    64
 10
24.889015
 20
-69.655248
 11
24.75157
 21
-69.446198
  0
LINE
  8
ボルト／ビス
  6
CONTINUOUS
 62
    64
 10
24.501805
 20
-69.4607
 11
24.75157
 21
-69.446198
  0
LINE
  8
ボルト／ビス
  6
CONTINUOUS
 62
    64
 10
24.776695
 20
-69.878802
 11
24.526928
 21
-69.893307
  0
LINE
  8
ボルト／ビス
  6
CONTINUOUS
 62
    64
 10
24.389485
 20
-69.684257
 11
24.526928
 21
-69.893307
  0
LINE
  8
ボルト／ビス
  6
CONTINUOUS
 62
    64
 10
24.889015
 20
-69.655248
 11
24.776695
 21
-69.878802
  0
LINE
  8
ボルト／ビス
  6
CONTINUOUS
 62
    64
 10
24.501805
 20
-69.4607
 11
24.389485
 21
-69.684257
  0
CIRCLE
  8
ボルト／ビス
  6
CONTINUOUS
 62
    64
 10
24.63925
 20
-69.669752
 40
0.216668
  0
CIRCLE
  8
ボルト／ビス
  6
CONTINUOUS
 10
14.720773
 20
-64.686395
 40
0.250185
  0
CIRCLE
  8
ボルト／ビス
  6
CONTINUOUS
 10
14.720773
 20
-64.686395
 40
0.301025
  0
LINE
  8
ボルト／ビス
  6
CONTINUOUS
 62
    64
 10
14.583328
 20
-64.477345
 11
14.833093
 21
-64.462842
  0
LINE
  8
ボルト／ビス
  6
CONTINUOUS
 62
    64
 10
14.970537
 20
-64.671893
 11
14.833093
 21
-64.462842
  0
LINE
  8
ボルト／ビス
  6
CONTINUOUS
 62
    64
 10
14.471008
 20
-64.7009
 11
14.60845
 21
-64.909948
  0
LINE
  8
ボルト／ビス
  6
CONTINUOUS
 62
    64
 10
14.858217
 20
-64.895445
 11
14.60845
 21
-64.909948
  0
LINE
  8
ボルト／ビス
  6
CONTINUOUS
 62
    64
 10
14.583328
 20
-64.477345
 11
14.471008
 21
-64.7009
  0
LINE
  8
ボルト／ビス
  6
CONTINUOUS
 62
    64
 10
14.970537
 20
-64.671893
 11
14.858217
 21
-64.895445
  0
CIRCLE
  8
ボルト／ビス
  6
CONTINUOUS
 62
    64
 10
14.720773
 20
-64.686395
 40
0.216668
  0
ENDBLK
  0
BLOCK
  2
*GRP_0021
 70
    65
 10
0.0
 20
0.0
  0
LINE
  8
補助線
  6
BYBLOCK
 62
    64
 10
14.795235
 20
-74.615697
 11
14.64631
 21
-74.690523
  0
LINE
  8
補助線
  6
BYBLOCK
 62
    64
 10
14.68336
 20
-74.578645
 11
14.758185
 21
-74.727573
  0
LINE
  8
補助線
  6
BYBLOCK
 62
    64
 10
24.713715
 20
-69.63234
 11
24.564788
 21
-69.707165
  0
LINE
  8
補助線
  6
BYBLOCK
 62
    64
 10
24.601837
 20
-69.595287
 11
24.676663
 21
-69.744215
  0
LINE
  8
補助線
  6
BYBLOCK
 62
    64
 10
34.483265
 20
-64.723808
 11
34.632193
 21
-64.648982
  0
LINE
  8
補助線
  6
BYBLOCK
 62
    64
 10
34.520315
 20
-64.61193
 11
34.59514
 21
-64.760858
  0
LINE
  8
型材断面
  6
CONTINUOUS
 10
14.048795
 20
-74.058133
 11
13.826492
 21
-74.729385
  0
LINE
  8
型材断面
  6
CONTINUOUS
 10
13.826492
 20
-74.729385
 11
14.125795
 21
-75.32509
  0
LINE
  8
型材断面
  6
CONTINUOUS
 10
14.125795
 20
-75.32509
 11
14.797048
 21
-75.547393
  0
LINE
  8
型材断面
  6
CONTINUOUS
 10
34.481452
 20
-63.792115
 11
35.152707
 21
-64.014418
  0
LINE
  8
型材断面
  6
CONTINUOUS
 10
35.152707
 20
-64.014418
 11
35.45201
 21
-64.610123
  0
LINE
  8
型材断面
  6
CONTINUOUS
 10
35.45201
 20
-64.610123
 11
35.229705
 21
-65.281375
  0
LINE
  8
型材断面
  6
CONTINUOUS
 10
14.048795
 20
-74.058133
 11
34.481452
 21
-63.792115
  0
LINE
  8
型材断面
  6
CONTINUOUS
 10
14.797048
 20
-75.547393
 11
35.229705
 21
-65.281375
  0
CIRCLE
  8
ボルト／ビス
  6
CONTINUOUS
 10
14.720773
 20
-74.65311
 40
0.250185
  0
CIRCLE
  8
ボルト／ビス
  6
CONTINUOUS
 10
14.720773
 20
-74.65311
 40
0.301025
  0
LINE
  8
ボルト／ビス
  6
CONTINUOUS
 62
    64
 10
14.471008
 20
-74.638608
 11
14.608453
 21
-74.429558
  0
LINE
  8
ボルト／ビス
  6
CONTINUOUS
 62
    64
 10
14.858217
 20
-74.44406
 11
14.608453
 21
-74.429558
  0
LINE
  8
ボルト／ビス
  6
CONTINUOUS
 62
    64
 10
14.583328
 20
-74.86216
 11
14.833093
 21
-74.876663
  0
LINE
  8
ボルト／ビス
  6
CONTINUOUS
 62
    64
 10
14.970537
 20
-74.667612
 11
14.833093
 21
-74.876663
  0
LINE
  8
ボルト／ビス
  6
CONTINUOUS
 62
    64
 10
14.471008
 20
-74.638608
 11
14.583328
 21
-74.86216
  0
LINE
  8
ボルト／ビス
  6
CONTINUOUS
 62
    64
 10
14.858217
 20
-74.44406
 11
14.970537
 21
-74.667612
  0
CIRCLE
  8
ボルト／ビス
  6
CONTINUOUS
 62
    64
 10
14.720773
 20
-74.65311
 40
0.216668
  0
CIRCLE
  8
ボルト／ビス
  6
CONTINUOUS
 10
24.63925
 20
-69.669752
 40
0.250185
  0
CIRCLE
  8
ボルト／ビス
  6
CONTINUOUS
 10
24.63925
 20
-69.669752
 40
0.301025
  0
LINE
  8
ボルト／ビス
  6
CONTINUOUS
 62
    64
 10
24.389485
 20
-69.655248
 11
24.52693
 21
-69.446198
  0
LINE
  8
ボルト／ビス
  6
CONTINUOUS
 62
    64
 10
24.776695
 20
-69.4607
 11
24.52693
 21
-69.446198
  0
LINE
  8
ボルト／ビス
  6
CONTINUOUS
 62
    64
 10
24.501805
 20
-69.878802
 11
24.751572
 21
-69.893307
  0
LINE
  8
ボルト／ビス
  6
CONTINUOUS
 62
    64
 10
24.889015
 20
-69.684257
 11
24.751572
 21
-69.893307
  0
LINE
  8
ボルト／ビス
  6
CONTINUOUS
 62
    64
 10
24.389485
 20
-69.655248
 11
24.501805
 21
-69.878802
  0
LINE
  8
ボルト／ビス
  6
CONTINUOUS
 62
    64
 10
24.776695
 20
-69.4607
 11
24.889015
 21
-69.684257
  0
CIRCLE
  8
ボルト／ビス
  6
CONTINUOUS
 62
    64
 10
24.63925
 20
-69.669752
 40
0.216668
  0
CIRCLE
  8
ボルト／ビス
  6
CONTINUOUS
 10
34.557727
 20
-64.686395
 40
0.250185
  0
CIRCLE
  8
ボルト／ビス
  6
CONTINUOUS
 10
34.557727
 20
-64.686395
 40
0.301025
  0
LINE
  8
ボルト／ビス
  6
CONTINUOUS
 62
    64
 10
34.695173
 20
-64.477345
 11
34.445407
 21
-64.462842
  0
LINE
  8
ボルト／ビス
  6
CONTINUOUS
 62
    64
 10
34.307963
 20
-64.671893
 11
34.445407
 21
-64.462842
  0
LINE
  8
ボルト／ビス
  6
CONTINUOUS
 62
    64
 10
34.807493
 20
-64.7009
 11
34.67005
 21
-64.909948
  0
LINE
  8
ボルト／ビス
  6
CONTINUOUS
 62
    64
 10
34.420283
 20
-64.895445
 11
34.67005
 21
-64.909948
  0
LINE
  8
ボルト／ビス
  6
CONTINUOUS
 62
    64
 10
34.695173
 20
-64.477345
 11
34.807493
 21
-64.7009
  0
LINE
  8
ボルト／ビス
  6
CONTINUOUS
 62
    64
 10
34.307963
 20
-64.671893
 11
34.420283
 21
-64.895445
  0
CIRCLE
  8
ボルト／ビス
  6
CONTINUOUS
 62
    64
 10
34.557727
 20
-64.686395
 40
0.216668
  0
ENDBLK
  0
BLOCK
  2
*DIM_0022
 70
    65
 10
0.0
 20
0.0
  0
LINE
  8
寸法
  6
CONTINUOUS
 10
141.310947
 20
-54.461187
 11
108.877615
 21
-54.461187
  0
POINT
  8
寸法
 10
141.310947
 20
-54.461187
  0
POINT
  8
寸法
 10
108.877615
 20
-54.461187
  0
TEXT
  7
TextStyle03
  8
寸法
  6
CONTINUOUS
 10
122.6375
 20
-54.1
  1
973
 40
3.0
 72
     5
 11
127.5125
 21
-54.1
  0
ENDBLK
  0
BLOCK
  2
*DIM_0023
 70
    65
 10
0.0
 20
0.0
  0
LINE
  8
寸法
  6
BYBLOCK
 62
     0
 10
65.401215
 20
-69.076395
 11
65.401215
 21
-61.743062
  0
POINT
  8
寸法
 62
     0
 10
65.401215
 20
-61.743062
  0
TEXT
  7
TextStyle03
  8
寸法
  6
CONTINUOUS
 62
     0
 10
65.25
 20
-59.81875
  1
上昇199以上
 40
3.0
 50
90.0
 72
     5
 11
65.25
 21
-41.63125
  0
ENDBLK
  0
BLOCK
  2
*DIM_0024
 70
    65
 10
0.0
 20
0.0
  0
LINE
  8
寸法
  6
BYBLOCK
 62
     0
 10
135.141108
 20
51.815152
 11
127.807775
 21
51.815152
  0
POINT
  8
寸法
 62
     0
 10
127.807775
 20
51.815152
  0
TEXT
  7
TextStyle03
  8
寸法
  6
CONTINUOUS
 62
     0
 10
105.88125
 20
50.2
  1
上昇199以上
 40
3.0
 72
     5
 11
124.06875
 21
50.2
  0
ENDBLK
  0
BLOCK
  2
*DIM_0025
 70
    65
 10
0.0
 20
0.0
  0
LINE
  8
寸法
  6
CONTINUOUS
 10
146.310947
 20
-63.785395
 11
152.212025
 21
-63.785395
  0
LINE
  8
寸法
  6
CONTINUOUS
 10
146.310947
 20
-83.785395
 11
152.212025
 21
-83.785395
  0
LINE
  8
寸法
  6
CONTINUOUS
 10
152.212025
 20
-63.785395
 11
152.212025
 21
-83.785395
  0
POINT
  8
寸法
 10
152.212025
 20
-63.785395
  0
POINT
  8
寸法
 10
152.212025
 20
-83.785395
  0
TEXT
  7
TextStyle03
  8
寸法
  6
CONTINUOUS
 10
151.825
 20
-76.2375
  1
600
 40
3.0
 50
90.0
 72
     5
 11
151.825
 21
-71.3625
  0
ENDBLK
  0
BLOCK
  2
*DIM_0026
 70
    65
 10
0.0
 20
0.0
  0
LINE
  8
寸法
  6
CONTINUOUS
 10
52.899905
 20
-69.076395
 11
65.401215
 21
-69.076395
  0
LINE
  8
寸法
  6
CONTINUOUS
 10
53.98773
 20
-77.192947
 11
65.401215
 21
-77.192947
  0
LINE
  8
寸法
  6
CONTINUOUS
 10
65.401215
 20
-69.076395
 11
65.401215
 21
-77.192947
  0
POINT
  8
寸法
 10
65.401215
 20
-69.076395
  0
POINT
  8
寸法
 10
65.401215
 20
-77.192947
  0
TEXT
  7
TextStyle03
  8
寸法
  6
CONTINUOUS
 10
68.425
 20
-77.275
  1
243.5
 40
3.0
 50
90.0
 72
     5
 11
68.425
 21
-69.025
  0
ENDBLK
  0
BLOCK
  2
*DIM_0027
 70
    65
 10
0.0
 20
0.0
  0
LINE
  8
寸法
  6
CONTINUOUS
 10
135.141108
 20
49.457957
 11
135.141108
 21
51.815152
  0
LINE
  8
寸法
  6
CONTINUOUS
 10
143.25766
 20
48.403357
 11
143.25766
 21
51.815152
  0
LINE
  8
寸法
  6
CONTINUOUS
 10
135.141108
 20
51.815152
 11
143.25766
 21
51.815152
  0
POINT
  8
寸法
 10
135.141108
 20
51.815152
  0
POINT
  8
寸法
 10
143.25766
 20
51.815152
  0
TEXT
  7
TextStyle03
  8
寸法
  6
CONTINUOUS
 10
135.1
 20
52.175
  1
243.5
 40
3.0
 72
     5
 11
143.35
 21
52.175
  0
ENDBLK
  0
ENDSEC
  0
SECTION
  2
ENTITIES
  0
POLYLINE
  8
通り芯
  6
CONTINUOUS
 66
     1
 70
     1
  0
VERTEX
  8
通り芯
 10
-210.0
 20
-148.5
  0
VERTEX
  8
通り芯
 10
210.0
 20
-148.5
  0
VERTEX
  8
通り芯
 10
210.0
 20
148.5
  0
VERTEX
  8
通り芯
 10
-210.0
 20
148.5
  0
SEQEND
  0
INSERT
  2
*GRP_0001
  8
型材断面
  6
CONTINUOUS
 10
0.0
 20
0.0
  0
LINE
  8
型材断面
  6
DASHDOT
 10
46.224393
 20
-77.836442
 11
46.224393
 21
42.814033
  0
LINE
  8
型材断面
  6
DASHDOT
 10
-20.442275
 20
-77.836442
 11
-20.442275
 21
42.814033
  0
LINE
  8
型材断面
  6
DASHDOT
 10
-87.10894
 20
-77.836442
 11
-87.10894
 21
42.814033
  0
POLYLINE
  8
型材断面
  6
CONTINUOUS
 66
     1
 70
     1
  0
VERTEX
  8
型材断面
 10
-10.770633
 20
13.03811
  0
VERTEX
  8
型材断面
 10
-29.542562
 20
13.03811
  0
VERTEX
  8
型材断面
 10
-29.542562
 20
8.301267
  0
VERTEX
  8
型材断面
 10
-10.770633
 20
8.301267
  0
SEQEND
  0
POLYLINE
  8
型材断面
  6
CONTINUOUS
 66
     1
 70
     1
  0
VERTEX
  8
型材断面
 10
-10.770633
 20
52.589955
  0
VERTEX
  8
型材断面
 10
-29.542562
 20
52.589955
  0
VERTEX
  8
型材断面
 10
-29.542562
 20
57.326798
  0
VERTEX
  8
型材断面
 10
-10.770633
 20
57.326798
  0
SEQEND
  0
LINE
  8
型材断面
  6
DASHDOT
 10
143.901155
 20
22.814033
 11
-87.10894
 21
22.814033
  0
LINE
  8
型材断面
  6
DASHDOT
 10
143.901155
 20
32.814033
 11
-87.10894
 21
32.814033
  0
LINE
  8
型材断面
  6
DASHDOT
 10
143.901155
 20
42.814033
 11
-87.10894
 21
42.814033
  0
LINE
  8
型材断面
  6
DASHDOT
 10
-20.442275
 20
22.814033
 11
-20.442275
 21
42.814033
  0
LINE
  8
型材断面
  6
CONTINUOUS
 10
-127.961147
 20
80.791505
 11
-127.365092
 21
78.200998
  0
LINE
  8
型材断面
  6
CONTINUOUS
 10
-127.961147
 20
80.791505
 11
-128.557205
 21
78.200998
  0
LINE
  8
型材断面
  6
CONTINUOUS
 10
-128.557205
 20
78.200998
 11
-127.365092
 21
78.200998
  0
LINE
  8
型材断面
  6
CONTINUOUS
 10
-133.983735
 20
74.922105
 11
-87.741957
 21
74.922105
  0
LINE
  8
型材断面
  6
CONTINUOUS
 10
-127.961147
 20
87.32138
 11
-129.456778
 21
84.730873
  0
LINE
  8
型材断面
  6
CONTINUOUS
 10
-127.961147
 20
87.32138
 11
-126.465517
 21
84.730873
  0
LINE
  8
型材断面
  6
CONTINUOUS
 10
-126.465517
 20
84.730873
 11
-129.456778
 21
84.730873
  0
LINE
  8
型材断面
  6
CONTINUOUS
 10
-133.983735
 20
83.792277
 11
-87.741957
 21
83.792277
  0
LINE
  8
型材断面
  6
CONTINUOUS
 10
-133.983735
 20
69.134073
 11
-87.741957
 21
69.134073
  0
LINE
  8
型材断面
  6
CONTINUOUS
 10
-133.983735
 20
63.34604
 11
-87.741957
 21
63.34604
  0
INSERT
  2
*GRP_0011
  8
型材断面
  6
DASHDOT
 10
0.0
 20
0.0
  0
LINE
  8
型材断面
  6
DOT
 10
-20.442275
 20
-70.743062
 11
-20.442275
 21
-12.609317
  0
INSERT
  2
*GRP_0018
  8
型材断面
  6
CONTINUOUS
 10
0.0
 20
0.0
  0
INSERT
  2
*GRP_0019
  8
型材断面
  6
CONTINUOUS
 10
0.0
 20
0.0
  0
INSERT
  2
*GRP_0020
  8
型材断面
  6
CONTINUOUS
 10
0.0
 20
0.0
  0
INSERT
  2
*GRP_0021
  8
型材断面
  6
CONTINUOUS
 10
0.0
 20
0.0
  0
LINE
  8
型材断面
  6
CONTINUOUS
 10
48.987728
 20
20.050848
 11
-89.872278
 21
20.050848
  0
LINE
  8
型材断面
  6
CONTINUOUS
 10
48.987728
 20
45.57722
 11
-89.872278
 21
45.57722
  0
LINE
  8
型材断面
  6
CONTINUOUS
 10
-89.872278
 20
32.814035
 11
-92.462785
 21
34.309665
  0
LINE
  8
型材断面
  6
CONTINUOUS
 10
-89.872278
 20
32.814035
 11
-92.462785
 21
31.318405
  0
LINE
  8
型材断面
  6
CONTINUOUS
 10
-92.462785
 20
31.318405
 11
-92.462785
 21
34.309665
  0
LINE
  8
型材断面
  6
CONTINUOUS
 10
-89.87228
 20
39.114038
 11
-92.46279
 21
38.517985
  0
LINE
  8
型材断面
  6
CONTINUOUS
 10
-89.87228
 20
39.114038
 11
-92.462788
 21
39.710097
  0
LINE
  8
型材断面
  6
CONTINUOUS
 10
-92.462788
 20
39.710097
 11
-92.46279
 21
38.517985
  0
LINE
  8
型材断面
  6
CONTINUOUS
 10
-89.87228
 20
26.514033
 11
-92.46279
 21
27.110085
  0
LINE
  8
型材断面
  6
CONTINUOUS
 10
-89.87228
 20
26.514033
 11
-92.462788
 21
25.917972
  0
LINE
  8
型材断面
  6
CONTINUOUS
 10
-92.462788
 20
25.917972
 11
-92.46279
 21
27.110085
  0
LINE
  8
型材断面
  6
CONTINUOUS
 10
-70.442273
 20
45.57722
 11
-71.937903
 21
48.167727
  0
LINE
  8
型材断面
  6
CONTINUOUS
 10
-70.442273
 20
45.57722
 11
-68.946642
 21
48.167727
  0
LINE
  8
型材断面
  6
CONTINUOUS
 10
-68.946642
 20
48.167727
 11
-71.937903
 21
48.167727
  0
LINE
  8
型材断面
  6
CONTINUOUS
 10
29.557723
 20
45.57722
 11
31.053353
 21
48.167727
  0
LINE
  8
型材断面
  6
CONTINUOUS
 10
29.557723
 20
45.57722
 11
28.062092
 21
48.167727
  0
LINE
  8
型材断面
  6
CONTINUOUS
 10
28.062092
 20
48.167727
 11
31.053353
 21
48.167727
  0
LINE
  8
型材断面
  6
CONTINUOUS
 10
48.987728
 20
32.814033
 11
51.578235
 21
34.309663
  0
LINE
  8
型材断面
  6
CONTINUOUS
 10
48.987728
 20
32.814033
 11
51.578235
 21
31.318403
  0
LINE
  8
型材断面
  6
CONTINUOUS
 10
51.578235
 20
31.318403
 11
51.578235
 21
34.309663
  0
LINE
  8
型材断面
  6
CONTINUOUS
 10
48.98773
 20
39.114035
 11
51.57824
 21
38.517982
  0
LINE
  8
型材断面
  6
CONTINUOUS
 10
48.98773
 20
39.114035
 11
51.578238
 21
39.710095
  0
LINE
  8
型材断面
  6
CONTINUOUS
 10
51.578238
 20
39.710095
 11
51.57824
 21
38.517982
  0
LINE
  8
型材断面
  6
CONTINUOUS
 10
48.98773
 20
26.51403
 11
51.57824
 21
27.110082
  0
LINE
  8
型材断面
  6
CONTINUOUS
 10
48.98773
 20
26.51403
 11
51.578238
 21
25.91797
  0
LINE
  8
型材断面
  6
CONTINUOUS
 10
51.578238
 20
25.91797
 11
51.57824
 21
27.110082
  0
LINE
  8
型材断面
  6
CONTINUOUS
 10
-70.442273
 20
20.050848
 11
-71.937903
 21
17.46034
  0
LINE
  8
型材断面
  6
CONTINUOUS
 10
-70.442273
 20
20.050848
 11
-68.946642
 21
17.46034
  0
LINE
  8
型材断面
  6
CONTINUOUS
 10
-68.946642
 20
17.46034
 11
-71.937903
 21
17.46034
  0
LINE
  8
型材断面
  6
CONTINUOUS
 10
29.557723
 20
20.050848
 11
31.053353
 21
17.46034
  0
LINE
  8
型材断面
  6
CONTINUOUS
 10
29.557723
 20
20.050848
 11
28.062092
 21
17.46034
  0
LINE
  8
型材断面
  6
CONTINUOUS
 10
28.062092
 20
17.46034
 11
31.053353
 21
17.46034
  0
LINE
  8
型材断面
  6
DASHDOT
 10
13.181057
 20
22.814033
 11
13.181057
 21
42.814033
  0
LINE
  8
型材断面
  6
CONTINUOUS
 10
14.431057
 20
24.314033
 11
11.931057
 21
24.314035
  0
LINE
  8
型材断面
  6
CONTINUOUS
 10
14.431057
 20
24.314033
 11
14.431057
 21
41.314033
  0
LINE
  8
型材断面
  6
CONTINUOUS
 10
14.431057
 20
41.314033
 11
11.931057
 21
41.31403
  0
LINE
  8
型材断面
  6
CONTINUOUS
 10
11.931057
 20
24.314035
 11
11.931057
 21
41.31403
  0
LINE
  8
型材断面
  6
CONTINUOUS
 10
-19.192275
 20
24.314033
 11
-21.692275
 21
24.314035
  0
LINE
  8
型材断面
  6
CONTINUOUS
 10
-19.192275
 20
24.314033
 11
-19.192275
 21
41.314033
  0
LINE
  8
型材断面
  6
CONTINUOUS
 10
-19.192275
 20
41.314033
 11
-21.692275
 21
41.31403
  0
LINE
  8
型材断面
  6
CONTINUOUS
 10
-21.692275
 20
24.314035
 11
-21.692275
 21
41.31403
  0
LINE
  8
型材断面
  6
CONTINUOUS
 10
30.119392
 20
23.480688
 11
30.119392
 21
20.98069
  0
LINE
  8
型材断面
  6
CONTINUOUS
 10
29.286058
 20
23.48069
 11
29.286058
 21
20.98069
  0
LINE
  8
型材断面
  6
CONTINUOUS
 10
-3.21394
 20
23.480688
 11
-3.21394
 21
20.98069
  0
LINE
  8
型材断面
  6
CONTINUOUS
 10
-4.047275
 20
23.48069
 11
-4.047275
 21
20.98069
  0
LINE
  8
型材断面
  6
CONTINUOUS
 10
30.119392
 20
42.147378
 11
30.119392
 21
44.647375
  0
LINE
  8
型材断面
  6
CONTINUOUS
 10
29.286058
 20
42.147375
 11
29.286058
 21
44.647375
  0
LINE
  8
型材断面
  6
CONTINUOUS
 10
-3.21394
 20
42.147378
 11
-3.21394
 21
44.647375
  0
LINE
  8
型材断面
  6
CONTINUOUS
 10
-4.047275
 20
42.147375
 11
-4.047275
 21
44.647375
  0
LINE
  8
型材断面
  6
CONTINUOUS
 10
29.286058
 20
42.147375
 11
-3.21394
 21
42.147352
  0
LINE
  8
型材断面
  6
CONTINUOUS
 10
-4.047275
 20
42.147352
 11
-20.442275
 21
42.14734
  0
LINE
  8
型材断面
  6
CONTINUOUS
 10
29.286058
 20
23.48069
 11
-3.21394
 21
23.480712
  0
LINE
  8
型材断面
  6
CONTINUOUS
 10
-4.047275
 20
23.480712
 11
-20.442275
 21
23.480725
  0
LINE
  8
型材断面
  6
CONTINUOUS
 10
48.98773
 20
20.050848
 11
48.98773
 21
45.57722
  0
LINE
  8
型材断面
  6
CONTINUOUS
 10
47.82205
 20
20.98068
 11
48.05775
 21
21.21638
  0
LINE
  8
型材断面
  6
CONTINUOUS
 10
45.322048
 20
23.48068
 11
45.557748
 21
23.71638
  0
LINE
  8
型材断面
  6
CONTINUOUS
 10
45.557748
 20
23.71638
 11
48.05775
 21
21.21638
  0
LINE
  8
型材断面
  6
CONTINUOUS
 10
45.322048
 20
23.48068
 11
47.82205
 21
20.98068
  0
LINE
  8
型材断面
  6
CONTINUOUS
 10
48.987582
 20
20.050848
 11
47.939898
 21
21.098527
  0
LINE
  8
型材断面
  6
CONTINUOUS
 10
48.057735
 20
32.814033
 11
48.05775
 21
21.21638
  0
LINE
  8
型材断面
  6
CONTINUOUS
 10
45.557735
 20
33.2307
 11
48.057735
 21
33.2307
  0
LINE
  8
型材断面
  6
CONTINUOUS
 10
45.557735
 20
32.397365
 11
48.057735
 21
32.397365
  0
LINE
  8
型材断面
  6
CONTINUOUS
 10
45.557735
 20
32.397365
 11
45.557748
 21
23.71638
  0
LINE
  8
型材断面
  6
CONTINUOUS
 10
47.82205
 20
44.647385
 11
48.05775
 21
44.411685
  0
LINE
  8
型材断面
  6
CONTINUOUS
 10
45.322048
 20
42.147385
 11
45.557748
 21
41.911685
  0
LINE
  8
型材断面
  6
CONTINUOUS
 10
45.557748
 20
41.911685
 11
48.05775
 21
44.411685
  0
LINE
  8
型材断面
  6
CONTINUOUS
 10
45.322048
 20
42.147385
 11
47.82205
 21
44.647385
  0
LINE
  8
型材断面
  6
CONTINUOUS
 10
48.987582
 20
45.577218
 11
47.939898
 21
44.529537
  0
LINE
  8
型材断面
  6
CONTINUOUS
 10
45.557735
 20
33.2307
 11
45.557748
 21
41.911685
  0
LINE
  8
型材断面
  6
CONTINUOUS
 10
48.057735
 20
32.814033
 11
48.05775
 21
44.411685
  0
LINE
  8
型材断面
  6
CONTINUOUS
 10
-20.442275
 20
44.647343
 11
47.822053
 21
44.647387
  0
LINE
  8
型材断面
  6
CONTINUOUS
 10
30.119392
 20
42.147378
 11
45.32205
 21
42.147387
  0
LINE
  8
型材断面
  6
CONTINUOUS
 10
30.119392
 20
23.480688
 11
45.32205
 21
23.480677
  0
LINE
  8
型材断面
  6
CONTINUOUS
 10
-20.442275
 20
20.980723
 11
47.822053
 21
20.980677
  0
LINE
  8
型材断面
  6
DASHDOT
 10
-54.065607
 20
22.814033
 11
-54.065607
 21
42.814033
  0
LINE
  8
型材断面
  6
CONTINUOUS
 10
-55.315607
 20
24.314033
 11
-52.815607
 21
24.314035
  0
LINE
  8
型材断面
  6
CONTINUOUS
 10
-55.315607
 20
24.314033
 11
-55.315607
 21
41.314033
  0
LINE
  8
型材断面
  6
CONTINUOUS
 10
-55.315607
 20
41.314033
 11
-52.815607
 21
41.31403
  0
LINE
  8
型材断面
  6
CONTINUOUS
 10
-52.815607
 20
24.314035
 11
-52.815607
 21
41.31403
  0
LINE
  8
型材断面
  6
CONTINUOUS
 10
-71.003942
 20
23.480688
 11
-71.003942
 21
20.98069
  0
LINE
  8
型材断面
  6
CONTINUOUS
 10
-70.170608
 20
23.48069
 11
-70.170608
 21
20.98069
  0
LINE
  8
型材断面
  6
CONTINUOUS
 10
-37.67061
 20
23.480688
 11
-37.67061
 21
20.98069
  0
LINE
  8
型材断面
  6
CONTINUOUS
 10
-36.837275
 20
23.48069
 11
-36.837275
 21
20.98069
  0
LINE
  8
型材断面
  6
CONTINUOUS
 10
-71.003942
 20
42.147378
 11
-71.003942
 21
44.647375
  0
LINE
  8
型材断面
  6
CONTINUOUS
 10
-70.170608
 20
42.147375
 11
-70.170608
 21
44.647375
  0
LINE
  8
型材断面
  6
CONTINUOUS
 10
-37.67061
 20
42.147378
 11
-37.67061
 21
44.647375
  0
LINE
  8
型材断面
  6
CONTINUOUS
 10
-36.837275
 20
42.147375
 11
-36.837275
 21
44.647375
  0
LINE
  8
型材断面
  6
CONTINUOUS
 10
-70.170608
 20
42.147375
 11
-37.67061
 21
42.147352
  0
LINE
  8
型材断面
  6
CONTINUOUS
 10
-70.170608
 20
23.48069
 11
-37.67061
 21
23.480712
  0
LINE
  8
型材断面
  6
CONTINUOUS
 10
-89.87228
 20
20.050848
 11
-89.87228
 21
45.57722
  0
LINE
  8
型材断面
  6
CONTINUOUS
 10
-88.7066
 20
20.98068
 11
-88.9423
 21
21.21638
  0
LINE
  8
型材断面
  6
CONTINUOUS
 10
-86.206598
 20
23.48068
 11
-86.442298
 21
23.71638
  0
LINE
  8
型材断面
  6
CONTINUOUS
 10
-86.442298
 20
23.71638
 11
-88.9423
 21
21.21638
  0
LINE
  8
型材断面
  6
CONTINUOUS
 10
-86.206598
 20
23.48068
 11
-88.7066
 21
20.98068
  0
LINE
  8
型材断面
  6
CONTINUOUS
 10
-89.872133
 20
20.050848
 11
-88.824448
 21
21.098527
  0
LINE
  8
型材断面
  6
CONTINUOUS
 10
-88.942285
 20
32.814033
 11
-88.9423
 21
21.21638
  0
LINE
  8
型材断面
  6
CONTINUOUS
 10
-86.442285
 20
33.2307
 11
-88.942285
 21
33.2307
  0
LINE
  8
型材断面
  6
CONTINUOUS
 10
-86.442285
 20
32.397365
 11
-88.942285
 21
32.397365
  0
LINE
  8
型材断面
  6
CONTINUOUS
 10
-86.442285
 20
32.397365
 11
-86.442298
 21
23.71638
  0
LINE
  8
型材断面
  6
CONTINUOUS
 10
-88.7066
 20
44.647385
 11
-88.9423
 21
44.411685
  0
LINE
  8
型材断面
  6
CONTINUOUS
 10
-86.206598
 20
42.147385
 11
-86.442298
 21
41.911685
  0
LINE
  8
型材断面
  6
CONTINUOUS
 10
-86.442298
 20
41.911685
 11
-88.9423
 21
44.411685
  0
LINE
  8
型材断面
  6
CONTINUOUS
 10
-86.206598
 20
42.147385
 11
-88.7066
 21
44.647385
  0
LINE
  8
型材断面
  6
CONTINUOUS
 10
-89.872133
 20
45.577218
 11
-88.824448
 21
44.529537
  0
LINE
  8
型材断面
  6
CONTINUOUS
 10
-86.442285
 20
33.2307
 11
-86.442298
 21
41.911685
  0
LINE
  8
型材断面
  6
CONTINUOUS
 10
-88.942285
 20
32.814033
 11
-88.9423
 21
44.411685
  0
LINE
  8
型材断面
  6
CONTINUOUS
 10
-71.003942
 20
42.147378
 11
-86.2066
 21
42.147387
  0
LINE
  8
型材断面
  6
CONTINUOUS
 10
-71.003942
 20
23.480688
 11
-86.2066
 21
23.480677
  0
LINE
  8
型材断面
  6
CONTINUOUS
 10
-20.442275
 20
42.14734
 11
-36.837275
 21
42.147352
  0
LINE
  8
型材断面
  6
CONTINUOUS
 10
-20.442275
 20
23.480725
 11
-36.837275
 21
23.480712
  0
LINE
  8
型材断面
  6
CONTINUOUS
 10
-20.442275
 20
44.647343
 11
-88.706603
 21
44.647387
  0
LINE
  8
型材断面
  6
CONTINUOUS
 10
-20.442275
 20
20.980723
 11
-88.706603
 21
20.980677
  0
LINE
  8
型材断面
  6
CONTINUOUS
 10
48.48773
 20
-77.192947
 11
48.48773
 21
-77.529612
  0
LINE
  8
型材断面
  6
CONTINUOUS
 10
48.791063
 20
-73.096397
 11
48.98773
 21
-73.293065
  0
LINE
  8
型材断面
  6
CONTINUOUS
 10
48.98773
 20
-73.293065
 11
48.98773
 21
-77.192947
  0
LINE
  8
型材断面
  6
CONTINUOUS
 10
143.25766
 20
45.077223
 11
143.594325
 21
45.077223
  0
LINE
  8
型材断面
  6
CONTINUOUS
 10
139.16111
 20
45.380555
 11
139.357777
 21
45.577223
  0
LINE
  8
型材断面
  6
CONTINUOUS
 10
139.357777
 20
45.577223
 11
143.25766
 21
45.577223
  0
LINE
  8
型材断面
  6
CONTINUOUS
 62
    47
 10
139.161155
 20
45.380597
 11
139.161155
 21
32.814033
  0
LINE
  8
型材断面
  6
CONTINUOUS
 10
139.357777
 20
45.577223
 11
139.357777
 21
32.814033
  0
LINE
  8
型材断面
  6
CONTINUOUS
 10
143.594325
 20
45.077223
 11
143.594325
 21
32.814033
  0
LINE
  8
型材断面
  6
CONTINUOUS
 10
143.25766
 20
45.577223
 11
143.25766
 21
32.814033
  0
LINE
  8
型材断面
  6
CONTINUOUS
 10
143.25766
 20
20.550842
 11
143.594325
 21
20.550842
  0
LINE
  8
型材断面
  6
CONTINUOUS
 10
139.16111
 20
20.24751
 11
139.357777
 21
20.050842
  0
LINE
  8
型材断面
  6
CONTINUOUS
 10
139.357777
 20
20.050842
 11
143.25766
 21
20.050842
  0
LINE
  8
型材断面
  6
CONTINUOUS
 62
    47
 10
139.161155
 20
20.247467
 11
139.161155
 21
32.814033
  0
LINE
  8
型材断面
  6
CONTINUOUS
 10
139.357777
 20
20.050842
 11
139.357777
 21
32.814033
  0
LINE
  8
型材断面
  6
CONTINUOUS
 10
143.594325
 20
20.550842
 11
143.594325
 21
32.814033
  0
LINE
  8
型材断面
  6
CONTINUOUS
 10
143.25766
 20
20.050842
 11
143.25766
 21
32.814033
  0
LINE
  8
型材断面
  6
CONTINUOUS
 10
48.98773
 20
-77.192947
 11
-20.442275
 21
-77.192947
  0
LINE
  8
型材断面
  6
CONTINUOUS
 10
48.48773
 20
-77.529612
 11
-20.442275
 21
-77.529612
  0
LINE
  8
型材断面
  6
CONTINUOUS
 62
    47
 10
48.791105
 20
-73.096443
 11
-20.442275
 21
-73.096443
  0
LINE
  8
型材断面
  6
CONTINUOUS
 10
48.98773
 20
-73.293065
 11
-20.442275
 21
-73.293065
  0
LINE
  8
型材断面
  6
CONTINUOUS
 10
-89.37228
 20
-77.192947
 11
-89.37228
 21
-77.529612
  0
LINE
  8
型材断面
  6
CONTINUOUS
 10
-89.675612
 20
-73.096397
 11
-89.87228
 21
-73.293065
  0
LINE
  8
型材断面
  6
CONTINUOUS
 10
-89.87228
 20
-73.293065
 11
-89.87228
 21
-77.192947
  0
LINE
  8
型材断面
  6
CONTINUOUS
 10
-89.87228
 20
-77.192947
 11
-20.442275
 21
-77.192947
  0
LINE
  8
型材断面
  6
CONTINUOUS
 10
-89.37228
 20
-77.529612
 11
-20.442275
 21
-77.529612
  0
LINE
  8
型材断面
  6
CONTINUOUS
 62
    47
 10
-89.675655
 20
-73.096443
 11
-20.442275
 21
-73.096443
  0
LINE
  8
型材断面
  6
CONTINUOUS
 10
-89.87228
 20
-73.293065
 11
-20.442275
 21
-73.293065
  0
TEXT
  7
TextStyle03
  8
文字
  6
CONTINUOUS
 10
-28.525
 20
9.325
  1
可動装置側
 40
3.0
 72
     5
 11
-12.025
 21
9.325
  0
TEXT
  7
TextStyle03
  8
文字
  6
CONTINUOUS
 10
-28.525
 20
53.3
  1
可動装置側
 40
3.0
 72
     5
 11
-12.025
 21
53.3
  0
TEXT
  7
TextStyle03
  8
文字
  6
CONTINUOUS
 10
-125.15
 20
79.425
  1
はケーシング位置を示す
 40
3.0
 72
     5
 11
-88.4
 21
79.425
  0
TEXT
  7
TextStyle03
  8
文字
  6
CONTINUOUS
 10
-125.15
 20
76.05
  1
４ヶ所中1ヶ所に設定
 40
3.0
 72
     5
 11
-93.4625
 21
76.05
  0
TEXT
  7
TextStyle03
  8
文字
  6
CONTINUOUS
 10
-125.15
 20
84.95
  1
は排水穴位置を示す
 40
3.0
 72
     5
 11
-95.15
 21
84.95
  0
TEXT
  7
TextStyle03
  8
文字
  6
CONTINUOUS
 10
-108.175
 20
11.275
  1
アンカーピッチ
 40
3.0
 50
90.0
 72
     5
 11
-108.175
 21
34.525
  0
TEXT
  7
TextStyle03
  8
文字
  6
CONTINUOUS
 10
-79.025
 20
80.825
  1
アンカーピッチ
 40
3.0
 72
     5
 11
-55.775
 21
80.825
  0
TEXT
  7
TextStyle03
  8
文字
  6
CONTINUOUS
 10
-128.875
 20
70.075
  1
アンカー数量　１６ヶ所
 40
3.0
 72
     5
 11
-92.125
 21
70.075
  0
TEXT
  7
TextStyle03
  8
文字
  6
CONTINUOUS
 10
-128.925
 20
64.3
  1
アームユニット数　４ヶ所
 40
3.0
 72
     5
 11
-88.8
 21
64.3
  0
LINE
  8
文字
  6
CONTINUOUS
 10
137.35342
 20
45.57722
 11
80.244043
 21
45.57722
  0
LINE
  8
文字
  6
CONTINUOUS
 10
137.35342
 20
20.050848
 11
80.244043
 21
20.050848
  0
LINE
  8
文字
  6
CONTINUOUS
 10
135.141108
 20
51.815152
 11
135.141108
 21
46.90238
  0
LINE
  8
文字
  6
CONTINUOUS
 10
127.807775
 20
51.815152
 11
127.807775
 21
46.90238
  0
LINE
  8
文字
  6
CONTINUOUS
 10
-89.872278
 20
-70.743062
 11
-89.872278
 21
-12.609317
  0
LINE
  8
文字
  6
CONTINUOUS
 10
48.987728
 20
-70.743062
 11
48.987728
 21
-12.609317
  0
LINE
  8
文字
  6
CONTINUOUS
 10
65.401215
 20
-61.743062
 11
51.797535
 21
-61.743062
  0
LINE
  8
文字
  6
CONTINUOUS
 10
108.877615
 20
-62.762377
 11
108.877615
 21
-54.461187
  0
LINE
  8
文字
  6
CONTINUOUS
 10
141.310947
 20
-62.762377
 11
141.310947
 21
-54.461187
  0
TEXT
  7
TextStyle03
  8
文字
  6
CONTINUOUS
 10
122.775
 20
-77.35
  1
網入り6.8t
 40
3.0
 72
     5
 11
139.4625
 21
-77.35
  0
TEXT
  7
TextStyle03
  8
文字
  6
CONTINUOUS
 10
129.45
 20
-82.025
  1
×４枚
 40
3.0
 72
     5
 11
139.2
 21
-82.025
  0
TEXT
  7
TextStyle03
  8
文字
  6
CONTINUOUS
 10
61.8
 20
125.25
  1
シリーズ：ＴＦＦＬ
 40
5.0
 72
     5
 11
111.8
 21
125.25
  0
TEXT
  7
TextStyle03
  8
文字
  6
CONTINUOUS
 10
61.8
 20
119.625
  1
　　　　　（上下可動）600×4000タイプ
 40
5.0
 72
     5
 11
165.2375
 21
119.625
  0
TEXT
  7
TextStyle03
  8
文字
  6
CONTINUOUS
 10
61.8
 20
114.0
  1
図面名　：外観姿図
 40
5.0
 72
     5
 11
111.8
 21
114.0
  0
TEXT
  7
TextStyle03
  8
文字
  6
CONTINUOUS
 10
61.8
 20
108.375
  1
　　　　　　
 40
5.0
 72
     5
 11
94.925
 21
108.375
  0
TEXT
  7
TextStyle03
  8
文字
  6
CONTINUOUS
 10
61.95
 20
104.525
  1
ＮＳコード：ＮＳＦＬ
 40
5.0
 72
     5
 11
117.575
 21
104.525
  0
INSERT
  2
*DIM_0002
  8
寸法
  6
CONTINUOUS
 10
0.0
 20
0.0
  0
INSERT
  2
*DIM_0003
  8
寸法
  6
CONTINUOUS
 10
0.0
 20
0.0
  0
INSERT
  2
*DIM_0004
  8
寸法
  6
CONTINUOUS
 10
0.0
 20
0.0
  0
INSERT
  2
*DIM_0005
  8
寸法
  6
CONTINUOUS
 10
0.0
 20
0.0
  0
INSERT
  2
*DIM_0006
  8
寸法
  6
CONTINUOUS
 10
0.0
 20
0.0
  0
INSERT
  2
*DIM_0007
  8
寸法
  6
CONTINUOUS
 10
0.0
 20
0.0
  0
INSERT
  2
*DIM_0008
  8
寸法
  6
CONTINUOUS
 10
0.0
 20
0.0
  0
INSERT
  2
*DIM_0009
  8
寸法
  6
CONTINUOUS
 10
0.0
 20
0.0
  0
INSERT
  2
*DIM_0010
  8
寸法
  6
CONTINUOUS
 10
0.0
 20
0.0
  0
INSERT
  2
*DIM_0012
  8
寸法
  6
CONTINUOUS
 10
0.0
 20
0.0
  0
INSERT
  2
*DIM_0013
  8
寸法
  6
CONTINUOUS
 10
0.0
 20
0.0
  0
INSERT
  2
*DIM_0014
  8
寸法
  6
CONTINUOUS
 10
0.0
 20
0.0
  0
INSERT
  2
*DIM_0015
  8
寸法
  6
CONTINUOUS
 10
0.0
 20
0.0
  0
INSERT
  2
*DIM_0016
  8
寸法
  6
CONTINUOUS
 10
0.0
 20
0.0
  0
INSERT
  2
*DIM_0017
  8
寸法
  6
CONTINUOUS
 10
0.0
 20
0.0
  0
INSERT
  2
*DIM_0022
  8
寸法
  6
CONTINUOUS
 10
0.0
 20
0.0
  0
INSERT
  2
*DIM_0023
  8
寸法
  6
CONTINUOUS
 10
0.0
 20
0.0
  0
INSERT
  2
*DIM_0024
  8
寸法
  6
CONTINUOUS
 10
0.0
 20
0.0
  0
INSERT
  2
*DIM_0025
  8
寸法
  6
CONTINUOUS
 10
0.0
 20
0.0
  0
INSERT
  2
*DIM_0026
  8
寸法
  6
CONTINUOUS
 10
0.0
 20
0.0
  0
INSERT
  2
*DIM_0027
  8
寸法
  6
CONTINUOUS
 10
0.0
 20
0.0
  0
LINE
  8
別途部材
  6
CONTINUOUS
 62
    47
 10
135.241108
 20
20.980845
 11
135.307775
 21
20.980845
  0
ARC
  8
別途部材
  6
CONTINUOUS
 62
    47
 10
135.241111
 20
21.080846
 40
0.1
 50
180.0
 51
270.0
  0
LINE
  8
別途部材
  6
CONTINUOUS
 62
    47
 10
135.307775
 20
21.137368
 11
136.807775
 21
21.137368
  0
LINE
  8
別途部材
  6
CONTINUOUS
 62
    47
 10
139.124443
 20
20.050848
 11
139.124443
 21
32.814033
  0
LINE
  8
別途部材
  6
CONTINUOUS
 62
    47
 10
137.957777
 20
20.050848
 11
137.957777
 21
32.814033
  0
LINE
  8
別途部材
  6
CONTINUOUS
 62
    47
 10
136.807775
 20
21.137368
 11
136.807775
 21
32.814033
  0
LINE
  8
別途部材
  6
CONTINUOUS
 62
    47
 10
135.307775
 20
20.980845
 11
135.307775
 21
32.814033
  0
LINE
  8
別途部材
  6
CONTINUOUS
 62
    47
 10
135.141108
 20
21.080845
 11
135.141108
 21
32.814033
  0
LINE
  8
別途部材
  6
CONTINUOUS
 62
    47
 10
135.241108
 20
44.647222
 11
135.307775
 21
44.647222
  0
ARC
  8
別途部材
  6
CONTINUOUS
 62
    47
 10
135.241111
 20
44.547222
 40
0.1
 50
90.0
 51
180.0
  0
LINE
  8
別途部材
  6
CONTINUOUS
 62
    47
 10
135.307775
 20
44.4907
 11
136.807775
 21
44.4907
  0
LINE
  8
別途部材
  6
CONTINUOUS
 62
    47
 10
139.124443
 20
45.57722
 11
139.124443
 21
32.814033
  0
LINE
  8
別途部材
  6
CONTINUOUS
 62
    47
 10
137.957777
 20
45.57722
 11
137.957777
 21
32.814033
  0
LINE
  8
別途部材
  6
CONTINUOUS
 62
    47
 10
136.807775
 20
44.4907
 11
136.807775
 21
32.814033
  0
LINE
  8
別途部材
  6
CONTINUOUS
 62
    47
 10
135.307775
 20
44.647222
 11
135.307775
 21
32.814033
  0
LINE
  8
別途部材
  6
CONTINUOUS
 62
    47
 10
135.141108
 20
44.547222
 11
135.141108
 21
32.814033
  0
LINE
  8
別途部材
  6
CONTINUOUS
 62
    47
 10
-88.94228
 20
-69.176395
 11
-88.94228
 21
-69.243062
  0
ARC
  8
別途部材
  6
CONTINUOUS
 62
    47
 10
-88.842278
 20
-69.1764
 40
0.1
 50
90.0
 51
180.0
  0
LINE
  8
別途部材
  6
CONTINUOUS
 62
    47
 10
-88.785758
 20
-69.243062
 11
-88.785758
 21
-70.743062
  0
LINE
  8
別途部材
  6
DOT
 62
    47
 10
-88.94228
 20
-61.843062
 11
-88.94228
 21
-61.90973
  0
ARC
  8
別途部材
  6
DOT
 62
    47
 10
-88.842278
 20
-61.843066
 40
0.1
 50
90.0
 51
180.0
  0
LINE
  8
別途部材
  6
DOT
 62
    47
 10
-88.785758
 20
-61.90973
 11
-88.785758
 21
-63.40973
  0
LINE
  8
別途部材
  6
CONTINUOUS
 62
    47
 10
48.05773
 20
-69.176395
 11
48.05773
 21
-69.243062
  0
ARC
  8
別途部材
  6
CONTINUOUS
 62
    47
 10
47.957725
 20
-69.1764
 40
0.1
 50
0.0
 51
90.0
  0
LINE
  8
別途部材
  6
CONTINUOUS
 62
    47
 10
47.901208
 20
-69.243062
 11
47.901208
 21
-70.743062
  0
LINE
  8
別途部材
  6
DOT
 62
    47
 10
48.05773
 20
-61.843062
 11
48.05773
 21
-61.90973
  0
ARC
  8
別途部材
  6
DOT
 62
    47
 10
47.957725
 20
-61.843066
 40
0.1
 50
0.0
 51
90.0
  0
LINE
  8
別途部材
  6
DOT
 62
    47
 10
47.901208
 20
-61.90973
 11
47.901208
 21
-63.40973
  0
LINE
  8
別途部材
  6
DOT
 62
    47
 10
-88.94228
 20
-61.90973
 11
-20.442275
 21
-61.90973
  0
LINE
  8
別途部材
  6
DOT
 62
    47
 10
-88.84228
 20
-61.743062
 11
-20.442275
 21
-61.743062
  0
LINE
  8
別途部材
  6
DOT
 62
    47
 10
-89.872278
 20
-65.726397
 11
-20.442275
 21
-65.726397
  0
LINE
  8
別途部材
  6
DOT
 62
    47
 10
-89.872278
 20
-64.559732
 11
-20.442275
 21
-64.559732
  0
LINE
  8
別途部材
  6
DOT
 62
    47
 10
-88.785758
 20
-63.40973
 11
-20.442275
 21
-63.40973
  0
LINE
  8
別途部材
  6
CONTINUOUS
 62
    47
 10
-88.785758
 20
-70.743062
 11
-20.442275
 21
-70.743062
  0
LINE
  8
別途部材
  6
CONTINUOUS
 62
    47
 10
-88.84228
 20
-69.076395
 11
-20.442275
 21
-69.076395
  0
LINE
  8
別途部材
  6
CONTINUOUS
 62
    47
 10
-88.94228
 20
-69.243062
 11
-20.442275
 21
-69.243062
  0
LINE
  8
別途部材
  6
CONTINUOUS
 62
    47
 10
-89.872278
 20
-73.05973
 11
-20.442275
 21
-73.05973
  0
LINE
  8
別途部材
  6
CONTINUOUS
 62
    47
 10
-89.872278
 20
-71.893065
 11
-20.442275
 21
-71.893065
  0
LINE
  8
別途部材
  6
CONTINUOUS
 62
    47
 10
48.987728
 20
-73.05973
 11
-20.442275
 21
-73.05973
  0
LINE
  8
別途部材
  6
CONTINUOUS
 62
    47
 10
48.987728
 20
-71.893065
 11
-20.442275
 21
-71.893065
  0
LINE
  8
別途部材
  6
CONTINUOUS
 62
    47
 10
47.901208
 20
-70.743062
 11
-20.442275
 21
-70.743062
  0
LINE
  8
別途部材
  6
CONTINUOUS
 62
    47
 10
47.95773
 20
-69.076395
 11
-20.442275
 21
-69.076395
  0
LINE
  8
別途部材
  6
CONTINUOUS
 62
    47
 10
48.05773
 20
-69.243062
 11
-20.442275
 21
-69.243062
  0
LINE
  8
別途部材
  6
DOT
 62
    47
 10
48.987728
 20
-64.559732
 11
-20.442275
 21
-64.559732
  0
LINE
  8
別途部材
  6
DOT
 62
    47
 10
48.987728
 20
-65.726397
 11
-20.442275
 21
-65.726397
  0
LINE
  8
別途部材
  6
DOT
 62
    47
 10
47.901208
 20
-63.40973
 11
-20.442275
 21
-63.40973
  0
LINE
  8
別途部材
  6
DOT
 62
    47
 10
48.05773
 20
-61.90973
 11
-20.442275
 21
-61.90973
  0
LINE
  8
別途部材
  6
DOT
 62
    47
 10
47.95773
 20
-61.743062
 11
-20.442275
 21
-61.743062
  0
LINE
  8
別途部材
  6
CONTINUOUS
 10
108.877615
 20
-63.785395
 11
108.877615
 21
-83.785395
  0
LINE
  8
曲げ物
  6
CONTINUOUS
 10
30.950122
 20
34.739582
 11
27.25481
 21
31.04427
  0
LINE
  8
曲げ物
  6
CONTINUOUS
 10
30.246652
 20
33.203472
 11
28.790922
 21
31.747742
  0
LINE
  8
曲げ物
  6
CONTINUOUS
 10
29.414012
 20
34.036112
 11
27.958282
 21
32.580383
  0
LINE
  8
曲げ物
  6
CONTINUOUS
 10
-1.234188
 20
34.739582
 11
-4.9295
 21
31.04427
  0
LINE
  8
曲げ物
  6
CONTINUOUS
 10
-1.937658
 20
33.203472
 11
-3.393387
 21
31.747742
  0
LINE
  8
曲げ物
  6
CONTINUOUS
 10
-2.770298
 20
34.036112
 11
-4.226027
 21
32.580383
  0
LINE
  8
曲げ物
  6
CONTINUOUS
 10
-35.336132
 20
34.739582
 11
-39.031445
 21
31.04427
  0
LINE
  8
曲げ物
  6
CONTINUOUS
 10
-36.039603
 20
33.203472
 11
-37.495333
 21
31.747742
  0
LINE
  8
曲げ物
  6
CONTINUOUS
 10
-36.872242
 20
34.036112
 11
-38.327973
 21
32.580383
  0
LINE
  8
曲げ物
  6
CONTINUOUS
 10
-68.859188
 20
34.739582
 11
-72.5545
 21
31.04427
  0
LINE
  8
曲げ物
  6
CONTINUOUS
 10
-69.562658
 20
33.203472
 11
-71.018387
 21
31.747742
  0
LINE
  8
曲げ物
  6
CONTINUOUS
 10
-70.395298
 20
34.036112
 11
-71.851027
 21
32.580383
  0
LINE
  8
曲げ物
  6
CONTINUOUS
 10
141.310947
 20
-63.785395
 11
108.877615
 21
-63.785395
  0
LINE
  8
曲げ物
  6
CONTINUOUS
 10
141.310947
 20
-83.785395
 11
108.877615
 21
-83.785395
  0
LINE
  8
曲げ物
  6
CONTINUOUS
 10
141.310947
 20
-63.785395
 11
141.310947
 21
-83.785395
  0
LINE
  8
鉄骨等
  6
CONTINUOUS
 62
    47
 10
139.124443
 20
20.050848
 11
137.957777
 21
20.050848
  0
LINE
  8
鉄骨等
  6
CONTINUOUS
 62
    47
 10
137.957777
 20
20.050848
 11
136.807777
 21
21.454032
  0
LINE
  8
鉄骨等
  6
CONTINUOUS
 62
    47
 10
139.124443
 20
45.57722
 11
137.957777
 21
45.57722
  0
LINE
  8
鉄骨等
  6
CONTINUOUS
 62
    47
 10
137.957777
 20
45.57722
 11
136.807777
 21
44.174033
  0
LINE
  8
鉄骨等
  6
CONTINUOUS
 62
    47
 10
-89.872278
 20
-73.05973
 11
-89.872278
 21
-71.893065
  0
LINE
  8
鉄骨等
  6
CONTINUOUS
 62
    47
 10
-89.872278
 20
-71.893065
 11
-88.469092
 21
-70.743065
  0
LINE
  8
鉄骨等
  6
DOT
 62
    47
 10
-89.872278
 20
-65.726397
 11
-89.872278
 21
-64.559732
  0
LINE
  8
鉄骨等
  6
DOT
 62
    47
 10
-89.872278
 20
-64.559732
 11
-88.469092
 21
-63.409732
  0
LINE
  8
鉄骨等
  6
CONTINUOUS
 62
    47
 10
48.987728
 20
-73.05973
 11
48.987728
 21
-71.893065
  0
LINE
  8
鉄骨等
  6
CONTINUOUS
 62
    47
 10
48.987728
 20
-71.893065
 11
47.584542
 21
-70.743065
  0
LINE
  8
鉄骨等
  6
DOT
 62
    47
 10
48.987728
 20
-65.726397
 11
48.987728
 21
-64.559732
  0
LINE
  8
鉄骨等
  6
DOT
 62
    47
 10
48.987728
 20
-64.559732
 11
47.584542
 21
-63.409732
  0
ENDSEC
  0
EOF
