  0
SECTION
  2
HEADER
  9
$EXTMIN
 10
-210.0
 20
-148.5
  9
$EXTMAX
 10
210.0
 20
148.5
  9
$PDMODE
 70
    32
  9
$PDSIZE
 40
1.5
  9
$LTSCALE
 40
10.0
  0
ENDSEC
  0
SECTION
  2
TABLES
  0
TABLE
  2
LTYPE
 70
    15
  0
LTYPE
  2
CONTINUOUS
 70
    64
  3
実線
 72
    65
 73
     0
 40
0.0
  0
LTYPE
  2
DASHED
 70
    64
  3
破線A
 72
    65
 73
     2
 40
0.6
 49
0.4
 49
-0.2
  0
LTYPE
  2
DASHEDX2
 70
    64
  3
破線B
 72
    65
 73
     2
 40
1.3
 49
0.9
 49
-0.4
  0
LTYPE
  2
DASHDOT
 70
    64
  3
１点鎖線A
 72
    65
 73
     4
 40
0.5375
 49
0.375
 49
-0.05
 49
0.0625
 49
-0.05
  0
LTYPE
  2
DASHDOTX2
 70
    64
  3
１点鎖線B
 72
    65
 73
     4
 40
1.075
 49
0.75
 49
-0.1
 49
0.125
 49
-0.1
  0
LTYPE
  2
DIVIDE2
 70
    64
  3
２点鎖線A
 72
    65
 73
     6
 40
0.5125
 49
0.3
 49
-0.0375
 49
0.05
 49
-0.0375
 49
0.05
 49
-0.0375
  0
LTYPE
  2
DIVIDE
 70
    64
  3
２点鎖線B
 72
    65
 73
     6
 40
1.05
 49
0.55
 49
-0.1
 49
0.1
 49
-0.1
 49
0.1
 49
-0.1
  0
LTYPE
  2
DOT
 70
    64
  3
点線A
 72
    65
 73
     2
 40
0.1125
 49
0.0625
 49
-0.05
  0
LTYPE
  2
DOTX2
 70
    64
  3
点線B
 72
    65
 73
     2
 40
0.275
 49
0.15
 49
-0.125
  0
LTYPE
  2
CONTINUOUS
 70
    64
  3
実線
 72
    65
 73
     0
 40
0.0
  0
LTYPE
  2
CONTINUOUS
 70
    64
  3
実線
 72
    65
 73
     0
 40
0.0
  0
LTYPE
  2
CONTINUOUS
 70
    64
  3
実線
 72
    65
 73
     0
 40
0.0
  0
LTYPE
  2
CONTINUOUS
 70
    64
  3
実線
 72
    65
 73
     0
 40
0.0
  0
LTYPE
  2
CONTINUOUS
 70
    64
  3
実線
 72
    65
 73
     0
 40
0.0
  0
LTYPE
  2
CONTINUOUS
 70
    64
  3
実線
 72
    65
 73
     0
 40
0.0
  0
ENDTAB
  0
TABLE
  2
LAYER
 70
    34
  0
LAYER
  2
通り芯
 70
     0
 62
    15
  6
CONTINUOUS
  0
LAYER
  2
補助線
 70
     0
 62
    16
  6
DOT
  0
LAYER
  2
躯体
 70
     0
 62
    31
  6
CONTINUOUS
  0
LAYER
  2
型材
 70
     0
 62
    32
  6
CONTINUOUS
  0
LAYER
  2
型材断面
 70
     0
 62
    47
  6
CONTINUOUS
  0
LAYER
  2
ガラス
 70
     0
 62
    48
  6
CONTINUOUS
  0
LAYER
  2
ゴム等
 70
     0
 62
    63
  6
CONTINUOUS
  0
LAYER
  2
ボルト／ビス
 70
     0
 62
    64
  6
CONTINUOUS
  0
LAYER
  2
文字
 70
     0
 62
    79
  6
CONTINUOUS
  0
LAYER
  2
寸法
 70
     0
 62
    80
  6
CONTINUOUS
  0
LAYER
  2
ﾊｯﾁﾝｸﾞ
 70
     0
 62
    95
  6
CONTINUOUS
  0
LAYER
  2
別途部材
 70
     0
 62
    96
  6
CONTINUOUS
  0
LAYER
  2
曲げ物
 70
     0
 62
   111
  6
CONTINUOUS
  0
LAYER
  2
鉄骨等
 70
     0
 62
   112
  6
CONTINUOUS
  0
LAYER
  2
St
 70
     0
 62
   127
  6
CONTINUOUS
  0
LAYER
  2
その他部品等
 70
     0
 62
   128
  6
CONTINUOUS
  0
LAYER
  2
ｶﾞｽｹｯﾄ
 70
     0
 62
   143
  6
CONTINUOUS
  0
LAYER
  2
ｽｹｯﾁ
 70
     0
 62
    14
  6
CONTINUOUS
  0
LAYER
  2
0
 70
     0
 62
    17
  6
CONTINUOUS
  0
LAYER
  2
1
 70
     0
 62
    30
  6
CONTINUOUS
  0
LAYER
  2
4
 70
     0
 62
    33
  6
CONTINUOUS
  0
LAYER
  2
ﾚｲﾔ3
 70
     0
 62
    46
  6
CONTINUOUS
  0
LAYER
  2
外形線
 70
     0
 62
    49
  6
CONTINUOUS
  0
LAYER
  2
部品
 70
     0
 62
    14
  6
CONTINUOUS
  0
LAYER
  2
サッシ芯
 70
     0
 62
    17
  6
DASHDOTX2
  0
LAYER
  2
寸法線
 70
     0
 62
    62
  6
CONTINUOUS
  0
LAYER
  2
姿図外形線
 70
     0
 62
    65
  6
CONTINUOUS
  0
LAYER
  2
姿補助線
 70
     0
 62
    30
  6
CONTINUOUS
  0
LAYER
  2
透視線
 70
     0
 62
    78
  6
DOT
  0
LAYER
  2
用紙
 70
     0
 62
    81
  6
CONTINUOUS
  0
LAYER
  2
実線図枠
 70
     0
 62
    94
  6
CONTINUOUS
  0
LAYER
  2
補助図枠
 70
     0
 62
    97
  6
CONTINUOUS
  0
LAYER
  2
建具記号
 70
     0
 62
   110
  6
CONTINUOUS
  0
LAYER
  2
補助文字
 70
     0
 62
   113
  6
CONTINUOUS
  0
ENDTAB
  0
TABLE
  2
STYLE
 70
    10
  0
STYLE
  2
STANDARD
 70
     0
 40
1.0
 41
1.0
 42
1.0
 50
0.0
 71
     0
  3
TXT
  4
BIGFONT
  0
STYLE
  2
TATE
 70
     4
 40
1.0
 41
1.0
 42
1.0
 50
0.0
 71
     0
  3
TXT
  4
BIGFONT
  0
STYLE
  2
TextStyle03
 70
     0
 40
1.0
 41
1.0
 42
1.0
 50
0.0
 71
     0
  3
MONOTXT
  4
BIGFONT
  0
STYLE
  2
TextStyle04
 70
     0
 40
1.0
 41
1.0
 42
1.0
 50
0.0
 71
     0
  3
MONOTXT
  4
BIGFONT
  0
STYLE
  2
TextStyle05
 70
     0
 40
1.0
 41
1.0
 42
1.0
 50
0.0
 71
     0
  3
MONOTXT
  4
BIGFONT
  0
STYLE
  2
TextStyle06
 70
     0
 40
1.0
 41
1.0
 42
1.0
 50
0.0
 71
     0
  3
MONOTXT
  4
BIGFONT
  0
STYLE
  2
TextStyle07
 70
     0
 40
1.0
 41
1.0
 42
1.0
 50
0.0
 71
     0
  3
MONOTXT
  4
BIGFONT
  0
STYLE
  2
TextStyle08
 70
     0
 40
1.0
 41
1.0
 42
1.0
 50
0.0
 71
     0
  3
MONOTXT
  4
BIGFONT
  0
STYLE
  2
TextStyle09
 70
     0
 40
1.0
 41
1.0
 42
1.0
 50
0.0
 71
     0
  3
MONOTXT
  4
BIGFONT
  0
STYLE
  2
TextStyle10
 70
     0
 40
1.0
 41
1.0
 42
1.0
 50
0.0
 71
     0
  3
MONOTXT
  4
BIGFONT
  0
ENDTAB
  0
ENDSEC
  0
SECTION
  2
BLOCKS
  0
BLOCK
  2
*GRP_0001
 70
    65
 10
0.0
 20
0.0
  0
LINE
  8
型材断面
  6
CONTINUOUS
 10
195.0
 20
133.5
 11
195.0
 21
-133.5
  0
LINE
  8
型材断面
  6
CONTINUOUS
 10
195.0
 20
-133.5
 11
-185.0
 21
-133.5
  0
LINE
  8
型材断面
  6
CONTINUOUS
 10
-185.0
 20
-133.5
 11
-185.0
 21
133.5
  0
LINE
  8
型材断面
  6
CONTINUOUS
 10
195.0
 20
133.5
 11
-185.0
 21
133.5
  0
LINE
  8
型材断面
  6
CONTINUOUS
 10
145.0
 20
-133.5
 11
145.0
 21
-118.5
  0
LINE
  8
型材断面
  6
CONTINUOUS
 10
195.0
 20
-118.5
 11
145.0
 21
-118.5
  0
ENDBLK
  0
BLOCK
  2
*DIM_0002
 70
    65
 10
0.0
 20
0.0
  0
LINE
  8
寸法
  6
BYBLOCK
 62
     0
 10
-103.775608
 20
19.183902
 11
-103.775608
 21
14.041447
  0
LINE
  8
寸法
  6
BYBLOCK
 62
     0
 10
-37.10894
 20
19.183905
 11
-37.10894
 21
14.041447
  0
LINE
  8
寸法
  6
BYBLOCK
 62
     0
 10
-103.775608
 20
14.041447
 11
-37.10894
 21
14.041447
  0
POINT
  8
寸法
 62
     0
 10
-103.775608
 20
14.041447
  0
POINT
  8
寸法
 62
     0
 10
-37.10894
 20
14.041447
  0
TEXT
  7
TextStyle03
  8
寸法
  6
CONTINUOUS
 62
     0
 10
-73.73125
 20
14.4
  1
2000
 40
3.0
 72
     5
 11
-67.16875
 21
14.4
  0
ENDBLK
  0
BLOCK
  2
*DIM_0003
 70
    65
 10
0.0
 20
0.0
  0
LINE
  8
寸法
  6
BYBLOCK
 62
     0
 10
29.557727
 20
19.183902
 11
29.557727
 21
14.041447
  0
LINE
  8
寸法
  6
BYBLOCK
 62
     0
 10
-37.10894
 20
14.041447
 11
29.557727
 21
14.041447
  0
POINT
  8
寸法
 62
     0
 10
29.557727
 20
14.041447
  0
TEXT
  7
TextStyle03
  8
寸法
  6
CONTINUOUS
 62
     0
 10
-7.08125
 20
14.4
  1
2000
 40
3.0
 72
     5
 11
-0.51875
 21
14.4
  0
ENDBLK
  0
BLOCK
  2
*DIM_0004
 70
    65
 10
0.0
 20
0.0
  0
LINE
  8
寸法
  6
BYBLOCK
 62
     0
 10
47.224393
 20
42.814035
 11
56.948675
 21
42.814035
  0
LINE
  8
寸法
  6
BYBLOCK
 62
     0
 10
49.854522
 20
39.114035
 11
56.948675
 21
39.114035
  0
LINE
  8
寸法
  6
BYBLOCK
 62
     0
 10
56.948675
 20
42.814035
 11
56.948675
 21
39.114035
  0
POINT
  8
寸法
 62
     0
 10
56.948675
 20
42.814035
  0
POINT
  8
寸法
 62
     0
 10
56.948675
 20
39.114035
  0
TEXT
  7
TextStyle03
  8
寸法
  6
CONTINUOUS
 62
     0
 10
56.625
 20
43.8125
  1
111
 40
3.0
 50
90.0
 72
     5
 11
56.625
 21
48.6875
  0
ENDBLK
  0
BLOCK
  2
*DIM_0005
 70
    65
 10
0.0
 20
0.0
  0
LINE
  8
寸法
  6
BYBLOCK
 62
     0
 10
47.224393
 20
22.81403
 11
56.948675
 21
22.814027
  0
LINE
  8
寸法
  6
BYBLOCK
 62
     0
 10
49.854522
 20
26.51403
 11
56.948675
 21
26.514027
  0
LINE
  8
寸法
  6
BYBLOCK
 62
     0
 10
56.948675
 20
22.814027
 11
56.948675
 21
26.514027
  0
POINT
  8
寸法
 62
     0
 10
56.948675
 20
22.814027
  0
POINT
  8
寸法
 62
     0
 10
56.948675
 20
26.514027
  0
TEXT
  7
TextStyle03
  8
寸法
  6
CONTINUOUS
 62
     0
 10
56.95
 20
16.5625
  1
111
 40
3.0
 50
90.0
 72
     5
 11
56.95
 21
21.4375
  0
ENDBLK
  0
BLOCK
  2
*DIM_0006
 70
    65
 10
0.0
 20
0.0
  0
LINE
  8
寸法
  6
BYBLOCK
 62
     0
 10
-123.442275
 20
39.4807
 11
-136.735113
 21
39.4807
  0
LINE
  8
寸法
  6
BYBLOCK
 62
     0
 10
-123.442275
 20
26.147365
 11
-136.735113
 21
26.147365
  0
LINE
  8
寸法
  6
BYBLOCK
 62
     0
 10
-136.735113
 20
39.4807
 11
-136.735113
 21
26.147365
  0
POINT
  8
寸法
 62
     0
 10
-136.735113
 20
39.4807
  0
POINT
  8
寸法
 62
     0
 10
-136.735113
 20
26.147365
  0
TEXT
  7
TextStyle03
  8
寸法
  6
CONTINUOUS
 62
     0
 10
-137.125
 20
30.3625
  1
400
 40
3.0
 50
90.0
 72
     5
 11
-137.125
 21
35.2375
  0
ENDBLK
  0
BLOCK
  2
*DIM_0007
 70
    65
 10
0.0
 20
0.0
  0
LINE
  8
寸法
  6
BYBLOCK
 62
     0
 10
-112.10894
 20
45.814033
 11
-112.10894
 21
74.922105
  0
LINE
  8
寸法
  6
BYBLOCK
 62
     0
 10
-87.10894
 20
45.814033
 11
-87.10894
 21
74.922105
  0
LINE
  8
寸法
  6
BYBLOCK
 62
     0
 10
-112.10894
 20
74.922105
 11
-87.10894
 21
74.922105
  0
POINT
  8
寸法
 62
     0
 10
-112.10894
 20
74.922105
  0
POINT
  8
寸法
 62
     0
 10
-87.10894
 20
74.922105
  0
TEXT
  7
TextStyle03
  8
寸法
  6
CONTINUOUS
 62
     0
 10
-102.0875
 20
75.275
  1
750
 40
3.0
 72
     5
 11
-97.2125
 21
75.275
  0
ENDBLK
  0
BLOCK
  2
*DIM_0008
 70
    65
 10
0.0
 20
0.0
  0
LINE
  8
寸法
  6
BYBLOCK
 62
     0
 10
-62.10894
 20
45.814033
 11
-62.10894
 21
74.922105
  0
LINE
  8
寸法
  6
BYBLOCK
 62
     0
 10
-87.10894
 20
74.922105
 11
-62.10894
 21
74.922105
  0
POINT
  8
寸法
 62
     0
 10
-62.10894
 20
74.922105
  0
TEXT
  7
TextStyle03
  8
寸法
  6
CONTINUOUS
 62
     0
 10
-77.0875
 20
75.275
  1
750
 40
3.0
 72
     5
 11
-72.2125
 21
75.275
  0
ENDBLK
  0
BLOCK
  2
*DIM_0009
 70
    65
 10
0.0
 20
0.0
  0
LINE
  8
寸法
  6
BYBLOCK
 62
     0
 10
-37.10894
 20
45.814033
 11
-37.10894
 21
74.922105
  0
LINE
  8
寸法
  6
BYBLOCK
 62
     0
 10
-62.10894
 20
74.922105
 11
-37.10894
 21
74.922105
  0
POINT
  8
寸法
 62
     0
 10
-37.10894
 20
74.922105
  0
TEXT
  7
TextStyle03
  8
寸法
  6
CONTINUOUS
 62
     0
 10
-52.0875
 20
75.275
  1
750
 40
3.0
 72
     5
 11
-47.2125
 21
75.275
  0
ENDBLK
  0
BLOCK
  2
*DIM_0010
 70
    65
 10
0.0
 20
0.0
  0
LINE
  8
寸法
  6
BYBLOCK
 62
     0
 10
-12.10894
 20
45.814033
 11
-12.10894
 21
74.922105
  0
LINE
  8
寸法
  6
BYBLOCK
 62
     0
 10
-37.10894
 20
74.922105
 11
-12.10894
 21
74.922105
  0
POINT
  8
寸法
 62
     0
 10
-12.10894
 20
74.922105
  0
TEXT
  7
TextStyle03
  8
寸法
  6
CONTINUOUS
 62
     0
 10
-27.0875
 20
75.275
  1
750
 40
3.0
 72
     5
 11
-22.2125
 21
75.275
  0
ENDBLK
  0
BLOCK
  2
*DIM_0011
 70
    65
 10
0.0
 20
0.0
  0
LINE
  8
寸法
  6
BYBLOCK
 62
     0
 10
12.89106
 20
45.814033
 11
12.89106
 21
74.922105
  0
LINE
  8
寸法
  6
BYBLOCK
 62
     0
 10
-12.10894
 20
74.922105
 11
12.89106
 21
74.922105
  0
POINT
  8
寸法
 62
     0
 10
12.89106
 20
74.922105
  0
TEXT
  7
TextStyle03
  8
寸法
  6
CONTINUOUS
 62
     0
 10
-2.0875
 20
75.275
  1
750
 40
3.0
 72
     5
 11
2.7875
 21
75.275
  0
ENDBLK
  0
BLOCK
  2
*DIM_0012
 70
    65
 10
0.0
 20
0.0
  0
LINE
  8
寸法
  6
BYBLOCK
 62
     0
 10
37.89106
 20
45.814033
 11
37.89106
 21
74.922105
  0
LINE
  8
寸法
  6
BYBLOCK
 62
     0
 10
12.89106
 20
74.922105
 11
37.89106
 21
74.922105
  0
POINT
  8
寸法
 62
     0
 10
37.89106
 20
74.922105
  0
TEXT
  7
TextStyle03
  8
寸法
  6
CONTINUOUS
 62
     0
 10
22.9125
 20
75.275
  1
750
 40
3.0
 72
     5
 11
27.7875
 21
75.275
  0
ENDBLK
  0
BLOCK
  2
*GRP_0013
 70
    65
 10
0.0
 20
0.0
  0
LINE
  8
別途部材
  6
DOT
 62
    47
 10
127.907775
 20
20.980845
 11
127.974443
 21
20.980845
  0
ARC
  8
別途部材
  6
DOT
 62
    47
 10
127.907773
 20
21.080846
 40
0.1
 50
180.0
 51
270.0
  0
LINE
  8
別途部材
  6
DOT
 62
    47
 10
127.974443
 20
21.137368
 11
129.474443
 21
21.137368
  0
LINE
  8
別途部材
  6
DOT
 62
    47
 10
131.79111
 20
20.050848
 11
131.79111
 21
32.814033
  0
LINE
  8
別途部材
  6
DOT
 62
    47
 10
130.624445
 20
20.050848
 11
130.624445
 21
32.814033
  0
LINE
  8
別途部材
  6
DOT
 62
    47
 10
129.474443
 20
21.137368
 11
129.474443
 21
32.814033
  0
LINE
  8
別途部材
  6
DOT
 62
    47
 10
127.974443
 20
20.980845
 11
127.974443
 21
32.814033
  0
LINE
  8
別途部材
  6
DOT
 62
    47
 10
127.807775
 20
21.080845
 11
127.807775
 21
32.814033
  0
LINE
  8
別途部材
  6
DOT
 62
    47
 10
127.907775
 20
44.647222
 11
127.974443
 21
44.647222
  0
ARC
  8
別途部材
  6
DOT
 62
    47
 10
127.907773
 20
44.547222
 40
0.1
 50
90.0
 51
180.0
  0
LINE
  8
別途部材
  6
DOT
 62
    47
 10
127.974443
 20
44.4907
 11
129.474443
 21
44.4907
  0
LINE
  8
別途部材
  6
DOT
 62
    47
 10
131.79111
 20
45.57722
 11
131.79111
 21
32.814033
  0
LINE
  8
別途部材
  6
DOT
 62
    47
 10
130.624445
 20
45.57722
 11
130.624445
 21
32.814033
  0
LINE
  8
別途部材
  6
DOT
 62
    47
 10
129.474443
 20
44.4907
 11
129.474443
 21
32.814033
  0
LINE
  8
別途部材
  6
DOT
 62
    47
 10
127.974443
 20
44.647222
 11
127.974443
 21
32.814033
  0
LINE
  8
別途部材
  6
DOT
 62
    47
 10
127.807775
 20
44.547222
 11
127.807775
 21
32.814033
  0
LINE
  8
鉄骨等
  6
DOT
 62
    47
 10
131.79111
 20
20.050848
 11
130.624445
 21
20.050848
  0
LINE
  8
鉄骨等
  6
DOT
 62
    47
 10
130.624445
 20
20.050848
 11
129.474445
 21
21.454032
  0
LINE
  8
鉄骨等
  6
DOT
 62
    47
 10
131.79111
 20
45.57722
 11
130.624445
 21
45.57722
  0
LINE
  8
鉄骨等
  6
DOT
 62
    47
 10
130.624445
 20
45.57722
 11
129.474445
 21
44.174033
  0
ENDBLK
  0
BLOCK
  2
*DIM_0014
 70
    65
 10
0.0
 20
0.0
  0
LINE
  8
寸法
  6
BYBLOCK
 62
     0
 10
80.244043
 20
22.814035
 11
80.244043
 21
42.814035
  0
POINT
  8
寸法
 62
     0
 10
80.244043
 20
22.814035
  0
POINT
  8
寸法
 62
     0
 10
80.244043
 20
42.814035
  0
TEXT
  7
TextStyle03
  8
寸法
  6
CONTINUOUS
 62
     0
 10
79.875
 20
21.925
  1
呼称寸法　600
 40
3.0
 50
90.0
 72
     5
 11
79.875
 21
43.675
  0
ENDBLK
  0
BLOCK
  2
*DIM_0015
 70
    65
 10
0.0
 20
0.0
  0
LINE
  8
寸法
  6
CONTINUOUS
 10
80.244043
 20
45.57722
 11
80.244043
 21
42.814035
  0
POINT
  8
寸法
 10
80.244043
 20
45.57722
  0
POINT
  8
寸法
 10
80.244043
 20
42.814035
  0
TEXT
  7
TextStyle03
  8
寸法
  6
CONTINUOUS
 10
81.65
 20
46.64375
  1
82.9
 40
3.0
 50
90.0
 72
     5
 11
81.65
 21
53.20625
  0
ENDBLK
  0
BLOCK
  2
*DIM_0016
 70
    65
 10
0.0
 20
0.0
  0
LINE
  8
寸法
  6
CONTINUOUS
 10
80.244043
 20
22.814035
 11
80.244043
 21
20.050848
  0
POINT
  8
寸法
 10
80.244043
 20
22.814035
  0
POINT
  8
寸法
 10
80.244043
 20
20.050848
  0
TEXT
  7
TextStyle03
  8
寸法
  6
CONTINUOUS
 10
81.65
 20
12.41875
  1
82.9
 40
3.0
 50
90.0
 72
     5
 11
81.65
 21
18.98125
  0
ENDBLK
  0
BLOCK
  2
*DIM_0017
 70
    65
 10
0.0
 20
0.0
  0
LINE
  8
寸法
  6
CONTINUOUS
 10
-120.442278
 20
-12.609317
 11
-123.20561
 21
-12.609317
  0
POINT
  8
寸法
 10
-120.442278
 20
-12.609317
  0
POINT
  8
寸法
 10
-123.20561
 20
-12.609317
  0
TEXT
  7
TextStyle03
  8
寸法
  6
CONTINUOUS
 10
-127.80625
 20
-11.675
  1
82.9
 40
3.0
 72
     5
 11
-121.24375
 21
-11.675
  0
ENDBLK
  0
BLOCK
  2
*DIM_0018
 70
    65
 10
0.0
 20
0.0
  0
LINE
  8
寸法
  6
CONTINUOUS
 10
48.98773
 20
-12.609317
 11
46.224395
 21
-12.609317
  0
POINT
  8
寸法
 10
48.98773
 20
-12.609317
  0
POINT
  8
寸法
 10
46.224395
 20
-12.609317
  0
TEXT
  7
TextStyle03
  8
寸法
  6
CONTINUOUS
 10
47.21875
 20
-11.725
  1
82.9
 40
3.0
 72
     5
 11
53.78125
 21
-11.725
  0
ENDBLK
  0
BLOCK
  2
*DIM_0019
 70
    65
 10
0.0
 20
0.0
  0
LINE
  8
寸法
  6
CONTINUOUS
 10
-120.442273
 20
-12.609317
 11
46.224395
 21
-12.609317
  0
POINT
  8
寸法
 10
-120.442273
 20
-12.609317
  0
POINT
  8
寸法
 10
46.224395
 20
-12.609317
  0
TEXT
  7
TextStyle03
  8
寸法
  6
CONTINUOUS
 10
-48.84375
 20
-12.25
  1
呼称寸法　5000
 40
3.0
 72
     5
 11
-25.40625
 21
-12.25
  0
ENDBLK
  0
BLOCK
  2
*GRP_0020
 70
    65
 10
0.0
 20
0.0
  0
LINE
  8
補助線
  6
BYBLOCK
 62
    64
 10
-117.034472
 20
-74.615697
 11
-117.183397
 21
-74.690523
  0
LINE
  8
補助線
  6
BYBLOCK
 62
    64
 10
-117.146347
 20
-74.578645
 11
-117.071522
 21
-74.727573
  0
LINE
  8
補助線
  6
BYBLOCK
 62
    64
 10
-107.115992
 20
-69.63234
 11
-107.26492
 21
-69.707165
  0
LINE
  8
補助線
  6
BYBLOCK
 62
    64
 10
-107.22787
 20
-69.595287
 11
-107.153045
 21
-69.744215
  0
LINE
  8
補助線
  6
BYBLOCK
 62
    64
 10
-97.346443
 20
-64.723808
 11
-97.197515
 21
-64.648982
  0
LINE
  8
補助線
  6
BYBLOCK
 62
    64
 10
-97.309393
 20
-64.61193
 11
-97.234567
 21
-64.760858
  0
LINE
  8
型材断面
  6
CONTINUOUS
 10
-117.780912
 20
-74.058133
 11
-118.003215
 21
-74.729385
  0
LINE
  8
型材断面
  6
CONTINUOUS
 10
-118.003215
 20
-74.729385
 11
-117.703913
 21
-75.32509
  0
LINE
  8
型材断面
  6
CONTINUOUS
 10
-117.703913
 20
-75.32509
 11
-117.03266
 21
-75.547393
  0
LINE
  8
型材断面
  6
CONTINUOUS
 10
-97.348255
 20
-63.792115
 11
-96.677
 21
-64.014418
  0
LINE
  8
型材断面
  6
CONTINUOUS
 10
-96.677
 20
-64.014418
 11
-96.377697
 21
-64.610123
  0
LINE
  8
型材断面
  6
CONTINUOUS
 10
-96.377697
 20
-64.610123
 11
-96.600003
 21
-65.281375
  0
LINE
  8
型材断面
  6
CONTINUOUS
 10
-117.780912
 20
-74.058133
 11
-97.348255
 21
-63.792115
  0
LINE
  8
型材断面
  6
CONTINUOUS
 10
-117.03266
 20
-75.547393
 11
-96.600003
 21
-65.281375
  0
CIRCLE
  8
ボルト／ビス
  6
CONTINUOUS
 10
-117.108935
 20
-74.65311
 40
0.250185
  0
CIRCLE
  8
ボルト／ビス
  6
CONTINUOUS
 10
-117.108935
 20
-74.65311
 40
0.301025
  0
LINE
  8
ボルト／ビス
  6
CONTINUOUS
 62
    64
 10
-117.3587
 20
-74.638608
 11
-117.221255
 21
-74.429558
  0
LINE
  8
ボルト／ビス
  6
CONTINUOUS
 62
    64
 10
-116.97149
 20
-74.44406
 11
-117.221255
 21
-74.429558
  0
LINE
  8
ボルト／ビス
  6
CONTINUOUS
 62
    64
 10
-117.24638
 20
-74.86216
 11
-116.996615
 21
-74.876663
  0
LINE
  8
ボルト／ビス
  6
CONTINUOUS
 62
    64
 10
-116.85917
 20
-74.667612
 11
-116.996615
 21
-74.876663
  0
LINE
  8
ボルト／ビス
  6
CONTINUOUS
 62
    64
 10
-117.3587
 20
-74.638608
 11
-117.24638
 21
-74.86216
  0
LINE
  8
ボルト／ビス
  6
CONTINUOUS
 62
    64
 10
-116.97149
 20
-74.44406
 11
-116.85917
 21
-74.667612
  0
CIRCLE
  8
ボルト／ビス
  6
CONTINUOUS
 62
    64
 10
-117.108935
 20
-74.65311
 40
0.216668
  0
CIRCLE
  8
ボルト／ビス
  6
CONTINUOUS
 10
-107.190457
 20
-69.669752
 40
0.250185
  0
CIRCLE
  8
ボルト／ビス
  6
CONTINUOUS
 10
-107.190457
 20
-69.669752
 40
0.301025
  0
LINE
  8
ボルト／ビス
  6
CONTINUOUS
 62
    64
 10
-107.440222
 20
-69.655248
 11
-107.302777
 21
-69.446198
  0
LINE
  8
ボルト／ビス
  6
CONTINUOUS
 62
    64
 10
-107.053013
 20
-69.4607
 11
-107.302777
 21
-69.446198
  0
LINE
  8
ボルト／ビス
  6
CONTINUOUS
 62
    64
 10
-107.327902
 20
-69.878802
 11
-107.078135
 21
-69.893307
  0
LINE
  8
ボルト／ビス
  6
CONTINUOUS
 62
    64
 10
-106.940693
 20
-69.684257
 11
-107.078135
 21
-69.893307
  0
LINE
  8
ボルト／ビス
  6
CONTINUOUS
 62
    64
 10
-107.440222
 20
-69.655248
 11
-107.327902
 21
-69.878802
  0
LINE
  8
ボルト／ビス
  6
CONTINUOUS
 62
    64
 10
-107.053013
 20
-69.4607
 11
-106.940693
 21
-69.684257
  0
CIRCLE
  8
ボルト／ビス
  6
CONTINUOUS
 62
    64
 10
-107.190457
 20
-69.669752
 40
0.216668
  0
CIRCLE
  8
ボルト／ビス
  6
CONTINUOUS
 10
-97.27198
 20
-64.686395
 40
0.250185
  0
CIRCLE
  8
ボルト／ビス
  6
CONTINUOUS
 10
-97.27198
 20
-64.686395
 40
0.301025
  0
LINE
  8
ボルト／ビス
  6
CONTINUOUS
 62
    64
 10
-97.134535
 20
-64.477345
 11
-97.3843
 21
-64.462842
  0
LINE
  8
ボルト／ビス
  6
CONTINUOUS
 62
    64
 10
-97.521745
 20
-64.671893
 11
-97.3843
 21
-64.462842
  0
LINE
  8
ボルト／ビス
  6
CONTINUOUS
 62
    64
 10
-97.022215
 20
-64.7009
 11
-97.159657
 21
-64.909948
  0
LINE
  8
ボルト／ビス
  6
CONTINUOUS
 62
    64
 10
-97.409425
 20
-64.895445
 11
-97.159657
 21
-64.909948
  0
LINE
  8
ボルト／ビス
  6
CONTINUOUS
 62
    64
 10
-97.134535
 20
-64.477345
 11
-97.022215
 21
-64.7009
  0
LINE
  8
ボルト／ビス
  6
CONTINUOUS
 62
    64
 10
-97.521745
 20
-64.671893
 11
-97.409425
 21
-64.895445
  0
CIRCLE
  8
ボルト／ビス
  6
CONTINUOUS
 62
    64
 10
-97.27198
 20
-64.686395
 40
0.216668
  0
ENDBLK
  0
BLOCK
  2
*GRP_0021
 70
    65
 10
0.0
 20
0.0
  0
LINE
  8
補助線
  6
BYBLOCK
 62
    64
 10
-97.346443
 20
-74.615697
 11
-97.197517
 21
-74.690523
  0
LINE
  8
補助線
  6
BYBLOCK
 62
    64
 10
-97.234567
 20
-74.578645
 11
-97.309393
 21
-74.727573
  0
LINE
  8
補助線
  6
BYBLOCK
 62
    64
 10
-107.264923
 20
-69.63234
 11
-107.115995
 21
-69.707165
  0
LINE
  8
補助線
  6
BYBLOCK
 62
    64
 10
-107.153045
 20
-69.595287
 11
-107.22787
 21
-69.744215
  0
LINE
  8
補助線
  6
BYBLOCK
 62
    64
 10
-117.034472
 20
-64.723808
 11
-117.1834
 21
-64.648982
  0
LINE
  8
補助線
  6
BYBLOCK
 62
    64
 10
-117.071522
 20
-64.61193
 11
-117.146347
 21
-64.760858
  0
LINE
  8
型材断面
  6
CONTINUOUS
 10
-96.600003
 20
-74.058133
 11
-96.3777
 21
-74.729385
  0
LINE
  8
型材断面
  6
CONTINUOUS
 10
-96.3777
 20
-74.729385
 11
-96.677002
 21
-75.32509
  0
LINE
  8
型材断面
  6
CONTINUOUS
 10
-96.677002
 20
-75.32509
 11
-97.348255
 21
-75.547393
  0
LINE
  8
型材断面
  6
CONTINUOUS
 10
-117.03266
 20
-63.792115
 11
-117.703915
 21
-64.014418
  0
LINE
  8
型材断面
  6
CONTINUOUS
 10
-117.703915
 20
-64.014418
 11
-118.003218
 21
-64.610123
  0
LINE
  8
型材断面
  6
CONTINUOUS
 10
-118.003218
 20
-64.610123
 11
-117.780912
 21
-65.281375
  0
LINE
  8
型材断面
  6
CONTINUOUS
 10
-96.600003
 20
-74.058133
 11
-117.03266
 21
-63.792115
  0
LINE
  8
型材断面
  6
CONTINUOUS
 10
-97.348255
 20
-75.547393
 11
-117.780912
 21
-65.281375
  0
CIRCLE
  8
ボルト／ビス
  6
CONTINUOUS
 10
-97.27198
 20
-74.65311
 40
0.250185
  0
CIRCLE
  8
ボルト／ビス
  6
CONTINUOUS
 10
-97.27198
 20
-74.65311
 40
0.301025
  0
LINE
  8
ボルト／ビス
  6
CONTINUOUS
 62
    64
 10
-97.022215
 20
-74.638608
 11
-97.15966
 21
-74.429558
  0
LINE
  8
ボルト／ビス
  6
CONTINUOUS
 62
    64
 10
-97.409425
 20
-74.44406
 11
-97.15966
 21
-74.429558
  0
LINE
  8
ボルト／ビス
  6
CONTINUOUS
 62
    64
 10
-97.134535
 20
-74.86216
 11
-97.3843
 21
-74.876663
  0
LINE
  8
ボルト／ビス
  6
CONTINUOUS
 62
    64
 10
-97.521745
 20
-74.667612
 11
-97.3843
 21
-74.876663
  0
LINE
  8
ボルト／ビス
  6
CONTINUOUS
 62
    64
 10
-97.022215
 20
-74.638608
 11
-97.134535
 21
-74.86216
  0
LINE
  8
ボルト／ビス
  6
CONTINUOUS
 62
    64
 10
-97.409425
 20
-74.44406
 11
-97.521745
 21
-74.667612
  0
CIRCLE
  8
ボルト／ビス
  6
CONTINUOUS
 62
    64
 10
-97.27198
 20
-74.65311
 40
0.216668
  0
CIRCLE
  8
ボルト／ビス
  6
CONTINUOUS
 10
-107.190457
 20
-69.669752
 40
0.250185
  0
CIRCLE
  8
ボルト／ビス
  6
CONTINUOUS
 10
-107.190457
 20
-69.669752
 40
0.301025
  0
LINE
  8
ボルト／ビス
  6
CONTINUOUS
 62
    64
 10
-106.940693
 20
-69.655248
 11
-107.078137
 21
-69.446198
  0
LINE
  8
ボルト／ビス
  6
CONTINUOUS
 62
    64
 10
-107.327902
 20
-69.4607
 11
-107.078137
 21
-69.446198
  0
LINE
  8
ボルト／ビス
  6
CONTINUOUS
 62
    64
 10
-107.053013
 20
-69.878802
 11
-107.30278
 21
-69.893307
  0
LINE
  8
ボルト／ビス
  6
CONTINUOUS
 62
    64
 10
-107.440222
 20
-69.684257
 11
-107.30278
 21
-69.893307
  0
LINE
  8
ボルト／ビス
  6
CONTINUOUS
 62
    64
 10
-106.940693
 20
-69.655248
 11
-107.053013
 21
-69.878802
  0
LINE
  8
ボルト／ビス
  6
CONTINUOUS
 62
    64
 10
-107.327902
 20
-69.4607
 11
-107.440222
 21
-69.684257
  0
CIRCLE
  8
ボルト／ビス
  6
CONTINUOUS
 62
    64
 10
-107.190457
 20
-69.669752
 40
0.216668
  0
CIRCLE
  8
ボルト／ビス
  6
CONTINUOUS
 10
-117.108935
 20
-64.686395
 40
0.250185
  0
CIRCLE
  8
ボルト／ビス
  6
CONTINUOUS
 10
-117.108935
 20
-64.686395
 40
0.301025
  0
LINE
  8
ボルト／ビス
  6
CONTINUOUS
 62
    64
 10
-117.24638
 20
-64.477345
 11
-116.996615
 21
-64.462842
  0
LINE
  8
ボルト／ビス
  6
CONTINUOUS
 62
    64
 10
-116.85917
 20
-64.671893
 11
-116.996615
 21
-64.462842
  0
LINE
  8
ボルト／ビス
  6
CONTINUOUS
 62
    64
 10
-117.3587
 20
-64.7009
 11
-117.221257
 21
-64.909948
  0
LINE
  8
ボルト／ビス
  6
CONTINUOUS
 62
    64
 10
-116.97149
 20
-64.895445
 11
-117.221257
 21
-64.909948
  0
LINE
  8
ボルト／ビス
  6
CONTINUOUS
 62
    64
 10
-117.24638
 20
-64.477345
 11
-117.3587
 21
-64.7009
  0
LINE
  8
ボルト／ビス
  6
CONTINUOUS
 62
    64
 10
-116.85917
 20
-64.671893
 11
-116.97149
 21
-64.895445
  0
CIRCLE
  8
ボルト／ビス
  6
CONTINUOUS
 62
    64
 10
-117.108935
 20
-64.686395
 40
0.216668
  0
ENDBLK
  0
BLOCK
  2
*GRP_0022
 70
    65
 10
0.0
 20
0.0
  0
LINE
  8
補助線
  6
BYBLOCK
 62
    64
 10
42.816603
 20
-74.615697
 11
42.965527
 21
-74.690523
  0
LINE
  8
補助線
  6
BYBLOCK
 62
    64
 10
42.928478
 20
-74.578645
 11
42.853652
 21
-74.727573
  0
LINE
  8
補助線
  6
BYBLOCK
 62
    64
 10
32.898122
 20
-69.63234
 11
33.04705
 21
-69.707165
  0
LINE
  8
補助線
  6
BYBLOCK
 62
    64
 10
33.01
 20
-69.595287
 11
32.935175
 21
-69.744215
  0
LINE
  8
補助線
  6
BYBLOCK
 62
    64
 10
23.128572
 20
-64.723808
 11
22.979645
 21
-64.648982
  0
LINE
  8
補助線
  6
BYBLOCK
 62
    64
 10
23.091523
 20
-64.61193
 11
23.016698
 21
-64.760858
  0
LINE
  8
型材断面
  6
CONTINUOUS
 10
43.563042
 20
-74.058133
 11
43.785345
 21
-74.729385
  0
LINE
  8
型材断面
  6
CONTINUOUS
 10
43.785345
 20
-74.729385
 11
43.486043
 21
-75.32509
  0
LINE
  8
型材断面
  6
CONTINUOUS
 10
43.486043
 20
-75.32509
 11
42.81479
 21
-75.547393
  0
LINE
  8
型材断面
  6
CONTINUOUS
 10
23.130385
 20
-63.792115
 11
22.45913
 21
-64.014418
  0
LINE
  8
型材断面
  6
CONTINUOUS
 10
22.45913
 20
-64.014418
 11
22.159828
 21
-64.610123
  0
LINE
  8
型材断面
  6
CONTINUOUS
 10
22.159828
 20
-64.610123
 11
22.382133
 21
-65.281375
  0
LINE
  8
型材断面
  6
CONTINUOUS
 10
43.563042
 20
-74.058133
 11
23.130385
 21
-63.792115
  0
LINE
  8
型材断面
  6
CONTINUOUS
 10
42.81479
 20
-75.547393
 11
22.382133
 21
-65.281375
  0
CIRCLE
  8
ボルト／ビス
  6
CONTINUOUS
 10
42.891065
 20
-74.65311
 40
0.250185
  0
CIRCLE
  8
ボルト／ビス
  6
CONTINUOUS
 10
42.891065
 20
-74.65311
 40
0.301025
  0
LINE
  8
ボルト／ビス
  6
CONTINUOUS
 62
    64
 10
43.14083
 20
-74.638608
 11
43.003385
 21
-74.429558
  0
LINE
  8
ボルト／ビス
  6
CONTINUOUS
 62
    64
 10
42.75362
 20
-74.44406
 11
43.003385
 21
-74.429558
  0
LINE
  8
ボルト／ビス
  6
CONTINUOUS
 62
    64
 10
43.02851
 20
-74.86216
 11
42.778745
 21
-74.876663
  0
LINE
  8
ボルト／ビス
  6
CONTINUOUS
 62
    64
 10
42.6413
 20
-74.667612
 11
42.778745
 21
-74.876663
  0
LINE
  8
ボルト／ビス
  6
CONTINUOUS
 62
    64
 10
43.14083
 20
-74.638608
 11
43.02851
 21
-74.86216
  0
LINE
  8
ボルト／ビス
  6
CONTINUOUS
 62
    64
 10
42.75362
 20
-74.44406
 11
42.6413
 21
-74.667612
  0
CIRCLE
  8
ボルト／ビス
  6
CONTINUOUS
 62
    64
 10
42.891065
 20
-74.65311
 40
0.216668
  0
CIRCLE
  8
ボルト／ビス
  6
CONTINUOUS
 10
32.972588
 20
-69.669752
 40
0.250185
  0
CIRCLE
  8
ボルト／ビス
  6
CONTINUOUS
 10
32.972588
 20
-69.669752
 40
0.301025
  0
LINE
  8
ボルト／ビス
  6
CONTINUOUS
 62
    64
 10
33.222352
 20
-69.655248
 11
33.084908
 21
-69.446198
  0
LINE
  8
ボルト／ビス
  6
CONTINUOUS
 62
    64
 10
32.835143
 20
-69.4607
 11
33.084908
 21
-69.446198
  0
LINE
  8
ボルト／ビス
  6
CONTINUOUS
 62
    64
 10
33.110032
 20
-69.878802
 11
32.860265
 21
-69.893307
  0
LINE
  8
ボルト／ビス
  6
CONTINUOUS
 62
    64
 10
32.722823
 20
-69.684257
 11
32.860265
 21
-69.893307
  0
LINE
  8
ボルト／ビス
  6
CONTINUOUS
 62
    64
 10
33.222352
 20
-69.655248
 11
33.110032
 21
-69.878802
  0
LINE
  8
ボルト／ビス
  6
CONTINUOUS
 62
    64
 10
32.835143
 20
-69.4607
 11
32.722823
 21
-69.684257
  0
CIRCLE
  8
ボルト／ビス
  6
CONTINUOUS
 62
    64
 10
32.972588
 20
-69.669752
 40
0.216668
  0
CIRCLE
  8
ボルト／ビス
  6
CONTINUOUS
 10
23.05411
 20
-64.686395
 40
0.250185
  0
CIRCLE
  8
ボルト／ビス
  6
CONTINUOUS
 10
23.05411
 20
-64.686395
 40
0.301025
  0
LINE
  8
ボルト／ビス
  6
CONTINUOUS
 62
    64
 10
22.916665
 20
-64.477345
 11
23.16643
 21
-64.462842
  0
LINE
  8
ボルト／ビス
  6
CONTINUOUS
 62
    64
 10
23.303875
 20
-64.671893
 11
23.16643
 21
-64.462842
  0
LINE
  8
ボルト／ビス
  6
CONTINUOUS
 62
    64
 10
22.804345
 20
-64.7009
 11
22.941787
 21
-64.909948
  0
LINE
  8
ボルト／ビス
  6
CONTINUOUS
 62
    64
 10
23.191555
 20
-64.895445
 11
22.941787
 21
-64.909948
  0
LINE
  8
ボルト／ビス
  6
CONTINUOUS
 62
    64
 10
22.916665
 20
-64.477345
 11
22.804345
 21
-64.7009
  0
LINE
  8
ボルト／ビス
  6
CONTINUOUS
 62
    64
 10
23.303875
 20
-64.671893
 11
23.191555
 21
-64.895445
  0
CIRCLE
  8
ボルト／ビス
  6
CONTINUOUS
 62
    64
 10
23.05411
 20
-64.686395
 40
0.216668
  0
ENDBLK
  0
BLOCK
  2
*GRP_0023
 70
    65
 10
0.0
 20
0.0
  0
LINE
  8
補助線
  6
BYBLOCK
 62
    64
 10
23.128572
 20
-74.615697
 11
22.979647
 21
-74.690523
  0
LINE
  8
補助線
  6
BYBLOCK
 62
    64
 10
23.016698
 20
-74.578645
 11
23.091523
 21
-74.727573
  0
LINE
  8
補助線
  6
BYBLOCK
 62
    64
 10
33.047053
 20
-69.63234
 11
32.898125
 21
-69.707165
  0
LINE
  8
補助線
  6
BYBLOCK
 62
    64
 10
32.935175
 20
-69.595287
 11
33.01
 21
-69.744215
  0
LINE
  8
補助線
  6
BYBLOCK
 62
    64
 10
42.816603
 20
-64.723808
 11
42.96553
 21
-64.648982
  0
LINE
  8
補助線
  6
BYBLOCK
 62
    64
 10
42.853652
 20
-64.61193
 11
42.928478
 21
-64.760858
  0
LINE
  8
型材断面
  6
CONTINUOUS
 10
22.382133
 20
-74.058133
 11
22.15983
 21
-74.729385
  0
LINE
  8
型材断面
  6
CONTINUOUS
 10
22.15983
 20
-74.729385
 11
22.459132
 21
-75.32509
  0
LINE
  8
型材断面
  6
CONTINUOUS
 10
22.459132
 20
-75.32509
 11
23.130385
 21
-75.547393
  0
LINE
  8
型材断面
  6
CONTINUOUS
 10
42.81479
 20
-63.792115
 11
43.486045
 21
-64.014418
  0
LINE
  8
型材断面
  6
CONTINUOUS
 10
43.486045
 20
-64.014418
 11
43.785347
 21
-64.610123
  0
LINE
  8
型材断面
  6
CONTINUOUS
 10
43.785347
 20
-64.610123
 11
43.563042
 21
-65.281375
  0
LINE
  8
型材断面
  6
CONTINUOUS
 10
22.382133
 20
-74.058133
 11
42.81479
 21
-63.792115
  0
LINE
  8
型材断面
  6
CONTINUOUS
 10
23.130385
 20
-75.547393
 11
43.563042
 21
-65.281375
  0
CIRCLE
  8
ボルト／ビス
  6
CONTINUOUS
 10
23.05411
 20
-74.65311
 40
0.250185
  0
CIRCLE
  8
ボルト／ビス
  6
CONTINUOUS
 10
23.05411
 20
-74.65311
 40
0.301025
  0
LINE
  8
ボルト／ビス
  6
CONTINUOUS
 62
    64
 10
22.804345
 20
-74.638608
 11
22.94179
 21
-74.429558
  0
LINE
  8
ボルト／ビス
  6
CONTINUOUS
 62
    64
 10
23.191555
 20
-74.44406
 11
22.94179
 21
-74.429558
  0
LINE
  8
ボルト／ビス
  6
CONTINUOUS
 62
    64
 10
22.916665
 20
-74.86216
 11
23.16643
 21
-74.876663
  0
LINE
  8
ボルト／ビス
  6
CONTINUOUS
 62
    64
 10
23.303875
 20
-74.667612
 11
23.16643
 21
-74.876663
  0
LINE
  8
ボルト／ビス
  6
CONTINUOUS
 62
    64
 10
22.804345
 20
-74.638608
 11
22.916665
 21
-74.86216
  0
LINE
  8
ボルト／ビス
  6
CONTINUOUS
 62
    64
 10
23.191555
 20
-74.44406
 11
23.303875
 21
-74.667612
  0
CIRCLE
  8
ボルト／ビス
  6
CONTINUOUS
 62
    64
 10
23.05411
 20
-74.65311
 40
0.216668
  0
CIRCLE
  8
ボルト／ビス
  6
CONTINUOUS
 10
32.972588
 20
-69.669752
 40
0.250185
  0
CIRCLE
  8
ボルト／ビス
  6
CONTINUOUS
 10
32.972588
 20
-69.669752
 40
0.301025
  0
LINE
  8
ボルト／ビス
  6
CONTINUOUS
 62
    64
 10
32.722823
 20
-69.655248
 11
32.860268
 21
-69.446198
  0
LINE
  8
ボルト／ビス
  6
CONTINUOUS
 62
    64
 10
33.110032
 20
-69.4607
 11
32.860268
 21
-69.446198
  0
LINE
  8
ボルト／ビス
  6
CONTINUOUS
 62
    64
 10
32.835143
 20
-69.878802
 11
33.08491
 21
-69.893307
  0
LINE
  8
ボルト／ビス
  6
CONTINUOUS
 62
    64
 10
33.222352
 20
-69.684257
 11
33.08491
 21
-69.893307
  0
LINE
  8
ボルト／ビス
  6
CONTINUOUS
 62
    64
 10
32.722823
 20
-69.655248
 11
32.835143
 21
-69.878802
  0
LINE
  8
ボルト／ビス
  6
CONTINUOUS
 62
    64
 10
33.110032
 20
-69.4607
 11
33.222352
 21
-69.684257
  0
CIRCLE
  8
ボルト／ビス
  6
CONTINUOUS
 62
    64
 10
32.972588
 20
-69.669752
 40
0.216668
  0
CIRCLE
  8
ボルト／ビス
  6
CONTINUOUS
 10
42.891065
 20
-64.686395
 40
0.250185
  0
CIRCLE
  8
ボルト／ビス
  6
CONTINUOUS
 10
42.891065
 20
-64.686395
 40
0.301025
  0
LINE
  8
ボルト／ビス
  6
CONTINUOUS
 62
    64
 10
43.02851
 20
-64.477345
 11
42.778745
 21
-64.462842
  0
LINE
  8
ボルト／ビス
  6
CONTINUOUS
 62
    64
 10
42.6413
 20
-64.671893
 11
42.778745
 21
-64.462842
  0
LINE
  8
ボルト／ビス
  6
CONTINUOUS
 62
    64
 10
43.14083
 20
-64.7009
 11
43.003387
 21
-64.909948
  0
LINE
  8
ボルト／ビス
  6
CONTINUOUS
 62
    64
 10
42.75362
 20
-64.895445
 11
43.003387
 21
-64.909948
  0
LINE
  8
ボルト／ビス
  6
CONTINUOUS
 62
    64
 10
43.02851
 20
-64.477345
 11
43.14083
 21
-64.7009
  0
LINE
  8
ボルト／ビス
  6
CONTINUOUS
 62
    64
 10
42.6413
 20
-64.671893
 11
42.75362
 21
-64.895445
  0
CIRCLE
  8
ボルト／ビス
  6
CONTINUOUS
 62
    64
 10
42.891065
 20
-64.686395
 40
0.216668
  0
ENDBLK
  0
BLOCK
  2
*DIM_0024
 70
    65
 10
0.0
 20
0.0
  0
LINE
  8
寸法
  6
CONTINUOUS
 10
141.310947
 20
-55.632178
 11
108.910947
 21
-55.632178
  0
POINT
  8
寸法
 10
141.310947
 20
-55.632178
  0
POINT
  8
寸法
 10
108.910947
 20
-55.632178
  0
TEXT
  7
TextStyle03
  8
寸法
  6
CONTINUOUS
 10
122.6625
 20
-55.275
  1
972
 40
3.0
 72
     5
 11
127.5375
 21
-55.275
  0
ENDBLK
  0
BLOCK
  2
*DIM_0025
 70
    65
 10
0.0
 20
0.0
  0
LINE
  8
寸法
  6
BYBLOCK
 62
     0
 10
65.401217
 20
-69.076395
 11
65.401217
 21
-61.743062
  0
POINT
  8
寸法
 62
     0
 10
65.401217
 20
-61.743062
  0
TEXT
  7
TextStyle03
  8
寸法
  6
CONTINUOUS
 62
     0
 10
64.875
 20
-60.69375
  1
上昇207以上
 40
3.0
 50
90.0
 72
     5
 11
64.875
 21
-42.50625
  0
ENDBLK
  0
BLOCK
  2
*DIM_0026
 70
    65
 10
0.0
 20
0.0
  0
LINE
  8
寸法
  6
BYBLOCK
 62
     0
 10
135.141108
 20
51.815152
 11
127.807775
 21
51.815152
  0
POINT
  8
寸法
 62
     0
 10
127.807775
 20
51.815152
  0
TEXT
  7
TextStyle03
  8
寸法
  6
CONTINUOUS
 62
     0
 10
106.35625
 20
50.825
  1
上昇207以上
 40
3.0
 72
     5
 11
124.54375
 21
50.825
  0
ENDBLK
  0
BLOCK
  2
*DIM_0027
 70
    65
 10
0.0
 20
0.0
  0
LINE
  8
寸法
  6
CONTINUOUS
 10
146.310947
 20
-63.785395
 11
149.72676
 21
-63.785395
  0
LINE
  8
寸法
  6
CONTINUOUS
 10
146.310947
 20
-83.785395
 11
149.72676
 21
-83.785395
  0
LINE
  8
寸法
  6
CONTINUOUS
 10
149.72676
 20
-63.785395
 11
149.72676
 21
-83.785395
  0
POINT
  8
寸法
 10
149.72676
 20
-63.785395
  0
POINT
  8
寸法
 10
149.72676
 20
-83.785395
  0
TEXT
  7
TextStyle03
  8
寸法
  6
CONTINUOUS
 10
149.35
 20
-76.2375
  1
600
 40
3.0
 50
90.0
 72
     5
 11
149.35
 21
-71.3625
  0
ENDBLK
  0
BLOCK
  2
*DIM_0028
 70
    65
 10
0.0
 20
0.0
  0
LINE
  8
寸法
  6
CONTINUOUS
 10
52.899907
 20
-69.076395
 11
65.401217
 21
-69.076395
  0
LINE
  8
寸法
  6
CONTINUOUS
 10
53.987732
 20
-77.192947
 11
65.401217
 21
-77.192947
  0
LINE
  8
寸法
  6
CONTINUOUS
 10
65.401217
 20
-69.076395
 11
65.401217
 21
-77.192947
  0
POINT
  8
寸法
 10
65.401217
 20
-69.076395
  0
POINT
  8
寸法
 10
65.401217
 20
-77.192947
  0
TEXT
  7
TextStyle03
  8
寸法
  6
CONTINUOUS
 10
68.425
 20
-77.275
  1
243.5
 40
3.0
 50
90.0
 72
     5
 11
68.425
 21
-69.025
  0
ENDBLK
  0
BLOCK
  2
*DIM_0029
 70
    65
 10
0.0
 20
0.0
  0
LINE
  8
寸法
  6
CONTINUOUS
 10
135.141108
 20
49.457957
 11
135.141108
 21
51.815152
  0
LINE
  8
寸法
  6
CONTINUOUS
 10
143.25766
 20
48.403357
 11
143.25766
 21
51.815152
  0
LINE
  8
寸法
  6
CONTINUOUS
 10
135.141108
 20
51.815152
 11
143.25766
 21
51.815152
  0
POINT
  8
寸法
 10
135.141108
 20
51.815152
  0
POINT
  8
寸法
 10
143.25766
 20
51.815152
  0
TEXT
  7
TextStyle03
  8
寸法
  6
CONTINUOUS
 10
135.1
 20
52.175
  1
243.5
 40
3.0
 72
     5
 11
143.35
 21
52.175
  0
ENDBLK
  0
ENDSEC
  0
SECTION
  2
ENTITIES
  0
POLYLINE
  8
通り芯
  6
CONTINUOUS
 66
     1
 70
     1
  0
VERTEX
  8
通り芯
 10
-210.0
 20
-148.5
  0
VERTEX
  8
通り芯
 10
210.0
 20
-148.5
  0
VERTEX
  8
通り芯
 10
210.0
 20
148.5
  0
VERTEX
  8
通り芯
 10
-210.0
 20
148.5
  0
SEQEND
  0
INSERT
  2
*GRP_0001
  8
型材断面
  6
CONTINUOUS
 10
0.0
 20
0.0
  0
LINE
  8
型材断面
  6
DASHDOT
 10
46.224393
 20
-77.836442
 11
46.224393
 21
42.814033
  0
LINE
  8
型材断面
  6
DASHDOT
 10
-37.10894
 20
-77.836442
 11
-37.10894
 21
42.814033
  0
LINE
  8
型材断面
  6
DASHDOT
 10
-120.442275
 20
-77.836442
 11
-120.442275
 21
42.814033
  0
LINE
  8
型材断面
  6
DASHDOT
 10
143.901155
 20
22.814033
 11
-120.442275
 21
22.814033
  0
LINE
  8
型材断面
  6
DASHDOT
 10
143.901155
 20
32.814033
 11
-120.442275
 21
32.814033
  0
LINE
  8
型材断面
  6
DASHDOT
 10
143.901155
 20
42.814033
 11
-120.442275
 21
42.814033
  0
POLYLINE
  8
型材断面
  6
CONTINUOUS
 66
     1
 70
     1
  0
VERTEX
  8
型材断面
 10
-27.309977
 20
13.03811
  0
VERTEX
  8
型材断面
 10
-46.081908
 20
13.03811
  0
VERTEX
  8
型材断面
 10
-46.081908
 20
8.301267
  0
VERTEX
  8
型材断面
 10
-27.309977
 20
8.301267
  0
SEQEND
  0
POLYLINE
  8
型材断面
  6
CONTINUOUS
 66
     1
 70
     1
  0
VERTEX
  8
型材断面
 10
-27.309977
 20
52.589955
  0
VERTEX
  8
型材断面
 10
-46.081908
 20
52.589955
  0
VERTEX
  8
型材断面
 10
-46.081908
 20
57.326798
  0
VERTEX
  8
型材断面
 10
-27.309977
 20
57.326798
  0
SEQEND
  0
LINE
  8
型材断面
  6
CONTINUOUS
 10
-161.294482
 20
80.791505
 11
-160.698427
 21
78.200998
  0
LINE
  8
型材断面
  6
CONTINUOUS
 10
-161.294482
 20
80.791505
 11
-161.89054
 21
78.200998
  0
LINE
  8
型材断面
  6
CONTINUOUS
 10
-161.89054
 20
78.200998
 11
-160.698427
 21
78.200998
  0
LINE
  8
型材断面
  6
CONTINUOUS
 10
-167.31707
 20
74.922105
 11
-121.075292
 21
74.922105
  0
LINE
  8
型材断面
  6
CONTINUOUS
 10
-161.294482
 20
87.32138
 11
-162.790113
 21
84.730873
  0
LINE
  8
型材断面
  6
CONTINUOUS
 10
-161.294482
 20
87.32138
 11
-159.798852
 21
84.730873
  0
LINE
  8
型材断面
  6
CONTINUOUS
 10
-159.798852
 20
84.730873
 11
-162.790113
 21
84.730873
  0
LINE
  8
型材断面
  6
CONTINUOUS
 10
-167.31707
 20
83.792277
 11
-121.075292
 21
83.792277
  0
LINE
  8
型材断面
  6
CONTINUOUS
 10
-167.31707
 20
69.134073
 11
-121.075292
 21
69.134073
  0
LINE
  8
型材断面
  6
CONTINUOUS
 10
-167.31707
 20
63.34604
 11
-121.075292
 21
63.34604
  0
INSERT
  2
*GRP_0013
  8
型材断面
  6
DASHDOT
 10
0.0
 20
0.0
  0
LINE
  8
型材断面
  6
CONTINUOUS
 10
-123.20561
 20
20.050848
 11
48.98773
 21
20.050848
  0
LINE
  8
型材断面
  6
CONTINUOUS
 10
-123.20561
 20
45.57722
 11
48.98773
 21
45.57722
  0
LINE
  8
型材断面
  6
CONTINUOUS
 10
-123.20561
 20
32.814035
 11
-125.796118
 21
34.309665
  0
LINE
  8
型材断面
  6
CONTINUOUS
 10
-123.20561
 20
32.814035
 11
-125.796118
 21
31.318405
  0
LINE
  8
型材断面
  6
CONTINUOUS
 10
-125.796118
 20
31.318405
 11
-125.796118
 21
34.309665
  0
LINE
  8
型材断面
  6
CONTINUOUS
 10
-123.205608
 20
39.114038
 11
-125.796118
 21
38.517985
  0
LINE
  8
型材断面
  6
CONTINUOUS
 10
-123.205608
 20
39.114038
 11
-125.796115
 21
39.710097
  0
LINE
  8
型材断面
  6
CONTINUOUS
 10
-125.796115
 20
39.710097
 11
-125.796118
 21
38.517985
  0
LINE
  8
型材断面
  6
CONTINUOUS
 10
-123.205608
 20
26.514033
 11
-125.796118
 21
27.110085
  0
LINE
  8
型材断面
  6
CONTINUOUS
 10
-123.205608
 20
26.514033
 11
-125.796115
 21
25.917972
  0
LINE
  8
型材断面
  6
CONTINUOUS
 10
-125.796115
 20
25.917972
 11
-125.796118
 21
27.110085
  0
LINE
  8
型材断面
  6
CONTINUOUS
 10
-103.775608
 20
45.57722
 11
-105.271238
 21
48.167727
  0
LINE
  8
型材断面
  6
CONTINUOUS
 10
-103.775608
 20
45.57722
 11
-102.279978
 21
48.167727
  0
LINE
  8
型材断面
  6
CONTINUOUS
 10
-102.279978
 20
48.167727
 11
-105.271238
 21
48.167727
  0
LINE
  8
型材断面
  6
CONTINUOUS
 10
29.557727
 20
45.57722
 11
31.053357
 21
48.167727
  0
LINE
  8
型材断面
  6
CONTINUOUS
 10
29.557727
 20
45.57722
 11
28.062097
 21
48.167727
  0
LINE
  8
型材断面
  6
CONTINUOUS
 10
28.062097
 20
48.167727
 11
31.053357
 21
48.167727
  0
LINE
  8
型材断面
  6
CONTINUOUS
 10
-37.10894
 20
45.577218
 11
-35.61331
 21
48.167725
  0
LINE
  8
型材断面
  6
CONTINUOUS
 10
-37.10894
 20
45.577218
 11
-38.60457
 21
48.167725
  0
LINE
  8
型材断面
  6
CONTINUOUS
 10
-38.60457
 20
48.167725
 11
-35.61331
 21
48.167725
  0
LINE
  8
型材断面
  6
CONTINUOUS
 10
48.98773
 20
32.814033
 11
51.578238
 21
34.309663
  0
LINE
  8
型材断面
  6
CONTINUOUS
 10
48.98773
 20
32.814033
 11
51.578238
 21
31.318403
  0
LINE
  8
型材断面
  6
CONTINUOUS
 10
51.578238
 20
31.318403
 11
51.578238
 21
34.309663
  0
LINE
  8
型材断面
  6
CONTINUOUS
 10
48.987728
 20
39.114035
 11
51.578238
 21
38.517982
  0
LINE
  8
型材断面
  6
CONTINUOUS
 10
48.987728
 20
39.114035
 11
51.578235
 21
39.710095
  0
LINE
  8
型材断面
  6
CONTINUOUS
 10
51.578235
 20
39.710095
 11
51.578238
 21
38.517982
  0
LINE
  8
型材断面
  6
CONTINUOUS
 10
48.987728
 20
26.51403
 11
51.578238
 21
27.110082
  0
LINE
  8
型材断面
  6
CONTINUOUS
 10
48.987728
 20
26.51403
 11
51.578235
 21
25.91797
  0
LINE
  8
型材断面
  6
CONTINUOUS
 10
51.578235
 20
25.91797
 11
51.578238
 21
27.110082
  0
LINE
  8
型材断面
  6
CONTINUOUS
 10
-103.775608
 20
20.050848
 11
-105.271238
 21
17.46034
  0
LINE
  8
型材断面
  6
CONTINUOUS
 10
-103.775608
 20
20.050848
 11
-102.279978
 21
17.46034
  0
LINE
  8
型材断面
  6
CONTINUOUS
 10
-102.279978
 20
17.46034
 11
-105.271238
 21
17.46034
  0
LINE
  8
型材断面
  6
CONTINUOUS
 10
29.557727
 20
20.050848
 11
31.053357
 21
17.46034
  0
LINE
  8
型材断面
  6
CONTINUOUS
 10
29.557727
 20
20.050848
 11
28.062097
 21
17.46034
  0
LINE
  8
型材断面
  6
CONTINUOUS
 10
28.062097
 20
17.46034
 11
31.053357
 21
17.46034
  0
LINE
  8
型材断面
  6
CONTINUOUS
 10
-37.10894
 20
20.050845
 11
-35.61331
 21
17.460338
  0
LINE
  8
型材断面
  6
CONTINUOUS
 10
-37.10894
 20
20.050845
 11
-38.60457
 21
17.460338
  0
LINE
  8
型材断面
  6
CONTINUOUS
 10
-38.60457
 20
17.460338
 11
-35.61331
 21
17.460338
  0
INSERT
  2
*GRP_0020
  8
型材断面
  6
CONTINUOUS
 10
0.0
 20
0.0
  0
INSERT
  2
*GRP_0021
  8
型材断面
  6
CONTINUOUS
 10
0.0
 20
0.0
  0
INSERT
  2
*GRP_0022
  8
型材断面
  6
CONTINUOUS
 10
0.0
 20
0.0
  0
INSERT
  2
*GRP_0023
  8
型材断面
  6
CONTINUOUS
 10
0.0
 20
0.0
  0
LINE
  8
型材断面
  6
DASHDOT
 10
13.241063
 20
22.814033
 11
13.241063
 21
42.814033
  0
LINE
  8
型材断面
  6
DASHDOT
 10
-20.325605
 20
22.814033
 11
-20.325605
 21
42.814033
  0
LINE
  8
型材断面
  6
CONTINUOUS
 10
14.491063
 20
24.314033
 11
11.991063
 21
24.314035
  0
LINE
  8
型材断面
  6
CONTINUOUS
 10
14.491063
 20
24.314033
 11
14.491063
 21
41.314033
  0
LINE
  8
型材断面
  6
CONTINUOUS
 10
11.991063
 20
24.314035
 11
11.991063
 21
41.31403
  0
LINE
  8
型材断面
  6
CONTINUOUS
 10
14.491063
 20
41.314033
 11
11.991063
 21
41.31403
  0
LINE
  8
型材断面
  6
CONTINUOUS
 10
-19.075605
 20
24.314033
 11
-21.575605
 21
24.314035
  0
LINE
  8
型材断面
  6
CONTINUOUS
 10
-19.075605
 20
24.314033
 11
-19.075605
 21
41.314033
  0
LINE
  8
型材断面
  6
CONTINUOUS
 10
-21.575605
 20
24.314035
 11
-21.575605
 21
41.31403
  0
LINE
  8
型材断面
  6
CONTINUOUS
 10
-19.075605
 20
41.314033
 11
-21.575605
 21
41.31403
  0
LINE
  8
型材断面
  6
CONTINUOUS
 10
30.149395
 20
23.480688
 11
30.149395
 21
20.98069
  0
LINE
  8
型材断面
  6
CONTINUOUS
 10
29.31606
 20
23.48069
 11
29.31606
 21
20.98069
  0
LINE
  8
型材断面
  6
CONTINUOUS
 10
-3.125602
 20
23.480688
 11
-3.125602
 21
20.98069
  0
LINE
  8
型材断面
  6
CONTINUOUS
 10
-3.958937
 20
23.48069
 11
-3.958937
 21
20.98069
  0
LINE
  8
型材断面
  6
CONTINUOUS
 10
-36.692273
 20
23.480688
 11
-36.692273
 21
20.98069
  0
LINE
  8
型材断面
  6
CONTINUOUS
 10
-37.525608
 20
23.48069
 11
-37.525608
 21
20.98069
  0
LINE
  8
型材断面
  6
CONTINUOUS
 10
30.149395
 20
42.147378
 11
30.149395
 21
44.647375
  0
LINE
  8
型材断面
  6
CONTINUOUS
 10
29.31606
 20
42.147375
 11
29.31606
 21
44.647375
  0
LINE
  8
型材断面
  6
CONTINUOUS
 10
-3.125602
 20
42.147378
 11
-3.125602
 21
44.647375
  0
LINE
  8
型材断面
  6
CONTINUOUS
 10
-3.958937
 20
42.147375
 11
-3.958937
 21
44.647375
  0
LINE
  8
型材断面
  6
CONTINUOUS
 10
-36.692273
 20
42.147378
 11
-36.692273
 21
44.647375
  0
LINE
  8
型材断面
  6
CONTINUOUS
 10
-37.525608
 20
42.147375
 11
-37.525608
 21
44.647375
  0
LINE
  8
型材断面
  6
CONTINUOUS
 10
-3.958937
 20
42.147352
 11
-36.692273
 21
42.147328
  0
LINE
  8
型材断面
  6
CONTINUOUS
 10
-3.958937
 20
23.480712
 11
-36.692273
 21
23.480738
  0
LINE
  8
型材断面
  6
CONTINUOUS
 10
29.31606
 20
23.48069
 11
-3.125602
 21
23.480712
  0
LINE
  8
型材断面
  6
CONTINUOUS
 10
29.31606
 20
42.147375
 11
-3.125602
 21
42.147352
  0
LINE
  8
型材断面
  6
CONTINUOUS
 10
48.98773
 20
20.050848
 11
48.98773
 21
45.57722
  0
LINE
  8
型材断面
  6
CONTINUOUS
 10
47.82205
 20
20.98068
 11
48.05775
 21
21.21638
  0
LINE
  8
型材断面
  6
CONTINUOUS
 10
45.322048
 20
23.48068
 11
45.557748
 21
23.71638
  0
LINE
  8
型材断面
  6
CONTINUOUS
 10
45.557748
 20
23.71638
 11
48.05775
 21
21.21638
  0
LINE
  8
型材断面
  6
CONTINUOUS
 10
45.322048
 20
23.48068
 11
47.82205
 21
20.98068
  0
LINE
  8
型材断面
  6
CONTINUOUS
 10
48.987582
 20
20.050848
 11
47.939898
 21
21.098527
  0
LINE
  8
型材断面
  6
CONTINUOUS
 10
48.057735
 20
32.814033
 11
48.05775
 21
21.21638
  0
LINE
  8
型材断面
  6
CONTINUOUS
 10
45.557735
 20
33.2307
 11
48.057735
 21
33.2307
  0
LINE
  8
型材断面
  6
CONTINUOUS
 10
45.557735
 20
32.397365
 11
48.057735
 21
32.397365
  0
LINE
  8
型材断面
  6
CONTINUOUS
 10
45.557735
 20
32.397365
 11
45.557748
 21
23.71638
  0
LINE
  8
型材断面
  6
CONTINUOUS
 10
47.82205
 20
44.647385
 11
48.05775
 21
44.411685
  0
LINE
  8
型材断面
  6
CONTINUOUS
 10
45.322048
 20
42.147385
 11
45.557748
 21
41.911685
  0
LINE
  8
型材断面
  6
CONTINUOUS
 10
45.557748
 20
41.911685
 11
48.05775
 21
44.411685
  0
LINE
  8
型材断面
  6
CONTINUOUS
 10
45.322048
 20
42.147385
 11
47.82205
 21
44.647385
  0
LINE
  8
型材断面
  6
CONTINUOUS
 10
48.987582
 20
45.577218
 11
47.939898
 21
44.529537
  0
LINE
  8
型材断面
  6
CONTINUOUS
 10
45.557735
 20
33.2307
 11
45.557748
 21
41.911685
  0
LINE
  8
型材断面
  6
CONTINUOUS
 10
48.057735
 20
32.814033
 11
48.05775
 21
44.411685
  0
LINE
  8
型材断面
  6
CONTINUOUS
 10
30.149395
 20
42.147378
 11
45.32205
 21
42.147387
  0
LINE
  8
型材断面
  6
CONTINUOUS
 10
-37.10894
 20
44.64733
 11
47.822053
 21
44.647387
  0
LINE
  8
型材断面
  6
CONTINUOUS
 10
30.149395
 20
23.480688
 11
45.32205
 21
23.480677
  0
LINE
  8
型材断面
  6
CONTINUOUS
 10
-37.10894
 20
20.980735
 11
47.822053
 21
20.980677
  0
LINE
  8
型材断面
  6
DASHDOT
 10
-87.458943
 20
22.814033
 11
-87.458943
 21
42.814033
  0
LINE
  8
型材断面
  6
DASHDOT
 10
-53.892275
 20
22.814033
 11
-53.892275
 21
42.814033
  0
LINE
  8
型材断面
  6
CONTINUOUS
 10
-88.708943
 20
24.314033
 11
-86.208943
 21
24.314035
  0
LINE
  8
型材断面
  6
CONTINUOUS
 10
-88.708943
 20
24.314033
 11
-88.708943
 21
41.314033
  0
LINE
  8
型材断面
  6
CONTINUOUS
 10
-86.208943
 20
24.314035
 11
-86.208943
 21
41.31403
  0
LINE
  8
型材断面
  6
CONTINUOUS
 10
-88.708943
 20
41.314033
 11
-86.208943
 21
41.31403
  0
LINE
  8
型材断面
  6
CONTINUOUS
 10
-55.142275
 20
24.314033
 11
-52.642275
 21
24.314035
  0
LINE
  8
型材断面
  6
CONTINUOUS
 10
-55.142275
 20
24.314033
 11
-55.142275
 21
41.314033
  0
LINE
  8
型材断面
  6
CONTINUOUS
 10
-52.642275
 20
24.314035
 11
-52.642275
 21
41.31403
  0
LINE
  8
型材断面
  6
CONTINUOUS
 10
-55.142275
 20
41.314033
 11
-52.642275
 21
41.31403
  0
LINE
  8
型材断面
  6
CONTINUOUS
 10
-104.367275
 20
23.480688
 11
-104.367275
 21
20.98069
  0
LINE
  8
型材断面
  6
CONTINUOUS
 10
-103.53394
 20
23.48069
 11
-103.53394
 21
20.98069
  0
LINE
  8
型材断面
  6
CONTINUOUS
 10
-71.092277
 20
23.480688
 11
-71.092277
 21
20.98069
  0
LINE
  8
型材断面
  6
CONTINUOUS
 10
-70.258943
 20
23.48069
 11
-70.258943
 21
20.98069
  0
LINE
  8
型材断面
  6
CONTINUOUS
 10
-104.367275
 20
42.147378
 11
-104.367275
 21
44.647375
  0
LINE
  8
型材断面
  6
CONTINUOUS
 10
-103.53394
 20
42.147375
 11
-103.53394
 21
44.647375
  0
LINE
  8
型材断面
  6
CONTINUOUS
 10
-71.092277
 20
42.147378
 11
-71.092277
 21
44.647375
  0
LINE
  8
型材断面
  6
CONTINUOUS
 10
-70.258943
 20
42.147375
 11
-70.258943
 21
44.647375
  0
LINE
  8
型材断面
  6
CONTINUOUS
 10
-103.53394
 20
23.48069
 11
-71.092277
 21
23.480712
  0
LINE
  8
型材断面
  6
CONTINUOUS
 10
-103.53394
 20
42.147375
 11
-71.092277
 21
42.147352
  0
LINE
  8
型材断面
  6
CONTINUOUS
 10
-123.20561
 20
20.050848
 11
-123.20561
 21
45.57722
  0
LINE
  8
型材断面
  6
CONTINUOUS
 10
-122.03993
 20
20.98068
 11
-122.27563
 21
21.21638
  0
LINE
  8
型材断面
  6
CONTINUOUS
 10
-119.539927
 20
23.48068
 11
-119.775627
 21
23.71638
  0
LINE
  8
型材断面
  6
CONTINUOUS
 10
-119.775627
 20
23.71638
 11
-122.27563
 21
21.21638
  0
LINE
  8
型材断面
  6
CONTINUOUS
 10
-119.539927
 20
23.48068
 11
-122.03993
 21
20.98068
  0
LINE
  8
型材断面
  6
CONTINUOUS
 10
-123.205462
 20
20.050848
 11
-122.157777
 21
21.098527
  0
LINE
  8
型材断面
  6
CONTINUOUS
 10
-122.275615
 20
32.814033
 11
-122.27563
 21
21.21638
  0
LINE
  8
型材断面
  6
CONTINUOUS
 10
-119.775615
 20
33.2307
 11
-122.275615
 21
33.2307
  0
LINE
  8
型材断面
  6
CONTINUOUS
 10
-119.775615
 20
32.397365
 11
-122.275615
 21
32.397365
  0
LINE
  8
型材断面
  6
CONTINUOUS
 10
-119.775615
 20
32.397365
 11
-119.775627
 21
23.71638
  0
LINE
  8
型材断面
  6
CONTINUOUS
 10
-122.03993
 20
44.647385
 11
-122.27563
 21
44.411685
  0
LINE
  8
型材断面
  6
CONTINUOUS
 10
-119.539927
 20
42.147385
 11
-119.775627
 21
41.911685
  0
LINE
  8
型材断面
  6
CONTINUOUS
 10
-119.775627
 20
41.911685
 11
-122.27563
 21
44.411685
  0
LINE
  8
型材断面
  6
CONTINUOUS
 10
-119.539927
 20
42.147385
 11
-122.03993
 21
44.647385
  0
LINE
  8
型材断面
  6
CONTINUOUS
 10
-123.205462
 20
45.577218
 11
-122.157777
 21
44.529537
  0
LINE
  8
型材断面
  6
CONTINUOUS
 10
-119.775615
 20
33.2307
 11
-119.775627
 21
41.911685
  0
LINE
  8
型材断面
  6
CONTINUOUS
 10
-122.275615
 20
32.814033
 11
-122.27563
 21
44.411685
  0
LINE
  8
型材断面
  6
CONTINUOUS
 10
-104.367275
 20
42.147378
 11
-119.53993
 21
42.147387
  0
LINE
  8
型材断面
  6
CONTINUOUS
 10
-104.367275
 20
23.480688
 11
-119.53993
 21
23.480677
  0
LINE
  8
型材断面
  6
CONTINUOUS
 10
-37.525608
 20
23.480738
 11
-70.258943
 21
23.480712
  0
LINE
  8
型材断面
  6
CONTINUOUS
 10
-37.525608
 20
42.147328
 11
-70.258943
 21
42.147352
  0
LINE
  8
型材断面
  6
CONTINUOUS
 10
-37.10894
 20
44.64733
 11
-122.039933
 21
44.647387
  0
LINE
  8
型材断面
  6
CONTINUOUS
 10
-37.10894
 20
20.980735
 11
-122.039933
 21
20.980677
  0
LINE
  8
型材断面
  6
CONTINUOUS
 10
48.487732
 20
-77.192947
 11
48.487732
 21
-77.529612
  0
LINE
  8
型材断面
  6
CONTINUOUS
 10
48.791065
 20
-73.096397
 11
48.987732
 21
-73.293065
  0
LINE
  8
型材断面
  6
CONTINUOUS
 10
48.987732
 20
-73.293065
 11
48.987732
 21
-77.192947
  0
LINE
  8
型材断面
  6
CONTINUOUS
 10
143.25766
 20
45.077223
 11
143.594325
 21
45.077223
  0
LINE
  8
型材断面
  6
CONTINUOUS
 10
139.16111
 20
45.380555
 11
139.357777
 21
45.577223
  0
LINE
  8
型材断面
  6
CONTINUOUS
 10
139.357777
 20
45.577223
 11
143.25766
 21
45.577223
  0
LINE
  8
型材断面
  6
CONTINUOUS
 62
    47
 10
139.161155
 20
45.380597
 11
139.161155
 21
32.814033
  0
LINE
  8
型材断面
  6
CONTINUOUS
 10
139.357777
 20
45.577223
 11
139.357777
 21
32.814033
  0
LINE
  8
型材断面
  6
CONTINUOUS
 10
143.594325
 20
45.077223
 11
143.594325
 21
32.814033
  0
LINE
  8
型材断面
  6
CONTINUOUS
 10
143.25766
 20
45.577223
 11
143.25766
 21
32.814033
  0
LINE
  8
型材断面
  6
CONTINUOUS
 10
143.25766
 20
20.550842
 11
143.594325
 21
20.550842
  0
LINE
  8
型材断面
  6
CONTINUOUS
 10
139.16111
 20
20.24751
 11
139.357777
 21
20.050842
  0
LINE
  8
型材断面
  6
CONTINUOUS
 10
139.357777
 20
20.050842
 11
143.25766
 21
20.050842
  0
LINE
  8
型材断面
  6
CONTINUOUS
 62
    47
 10
139.161155
 20
20.247467
 11
139.161155
 21
32.814033
  0
LINE
  8
型材断面
  6
CONTINUOUS
 10
139.357777
 20
20.050842
 11
139.357777
 21
32.814033
  0
LINE
  8
型材断面
  6
CONTINUOUS
 10
143.594325
 20
20.550842
 11
143.594325
 21
32.814033
  0
LINE
  8
型材断面
  6
CONTINUOUS
 10
143.25766
 20
20.050842
 11
143.25766
 21
32.814033
  0
LINE
  8
型材断面
  6
CONTINUOUS
 10
48.987732
 20
-77.192947
 11
-37.10894
 21
-77.192947
  0
LINE
  8
型材断面
  6
CONTINUOUS
 10
48.487732
 20
-77.529612
 11
-37.10894
 21
-77.529612
  0
LINE
  8
型材断面
  6
CONTINUOUS
 62
    47
 10
48.791107
 20
-73.096443
 11
-37.10894
 21
-73.096443
  0
LINE
  8
型材断面
  6
CONTINUOUS
 10
48.987732
 20
-73.293065
 11
-37.10894
 21
-73.293065
  0
LINE
  8
型材断面
  6
CONTINUOUS
 10
-122.705613
 20
-77.192947
 11
-122.705613
 21
-77.529612
  0
LINE
  8
型材断面
  6
CONTINUOUS
 10
-123.008945
 20
-73.096397
 11
-123.205613
 21
-73.293065
  0
LINE
  8
型材断面
  6
CONTINUOUS
 10
-123.205613
 20
-73.293065
 11
-123.205613
 21
-77.192947
  0
LINE
  8
型材断面
  6
CONTINUOUS
 10
-123.205613
 20
-77.192947
 11
-37.10894
 21
-77.192947
  0
LINE
  8
型材断面
  6
CONTINUOUS
 10
-122.705613
 20
-77.529612
 11
-37.10894
 21
-77.529612
  0
LINE
  8
型材断面
  6
CONTINUOUS
 62
    47
 10
-123.008987
 20
-73.096443
 11
-37.10894
 21
-73.096443
  0
LINE
  8
型材断面
  6
CONTINUOUS
 10
-123.205613
 20
-73.293065
 11
-37.10894
 21
-73.293065
  0
TEXT
  7
TextStyle03
  8
文字
  6
CONTINUOUS
 10
-45.025
 20
9.325
  1
可動装置側
 40
3.0
 72
     5
 11
-28.525
 21
9.325
  0
TEXT
  7
TextStyle03
  8
文字
  6
CONTINUOUS
 10
-45.025
 20
53.3
  1
可動装置側
 40
3.0
 72
     5
 11
-28.525
 21
53.3
  0
TEXT
  7
TextStyle03
  8
文字
  6
CONTINUOUS
 10
-158.45
 20
79.425
  1
はケーシング位置を示す
 40
3.0
 72
     5
 11
-121.7
 21
79.425
  0
TEXT
  7
TextStyle03
  8
文字
  6
CONTINUOUS
 10
-158.45
 20
76.05
  1
４ヶ所中1ヶ所に設定
 40
3.0
 72
     5
 11
-126.7625
 21
76.05
  0
TEXT
  7
TextStyle03
  8
文字
  6
CONTINUOUS
 10
-158.45
 20
84.95
  1
は排水穴位置を示す
 40
3.0
 72
     5
 11
-128.45
 21
84.95
  0
TEXT
  7
TextStyle03
  8
文字
  6
CONTINUOUS
 10
-141.475
 20
11.275
  1
アンカーピッチ
 40
3.0
 50
90.0
 72
     5
 11
-141.475
 21
34.525
  0
TEXT
  7
TextStyle03
  8
文字
  6
CONTINUOUS
 10
-109.725
 20
80.25
  1
アンカーピッチ
 40
3.0
 72
     5
 11
-86.475
 21
80.25
  0
TEXT
  7
TextStyle03
  8
文字
  6
CONTINUOUS
 10
-162.175
 20
70.075
  1
アンカー数量　１８ヶ所
 40
3.0
 72
     5
 11
-125.425
 21
70.075
  0
TEXT
  7
TextStyle03
  8
文字
  6
CONTINUOUS
 10
-162.225
 20
64.3
  1
アームユニット数　４ヶ所
 40
3.0
 72
     5
 11
-122.1
 21
64.3
  0
LINE
  8
文字
  6
CONTINUOUS
 10
137.35342
 20
45.57722
 11
80.244043
 21
45.57722
  0
LINE
  8
文字
  6
CONTINUOUS
 10
137.35342
 20
20.050848
 11
80.244043
 21
20.050848
  0
LINE
  8
文字
  6
CONTINUOUS
 10
135.141108
 20
51.815152
 11
135.141108
 21
46.90238
  0
LINE
  8
文字
  6
CONTINUOUS
 10
127.807775
 20
51.815152
 11
127.807775
 21
46.90238
  0
LINE
  8
文字
  6
CONTINUOUS
 10
-123.20561
 20
-70.743062
 11
-123.20561
 21
-12.609317
  0
LINE
  8
文字
  6
CONTINUOUS
 10
48.98773
 20
-70.743062
 11
48.98773
 21
-12.609317
  0
LINE
  8
文字
  6
CONTINUOUS
 10
65.401217
 20
-69.076395
 11
51.797537
 21
-69.076395
  0
LINE
  8
文字
  6
CONTINUOUS
 10
65.401217
 20
-61.743062
 11
51.797537
 21
-61.743062
  0
LINE
  8
文字
  6
CONTINUOUS
 10
141.310947
 20
-55.632178
 11
141.310947
 21
-62.830933
  0
LINE
  8
文字
  6
CONTINUOUS
 10
108.910947
 20
-55.632178
 11
108.910947
 21
-62.830933
  0
TEXT
  7
TextStyle03
  8
文字
  6
CONTINUOUS
 10
122.775
 20
-77.35
  1
網入り6.8t
 40
3.0
 72
     5
 11
139.4625
 21
-77.35
  0
TEXT
  7
TextStyle03
  8
文字
  6
CONTINUOUS
 10
129.45
 20
-82.025
  1
×５枚
 40
3.0
 72
     5
 11
139.2
 21
-82.025
  0
TEXT
  7
TextStyle03
  8
文字
  6
CONTINUOUS
 10
60.8
 20
125.25
  1
シリーズ：ＴＦＦＬ
 40
5.0
 72
     5
 11
110.8
 21
125.25
  0
TEXT
  7
TextStyle03
  8
文字
  6
CONTINUOUS
 10
60.8
 20
119.625
  1
　　　　　（上下可動）600×5000タイプ
 40
5.0
 72
     5
 11
164.2375
 21
119.625
  0
TEXT
  7
TextStyle03
  8
文字
  6
CONTINUOUS
 10
60.8
 20
114.0
  1
図面名　：外観姿図
 40
5.0
 72
     5
 11
110.8
 21
114.0
  0
TEXT
  7
TextStyle03
  8
文字
  6
CONTINUOUS
 10
60.8
 20
108.375
  1
　　　　　　
 40
5.0
 72
     5
 11
93.925
 21
108.375
  0
TEXT
  7
TextStyle03
  8
文字
  6
CONTINUOUS
 10
60.95
 20
104.525
  1
ＮＳコード：ＮＳＦＬ
 40
5.0
 72
     5
 11
116.575
 21
104.525
  0
INSERT
  2
*DIM_0002
  8
寸法
  6
CONTINUOUS
 10
0.0
 20
0.0
  0
INSERT
  2
*DIM_0003
  8
寸法
  6
CONTINUOUS
 10
0.0
 20
0.0
  0
INSERT
  2
*DIM_0004
  8
寸法
  6
CONTINUOUS
 10
0.0
 20
0.0
  0
INSERT
  2
*DIM_0005
  8
寸法
  6
CONTINUOUS
 10
0.0
 20
0.0
  0
INSERT
  2
*DIM_0006
  8
寸法
  6
CONTINUOUS
 10
0.0
 20
0.0
  0
INSERT
  2
*DIM_0007
  8
寸法
  6
CONTINUOUS
 10
0.0
 20
0.0
  0
INSERT
  2
*DIM_0008
  8
寸法
  6
CONTINUOUS
 10
0.0
 20
0.0
  0
INSERT
  2
*DIM_0009
  8
寸法
  6
CONTINUOUS
 10
0.0
 20
0.0
  0
INSERT
  2
*DIM_0010
  8
寸法
  6
CONTINUOUS
 10
0.0
 20
0.0
  0
INSERT
  2
*DIM_0011
  8
寸法
  6
CONTINUOUS
 10
0.0
 20
0.0
  0
INSERT
  2
*DIM_0012
  8
寸法
  6
CONTINUOUS
 10
0.0
 20
0.0
  0
INSERT
  2
*DIM_0014
  8
寸法
  6
CONTINUOUS
 10
0.0
 20
0.0
  0
INSERT
  2
*DIM_0015
  8
寸法
  6
CONTINUOUS
 10
0.0
 20
0.0
  0
INSERT
  2
*DIM_0016
  8
寸法
  6
CONTINUOUS
 10
0.0
 20
0.0
  0
INSERT
  2
*DIM_0017
  8
寸法
  6
CONTINUOUS
 10
0.0
 20
0.0
  0
INSERT
  2
*DIM_0018
  8
寸法
  6
CONTINUOUS
 10
0.0
 20
0.0
  0
INSERT
  2
*DIM_0019
  8
寸法
  6
CONTINUOUS
 10
0.0
 20
0.0
  0
INSERT
  2
*DIM_0024
  8
寸法
  6
CONTINUOUS
 10
0.0
 20
0.0
  0
INSERT
  2
*DIM_0025
  8
寸法
  6
CONTINUOUS
 10
0.0
 20
0.0
  0
INSERT
  2
*DIM_0026
  8
寸法
  6
CONTINUOUS
 10
0.0
 20
0.0
  0
INSERT
  2
*DIM_0027
  8
寸法
  6
CONTINUOUS
 10
0.0
 20
0.0
  0
INSERT
  2
*DIM_0028
  8
寸法
  6
CONTINUOUS
 10
0.0
 20
0.0
  0
INSERT
  2
*DIM_0029
  8
寸法
  6
CONTINUOUS
 10
0.0
 20
0.0
  0
LINE
  8
別途部材
  6
CONTINUOUS
 62
    47
 10
135.241108
 20
20.980845
 11
135.307775
 21
20.980845
  0
ARC
  8
別途部材
  6
CONTINUOUS
 62
    47
 10
135.241107
 20
21.080846
 40
0.1
 50
180.0
 51
270.0
  0
LINE
  8
別途部材
  6
CONTINUOUS
 62
    47
 10
135.307775
 20
21.137368
 11
136.807775
 21
21.137368
  0
LINE
  8
別途部材
  6
CONTINUOUS
 62
    47
 10
139.124443
 20
20.050848
 11
139.124443
 21
32.814033
  0
LINE
  8
別途部材
  6
CONTINUOUS
 62
    47
 10
137.957777
 20
20.050848
 11
137.957777
 21
32.814033
  0
LINE
  8
別途部材
  6
CONTINUOUS
 62
    47
 10
136.807775
 20
21.137368
 11
136.807775
 21
32.814033
  0
LINE
  8
別途部材
  6
CONTINUOUS
 62
    47
 10
135.307775
 20
20.980845
 11
135.307775
 21
32.814033
  0
LINE
  8
別途部材
  6
CONTINUOUS
 62
    47
 10
135.141108
 20
21.080845
 11
135.141108
 21
32.814033
  0
LINE
  8
別途部材
  6
CONTINUOUS
 62
    47
 10
135.241108
 20
44.647222
 11
135.307775
 21
44.647222
  0
ARC
  8
別途部材
  6
CONTINUOUS
 62
    47
 10
135.241107
 20
44.547222
 40
0.1
 50
90.0
 51
180.0
  0
LINE
  8
別途部材
  6
CONTINUOUS
 62
    47
 10
135.307775
 20
44.4907
 11
136.807775
 21
44.4907
  0
LINE
  8
別途部材
  6
CONTINUOUS
 62
    47
 10
139.124443
 20
45.57722
 11
139.124443
 21
32.814033
  0
LINE
  8
別途部材
  6
CONTINUOUS
 62
    47
 10
137.957777
 20
45.57722
 11
137.957777
 21
32.814033
  0
LINE
  8
別途部材
  6
CONTINUOUS
 62
    47
 10
136.807775
 20
44.4907
 11
136.807775
 21
32.814033
  0
LINE
  8
別途部材
  6
CONTINUOUS
 62
    47
 10
135.307775
 20
44.647222
 11
135.307775
 21
32.814033
  0
LINE
  8
別途部材
  6
CONTINUOUS
 62
    47
 10
135.141108
 20
44.547222
 11
135.141108
 21
32.814033
  0
LINE
  8
別途部材
  6
CONTINUOUS
 62
    47
 10
-122.275612
 20
-69.176395
 11
-122.275612
 21
-69.243062
  0
ARC
  8
別途部材
  6
CONTINUOUS
 62
    47
 10
-122.175609
 20
-69.176398
 40
0.1
 50
90.0
 51
180.0
  0
LINE
  8
別途部材
  6
CONTINUOUS
 62
    47
 10
-122.11909
 20
-69.243062
 11
-122.11909
 21
-70.743062
  0
LINE
  8
別途部材
  6
DOT
 62
    47
 10
-122.275612
 20
-61.843062
 11
-122.275612
 21
-61.90973
  0
ARC
  8
別途部材
  6
DOT
 62
    47
 10
-122.175609
 20
-61.843064
 40
0.1
 50
90.0
 51
180.0
  0
LINE
  8
別途部材
  6
DOT
 62
    47
 10
-122.11909
 20
-61.90973
 11
-122.11909
 21
-63.40973
  0
LINE
  8
別途部材
  6
CONTINUOUS
 62
    47
 10
48.057733
 20
-69.176395
 11
48.057733
 21
-69.243062
  0
ARC
  8
別途部材
  6
CONTINUOUS
 62
    47
 10
47.957726
 20
-69.176398
 40
0.1
 50
0.0
 51
90.0
  0
LINE
  8
別途部材
  6
CONTINUOUS
 62
    47
 10
47.90121
 20
-69.243062
 11
47.90121
 21
-70.743062
  0
LINE
  8
別途部材
  6
DOT
 62
    47
 10
48.057733
 20
-61.843062
 11
48.057733
 21
-61.90973
  0
ARC
  8
別途部材
  6
DOT
 62
    47
 10
47.957726
 20
-61.843064
 40
0.1
 50
0.0
 51
90.0
  0
LINE
  8
別途部材
  6
DOT
 62
    47
 10
47.90121
 20
-61.90973
 11
47.90121
 21
-63.40973
  0
LINE
  8
別途部材
  6
DOT
 62
    47
 10
-123.20561
 20
-64.559732
 11
-37.10894
 21
-64.559732
  0
LINE
  8
別途部材
  6
DOT
 62
    47
 10
-123.20561
 20
-65.726397
 11
-37.10894
 21
-65.726397
  0
LINE
  8
別途部材
  6
DOT
 62
    47
 10
-122.11909
 20
-63.40973
 11
-37.10894
 21
-63.40973
  0
LINE
  8
別途部材
  6
DOT
 62
    47
 10
-122.275612
 20
-61.90973
 11
-37.10894
 21
-61.90973
  0
LINE
  8
別途部材
  6
DOT
 62
    47
 10
-122.175612
 20
-61.743062
 11
-37.10894
 21
-61.743062
  0
LINE
  8
別途部材
  6
CONTINUOUS
 62
    47
 10
-122.275612
 20
-69.243062
 11
-37.10894
 21
-69.243062
  0
LINE
  8
別途部材
  6
CONTINUOUS
 62
    47
 10
-122.175612
 20
-69.076395
 11
-37.10894
 21
-69.076395
  0
LINE
  8
別途部材
  6
CONTINUOUS
 62
    47
 10
-122.11909
 20
-70.743062
 11
-37.10894
 21
-70.743062
  0
LINE
  8
別途部材
  6
CONTINUOUS
 62
    47
 10
-123.20561
 20
-71.893065
 11
-37.10894
 21
-71.893065
  0
LINE
  8
別途部材
  6
CONTINUOUS
 62
    47
 10
-123.20561
 20
-73.05973
 11
-37.10894
 21
-73.05973
  0
LINE
  8
別途部材
  6
CONTINUOUS
 62
    47
 10
48.98773
 20
-73.05973
 11
-37.10894
 21
-73.05973
  0
LINE
  8
別途部材
  6
CONTINUOUS
 62
    47
 10
47.90121
 20
-70.743062
 11
-37.10894
 21
-70.743062
  0
LINE
  8
別途部材
  6
CONTINUOUS
 62
    47
 10
48.057733
 20
-69.243062
 11
-37.10894
 21
-69.243062
  0
LINE
  8
別途部材
  6
CONTINUOUS
 62
    47
 10
47.957733
 20
-69.076395
 11
-37.10894
 21
-69.076395
  0
LINE
  8
別途部材
  6
CONTINUOUS
 62
    47
 10
48.98773
 20
-71.893065
 11
-37.10894
 21
-71.893065
  0
LINE
  8
別途部材
  6
DOT
 62
    47
 10
48.98773
 20
-65.726397
 11
-37.10894
 21
-65.726397
  0
LINE
  8
別途部材
  6
DOT
 62
    47
 10
48.98773
 20
-64.559732
 11
-37.10894
 21
-64.559732
  0
LINE
  8
別途部材
  6
DOT
 62
    47
 10
47.90121
 20
-63.40973
 11
-37.10894
 21
-63.40973
  0
LINE
  8
別途部材
  6
DOT
 62
    47
 10
47.957733
 20
-61.743062
 11
-37.10894
 21
-61.743062
  0
LINE
  8
別途部材
  6
DOT
 62
    47
 10
48.057733
 20
-61.90973
 11
-37.10894
 21
-61.90973
  0
LINE
  8
別途部材
  6
CONTINUOUS
 10
108.910947
 20
-63.785395
 11
108.910947
 21
-83.785395
  0
LINE
  8
曲げ物
  6
CONTINUOUS
 10
30.950122
 20
34.739582
 11
27.25481
 21
31.04427
  0
LINE
  8
曲げ物
  6
CONTINUOUS
 10
30.246652
 20
33.203472
 11
28.790922
 21
31.747742
  0
LINE
  8
曲げ物
  6
CONTINUOUS
 10
29.414012
 20
34.036112
 11
27.958282
 21
32.580383
  0
LINE
  8
曲げ物
  6
CONTINUOUS
 10
-1.454618
 20
34.739582
 11
-5.14993
 21
31.04427
  0
LINE
  8
曲げ物
  6
CONTINUOUS
 10
-2.158087
 20
33.203472
 11
-3.613818
 21
31.747742
  0
LINE
  8
曲げ物
  6
CONTINUOUS
 10
-2.990727
 20
34.036112
 11
-4.446457
 21
32.580383
  0
LINE
  8
曲げ物
  6
CONTINUOUS
 10
-35.12204
 20
34.739582
 11
-38.817353
 21
31.04427
  0
LINE
  8
曲げ物
  6
CONTINUOUS
 10
-35.82551
 20
33.203472
 11
-37.28124
 21
31.747742
  0
LINE
  8
曲げ物
  6
CONTINUOUS
 10
-36.65815
 20
34.036112
 11
-38.11388
 21
32.580383
  0
LINE
  8
曲げ物
  6
CONTINUOUS
 10
-67.45992
 20
34.739582
 11
-71.155232
 21
31.04427
  0
LINE
  8
曲げ物
  6
CONTINUOUS
 10
-68.16339
 20
33.203472
 11
-69.61912
 21
31.747742
  0
LINE
  8
曲げ物
  6
CONTINUOUS
 10
-68.99603
 20
34.036112
 11
-70.45176
 21
32.580383
  0
LINE
  8
曲げ物
  6
CONTINUOUS
 10
-102.618253
 20
34.739582
 11
-106.313565
 21
31.04427
  0
LINE
  8
曲げ物
  6
CONTINUOUS
 10
-103.321723
 20
33.203472
 11
-104.777452
 21
31.747742
  0
LINE
  8
曲げ物
  6
CONTINUOUS
 10
-104.154363
 20
34.036112
 11
-105.610092
 21
32.580383
  0
LINE
  8
曲げ物
  6
CONTINUOUS
 10
141.310947
 20
-63.785395
 11
108.910947
 21
-63.785395
  0
LINE
  8
曲げ物
  6
CONTINUOUS
 10
141.310947
 20
-83.785395
 11
108.910947
 21
-83.785395
  0
LINE
  8
曲げ物
  6
CONTINUOUS
 10
141.310947
 20
-63.785395
 11
141.310947
 21
-83.785395
  0
LINE
  8
鉄骨等
  6
CONTINUOUS
 62
    47
 10
139.124443
 20
20.050848
 11
137.957777
 21
20.050848
  0
LINE
  8
鉄骨等
  6
CONTINUOUS
 62
    47
 10
137.957777
 20
20.050848
 11
136.807777
 21
21.454032
  0
LINE
  8
鉄骨等
  6
CONTINUOUS
 62
    47
 10
139.124443
 20
45.57722
 11
137.957777
 21
45.57722
  0
LINE
  8
鉄骨等
  6
CONTINUOUS
 62
    47
 10
137.957777
 20
45.57722
 11
136.807777
 21
44.174033
  0
LINE
  8
鉄骨等
  6
CONTINUOUS
 62
    47
 10
-123.20561
 20
-73.05973
 11
-123.20561
 21
-71.893065
  0
LINE
  8
鉄骨等
  6
CONTINUOUS
 62
    47
 10
-123.20561
 20
-71.893065
 11
-121.802425
 21
-70.743065
  0
LINE
  8
鉄骨等
  6
DOT
 62
    47
 10
-123.20561
 20
-65.726397
 11
-123.20561
 21
-64.559732
  0
LINE
  8
鉄骨等
  6
DOT
 62
    47
 10
-123.20561
 20
-64.559732
 11
-121.802425
 21
-63.409732
  0
LINE
  8
鉄骨等
  6
CONTINUOUS
 62
    47
 10
48.98773
 20
-73.05973
 11
48.98773
 21
-71.893065
  0
LINE
  8
鉄骨等
  6
CONTINUOUS
 62
    47
 10
48.98773
 20
-71.893065
 11
47.584545
 21
-70.743065
  0
LINE
  8
鉄骨等
  6
DOT
 62
    47
 10
48.98773
 20
-65.726397
 11
48.98773
 21
-64.559732
  0
LINE
  8
鉄骨等
  6
DOT
 62
    47
 10
48.98773
 20
-64.559732
 11
47.584545
 21
-63.409732
  0
ENDSEC
  0
EOF
