  0
SECTION
  2
HEADER
  9
$EXTMIN
 10
-210.0
 20
-148.5
  9
$EXTMAX
 10
210.0
 20
148.5
  9
$PDMODE
 70
    32
  9
$PDSIZE
 40
1.5
  9
$LTSCALE
 40
10.0
  0
ENDSEC
  0
SECTION
  2
TABLES
  0
TABLE
  2
LTYPE
 70
    15
  0
LTYPE
  2
CONTINUOUS
 70
    64
  3
実線
 72
    65
 73
     0
 40
0.0
  0
LTYPE
  2
DASHED
 70
    64
  3
破線A
 72
    65
 73
     2
 40
0.6
 49
0.4
 49
-0.2
  0
LTYPE
  2
DASHEDX2
 70
    64
  3
破線B
 72
    65
 73
     2
 40
1.3
 49
0.9
 49
-0.4
  0
LTYPE
  2
DASHDOT
 70
    64
  3
１点鎖線A
 72
    65
 73
     4
 40
0.5375
 49
0.375
 49
-0.05
 49
0.0625
 49
-0.05
  0
LTYPE
  2
DASHDOTX2
 70
    64
  3
１点鎖線B
 72
    65
 73
     4
 40
1.075
 49
0.75
 49
-0.1
 49
0.125
 49
-0.1
  0
LTYPE
  2
DIVIDE2
 70
    64
  3
２点鎖線A
 72
    65
 73
     6
 40
0.5125
 49
0.3
 49
-0.0375
 49
0.05
 49
-0.0375
 49
0.05
 49
-0.0375
  0
LTYPE
  2
DIVIDE
 70
    64
  3
２点鎖線B
 72
    65
 73
     6
 40
1.05
 49
0.55
 49
-0.1
 49
0.1
 49
-0.1
 49
0.1
 49
-0.1
  0
LTYPE
  2
DOT
 70
    64
  3
点線A
 72
    65
 73
     2
 40
0.1125
 49
0.0625
 49
-0.05
  0
LTYPE
  2
DOTX2
 70
    64
  3
点線B
 72
    65
 73
     2
 40
0.275
 49
0.15
 49
-0.125
  0
LTYPE
  2
CONTINUOUS
 70
    64
  3
実線
 72
    65
 73
     0
 40
0.0
  0
LTYPE
  2
CONTINUOUS
 70
    64
  3
実線
 72
    65
 73
     0
 40
0.0
  0
LTYPE
  2
CONTINUOUS
 70
    64
  3
実線
 72
    65
 73
     0
 40
0.0
  0
LTYPE
  2
CONTINUOUS
 70
    64
  3
実線
 72
    65
 73
     0
 40
0.0
  0
LTYPE
  2
CONTINUOUS
 70
    64
  3
実線
 72
    65
 73
     0
 40
0.0
  0
LTYPE
  2
CONTINUOUS
 70
    64
  3
実線
 72
    65
 73
     0
 40
0.0
  0
ENDTAB
  0
TABLE
  2
LAYER
 70
    34
  0
LAYER
  2
通り芯
 70
     0
 62
    15
  6
CONTINUOUS
  0
LAYER
  2
補助線
 70
     0
 62
    16
  6
DOT
  0
LAYER
  2
躯体
 70
     0
 62
    31
  6
CONTINUOUS
  0
LAYER
  2
型材
 70
     0
 62
    32
  6
CONTINUOUS
  0
LAYER
  2
型材断面
 70
     0
 62
    47
  6
CONTINUOUS
  0
LAYER
  2
ガラス
 70
     0
 62
    48
  6
CONTINUOUS
  0
LAYER
  2
ゴム等
 70
     0
 62
    63
  6
CONTINUOUS
  0
LAYER
  2
ボルト／ビス
 70
     0
 62
    64
  6
CONTINUOUS
  0
LAYER
  2
文字
 70
     0
 62
    79
  6
CONTINUOUS
  0
LAYER
  2
寸法
 70
     0
 62
    80
  6
CONTINUOUS
  0
LAYER
  2
ﾊｯﾁﾝｸﾞ
 70
     0
 62
    95
  6
CONTINUOUS
  0
LAYER
  2
別途部材
 70
     0
 62
    96
  6
CONTINUOUS
  0
LAYER
  2
曲げ物
 70
     0
 62
   111
  6
CONTINUOUS
  0
LAYER
  2
鉄骨等
 70
     0
 62
   112
  6
CONTINUOUS
  0
LAYER
  2
St
 70
     0
 62
   127
  6
CONTINUOUS
  0
LAYER
  2
その他部品等
 70
     0
 62
   128
  6
CONTINUOUS
  0
LAYER
  2
ｶﾞｽｹｯﾄ
 70
     0
 62
   143
  6
CONTINUOUS
  0
LAYER
  2
ｽｹｯﾁ
 70
     0
 62
    14
  6
CONTINUOUS
  0
LAYER
  2
0
 70
     0
 62
    17
  6
CONTINUOUS
  0
LAYER
  2
1
 70
     0
 62
    30
  6
CONTINUOUS
  0
LAYER
  2
4
 70
     0
 62
    33
  6
CONTINUOUS
  0
LAYER
  2
ﾚｲﾔ3
 70
     0
 62
    46
  6
CONTINUOUS
  0
LAYER
  2
外形線
 70
     0
 62
    49
  6
CONTINUOUS
  0
LAYER
  2
部品
 70
     0
 62
    14
  6
CONTINUOUS
  0
LAYER
  2
サッシ芯
 70
     0
 62
    17
  6
DASHDOTX2
  0
LAYER
  2
寸法線
 70
     0
 62
    62
  6
CONTINUOUS
  0
LAYER
  2
姿図外形線
 70
     0
 62
    65
  6
CONTINUOUS
  0
LAYER
  2
姿補助線
 70
     0
 62
    30
  6
CONTINUOUS
  0
LAYER
  2
透視線
 70
     0
 62
    78
  6
DOT
  0
LAYER
  2
用紙
 70
     0
 62
    81
  6
CONTINUOUS
  0
LAYER
  2
実線図枠
 70
     0
 62
    94
  6
CONTINUOUS
  0
LAYER
  2
補助図枠
 70
     0
 62
    97
  6
CONTINUOUS
  0
LAYER
  2
建具記号
 70
     0
 62
   110
  6
CONTINUOUS
  0
LAYER
  2
補助文字
 70
     0
 62
   113
  6
CONTINUOUS
  0
ENDTAB
  0
TABLE
  2
STYLE
 70
    10
  0
STYLE
  2
STANDARD
 70
     0
 40
1.0
 41
1.0
 42
1.0
 50
0.0
 71
     0
  3
TXT
  4
BIGFONT
  0
STYLE
  2
TATE
 70
     4
 40
1.0
 41
1.0
 42
1.0
 50
0.0
 71
     0
  3
TXT
  4
BIGFONT
  0
STYLE
  2
TextStyle03
 70
     0
 40
1.0
 41
1.0
 42
1.0
 50
0.0
 71
     0
  3
MONOTXT
  4
BIGFONT
  0
STYLE
  2
TextStyle04
 70
     0
 40
1.0
 41
1.0
 42
1.0
 50
0.0
 71
     0
  3
MONOTXT
  4
BIGFONT
  0
STYLE
  2
TextStyle05
 70
     0
 40
1.0
 41
1.0
 42
1.0
 50
0.0
 71
     0
  3
MONOTXT
  4
BIGFONT
  0
STYLE
  2
TextStyle06
 70
     0
 40
1.0
 41
1.0
 42
1.0
 50
0.0
 71
     0
  3
MONOTXT
  4
BIGFONT
  0
STYLE
  2
TextStyle07
 70
     0
 40
1.0
 41
1.0
 42
1.0
 50
0.0
 71
     0
  3
MONOTXT
  4
BIGFONT
  0
STYLE
  2
TextStyle08
 70
     0
 40
1.0
 41
1.0
 42
1.0
 50
0.0
 71
     0
  3
MONOTXT
  4
BIGFONT
  0
STYLE
  2
TextStyle09
 70
     0
 40
1.0
 41
1.0
 42
1.0
 50
0.0
 71
     0
  3
MONOTXT
  4
BIGFONT
  0
STYLE
  2
TextStyle10
 70
     0
 40
1.0
 41
1.0
 42
1.0
 50
0.0
 71
     0
  3
MONOTXT
  4
BIGFONT
  0
ENDTAB
  0
ENDSEC
  0
SECTION
  2
BLOCKS
  0
BLOCK
  2
*GRP_0001
 70
    65
 10
0.0
 20
0.0
  0
LINE
  8
型材断面
  6
CONTINUOUS
 10
195.0
 20
133.5
 11
195.0
 21
-133.5
  0
LINE
  8
型材断面
  6
CONTINUOUS
 10
195.0
 20
-133.5
 11
-185.0
 21
-133.5
  0
LINE
  8
型材断面
  6
CONTINUOUS
 10
-185.0
 20
-133.5
 11
-185.0
 21
133.5
  0
LINE
  8
型材断面
  6
CONTINUOUS
 10
195.0
 20
133.5
 11
-185.0
 21
133.5
  0
LINE
  8
型材断面
  6
CONTINUOUS
 10
145.0
 20
-133.5
 11
145.0
 21
-118.5
  0
LINE
  8
型材断面
  6
CONTINUOUS
 10
195.0
 20
-118.5
 11
145.0
 21
-118.5
  0
ENDBLK
  0
BLOCK
  2
*DIM_0002
 70
    65
 10
0.0
 20
0.0
  0
LINE
  8
寸法
  6
BYBLOCK
 62
     0
 10
-100.57714
 20
19.183902
 11
-100.57714
 21
13.885527
  0
LINE
  8
寸法
  6
BYBLOCK
 62
     0
 10
-25.577142
 20
19.183905
 11
-25.577142
 21
13.885527
  0
LINE
  8
寸法
  6
BYBLOCK
 62
     0
 10
-100.57714
 20
13.885527
 11
-25.577142
 21
13.885527
  0
POINT
  8
寸法
 62
     0
 10
-100.57714
 20
13.885527
  0
POINT
  8
寸法
 62
     0
 10
-25.577142
 20
13.885527
  0
TEXT
  7
TextStyle03
  8
寸法
  6
CONTINUOUS
 62
     0
 10
-66.38125
 20
14.25
  1
2250
 40
3.0
 72
     5
 11
-59.81875
 21
14.25
  0
ENDBLK
  0
BLOCK
  2
*DIM_0003
 70
    65
 10
0.0
 20
0.0
  0
LINE
  8
寸法
  6
BYBLOCK
 62
     0
 10
49.422855
 20
19.183902
 11
49.422855
 21
13.885527
  0
LINE
  8
寸法
  6
BYBLOCK
 62
     0
 10
-25.577142
 20
13.885527
 11
49.422855
 21
13.885527
  0
POINT
  8
寸法
 62
     0
 10
49.422855
 20
13.885527
  0
TEXT
  7
TextStyle03
  8
寸法
  6
CONTINUOUS
 62
     0
 10
8.61875
 20
14.25
  1
2250
 40
3.0
 72
     5
 11
15.18125
 21
14.25
  0
ENDBLK
  0
BLOCK
  2
*DIM_0004
 70
    65
 10
0.0
 20
0.0
  0
LINE
  8
寸法
  6
BYBLOCK
 62
     0
 10
67.089525
 20
42.814035
 11
76.813808
 21
42.814035
  0
LINE
  8
寸法
  6
BYBLOCK
 62
     0
 10
69.719655
 20
39.114035
 11
76.813808
 21
39.114035
  0
LINE
  8
寸法
  6
BYBLOCK
 62
     0
 10
76.813808
 20
42.814035
 11
76.813808
 21
39.114035
  0
POINT
  8
寸法
 62
     0
 10
76.813808
 20
42.814035
  0
POINT
  8
寸法
 62
     0
 10
76.813808
 20
39.114035
  0
TEXT
  7
TextStyle03
  8
寸法
  6
CONTINUOUS
 62
     0
 10
76.5
 20
43.8125
  1
111
 40
3.0
 50
90.0
 72
     5
 11
76.5
 21
48.6875
  0
ENDBLK
  0
BLOCK
  2
*DIM_0005
 70
    65
 10
0.0
 20
0.0
  0
LINE
  8
寸法
  6
BYBLOCK
 62
     0
 10
67.089525
 20
22.81403
 11
76.813808
 21
22.814027
  0
LINE
  8
寸法
  6
BYBLOCK
 62
     0
 10
69.719655
 20
26.51403
 11
76.813808
 21
26.514027
  0
LINE
  8
寸法
  6
BYBLOCK
 62
     0
 10
76.813808
 20
22.814027
 11
76.813808
 21
26.514027
  0
POINT
  8
寸法
 62
     0
 10
76.813808
 20
22.814027
  0
POINT
  8
寸法
 62
     0
 10
76.813808
 20
26.514027
  0
TEXT
  7
TextStyle03
  8
寸法
  6
CONTINUOUS
 62
     0
 10
76.825
 20
16.5625
  1
111
 40
3.0
 50
90.0
 72
     5
 11
76.825
 21
21.4375
  0
ENDBLK
  0
BLOCK
  2
*DIM_0006
 70
    65
 10
0.0
 20
0.0
  0
LINE
  8
寸法
  6
BYBLOCK
 62
     0
 10
-120.243808
 20
39.4807
 11
-133.536645
 21
39.4807
  0
LINE
  8
寸法
  6
BYBLOCK
 62
     0
 10
-120.243808
 20
26.147365
 11
-133.536645
 21
26.147365
  0
LINE
  8
寸法
  6
BYBLOCK
 62
     0
 10
-133.536645
 20
39.4807
 11
-133.536645
 21
26.147365
  0
POINT
  8
寸法
 62
     0
 10
-133.536645
 20
39.4807
  0
POINT
  8
寸法
 62
     0
 10
-133.536645
 20
26.147365
  0
TEXT
  7
TextStyle03
  8
寸法
  6
CONTINUOUS
 62
     0
 10
-133.95
 20
30.3625
  1
400
 40
3.0
 50
90.0
 72
     5
 11
-133.95
 21
35.2375
  0
ENDBLK
  0
BLOCK
  2
*DIM_0007
 70
    65
 10
0.0
 20
0.0
  0
LINE
  8
寸法
  6
BYBLOCK
 62
     0
 10
-105.577142
 20
45.814033
 11
-105.577142
 21
74.922105
  0
LINE
  8
寸法
  6
BYBLOCK
 62
     0
 10
-78.910475
 20
45.814033
 11
-78.910475
 21
74.922105
  0
LINE
  8
寸法
  6
BYBLOCK
 62
     0
 10
-105.577142
 20
74.922105
 11
-78.910475
 21
74.922105
  0
POINT
  8
寸法
 62
     0
 10
-105.577142
 20
74.922105
  0
POINT
  8
寸法
 62
     0
 10
-78.910475
 20
74.922105
  0
TEXT
  7
TextStyle03
  8
寸法
  6
CONTINUOUS
 62
     0
 10
-94.7125
 20
75.3
  1
800
 40
3.0
 72
     5
 11
-89.8375
 21
75.3
  0
ENDBLK
  0
BLOCK
  2
*DIM_0008
 70
    65
 10
0.0
 20
0.0
  0
LINE
  8
寸法
  6
BYBLOCK
 62
     0
 10
-52.24381
 20
45.814033
 11
-52.24381
 21
74.922105
  0
LINE
  8
寸法
  6
BYBLOCK
 62
     0
 10
-78.910475
 20
74.922105
 11
-52.24381
 21
74.922105
  0
POINT
  8
寸法
 62
     0
 10
-52.24381
 20
74.922105
  0
TEXT
  7
TextStyle03
  8
寸法
  6
CONTINUOUS
 62
     0
 10
-68.0375
 20
75.3
  1
800
 40
3.0
 72
     5
 11
-63.1625
 21
75.3
  0
ENDBLK
  0
BLOCK
  2
*DIM_0009
 70
    65
 10
0.0
 20
0.0
  0
LINE
  8
寸法
  6
BYBLOCK
 62
     0
 10
-25.577142
 20
45.814033
 11
-25.577142
 21
74.922105
  0
LINE
  8
寸法
  6
BYBLOCK
 62
     0
 10
-52.24381
 20
74.922105
 11
-25.577142
 21
74.922105
  0
POINT
  8
寸法
 62
     0
 10
-25.577142
 20
74.922105
  0
TEXT
  7
TextStyle03
  8
寸法
  6
CONTINUOUS
 62
     0
 10
-41.3625
 20
75.3
  1
800
 40
3.0
 72
     5
 11
-36.4875
 21
75.3
  0
ENDBLK
  0
BLOCK
  2
*DIM_0010
 70
    65
 10
0.0
 20
0.0
  0
LINE
  8
寸法
  6
BYBLOCK
 62
     0
 10
1.089525
 20
45.814033
 11
1.089525
 21
74.922105
  0
LINE
  8
寸法
  6
BYBLOCK
 62
     0
 10
-25.577142
 20
74.922105
 11
1.089525
 21
74.922105
  0
POINT
  8
寸法
 62
     0
 10
1.089525
 20
74.922105
  0
TEXT
  7
TextStyle03
  8
寸法
  6
CONTINUOUS
 62
     0
 10
-14.7125
 20
75.3
  1
800
 40
3.0
 72
     5
 11
-9.8375
 21
75.3
  0
ENDBLK
  0
BLOCK
  2
*DIM_0011
 70
    65
 10
0.0
 20
0.0
  0
LINE
  8
寸法
  6
BYBLOCK
 62
     0
 10
27.75619
 20
45.814033
 11
27.75619
 21
74.922105
  0
LINE
  8
寸法
  6
BYBLOCK
 62
     0
 10
1.089525
 20
74.922105
 11
27.75619
 21
74.922105
  0
POINT
  8
寸法
 62
     0
 10
27.75619
 20
74.922105
  0
TEXT
  7
TextStyle03
  8
寸法
  6
CONTINUOUS
 62
     0
 10
11.9625
 20
75.3
  1
800
 40
3.0
 72
     5
 11
16.8375
 21
75.3
  0
ENDBLK
  0
BLOCK
  2
*DIM_0012
 70
    65
 10
0.0
 20
0.0
  0
LINE
  8
寸法
  6
BYBLOCK
 62
     0
 10
54.422857
 20
45.814033
 11
54.422857
 21
74.922105
  0
LINE
  8
寸法
  6
BYBLOCK
 62
     0
 10
27.75619
 20
74.922105
 11
54.422857
 21
74.922105
  0
POINT
  8
寸法
 62
     0
 10
54.422857
 20
74.922105
  0
TEXT
  7
TextStyle03
  8
寸法
  6
CONTINUOUS
 62
     0
 10
38.6375
 20
75.3
  1
800
 40
3.0
 72
     5
 11
43.5125
 21
75.3
  0
ENDBLK
  0
BLOCK
  2
*DIM_0013
 70
    65
 10
0.0
 20
0.0
  0
LINE
  8
寸法
  6
CONTINUOUS
 10
-117.243815
 20
-12.609317
 11
-120.007147
 21
-12.609317
  0
POINT
  8
寸法
 10
-117.243815
 20
-12.609317
  0
POINT
  8
寸法
 10
-120.007147
 20
-12.609317
  0
TEXT
  7
TextStyle03
  8
寸法
  6
CONTINUOUS
 10
-124.58125
 20
-11.675
  1
82.9
 40
3.0
 72
     5
 11
-118.01875
 21
-11.675
  0
ENDBLK
  0
BLOCK
  2
*DIM_0014
 70
    65
 10
0.0
 20
0.0
  0
LINE
  8
寸法
  6
CONTINUOUS
 10
68.85286
 20
-12.609317
 11
66.089525
 21
-12.609317
  0
POINT
  8
寸法
 10
68.85286
 20
-12.609317
  0
POINT
  8
寸法
 10
66.089525
 20
-12.609317
  0
TEXT
  7
TextStyle03
  8
寸法
  6
CONTINUOUS
 10
67.09375
 20
-11.725
  1
82.9
 40
3.0
 72
     5
 11
73.65625
 21
-11.725
  0
ENDBLK
  0
BLOCK
  2
*DIM_0015
 70
    65
 10
0.0
 20
0.0
  0
LINE
  8
寸法
  6
CONTINUOUS
 10
-117.243808
 20
-12.609317
 11
66.089525
 21
-12.609317
  0
POINT
  8
寸法
 10
-117.243808
 20
-12.609317
  0
POINT
  8
寸法
 10
66.089525
 20
-12.609317
  0
TEXT
  7
TextStyle03
  8
寸法
  6
CONTINUOUS
 10
-37.31875
 20
-12.275
  1
呼称寸法　5500
 40
3.0
 72
     5
 11
-13.88125
 21
-12.275
  0
ENDBLK
  0
BLOCK
  2
*GRP_0016
 70
    65
 10
0.0
 20
0.0
  0
LINE
  8
別途部材
  6
DOT
 62
    47
 10
147.772907
 20
20.980845
 11
147.839575
 21
20.980845
  0
ARC
  8
別途部材
  6
DOT
 62
    47
 10
147.772909
 20
21.080846
 40
0.1
 50
180.0
 51
270.0
  0
LINE
  8
別途部材
  6
DOT
 62
    47
 10
147.839575
 20
21.137368
 11
149.339575
 21
21.137368
  0
LINE
  8
別途部材
  6
DOT
 62
    47
 10
151.656243
 20
20.050848
 11
151.656243
 21
32.814033
  0
LINE
  8
別途部材
  6
DOT
 62
    47
 10
150.489578
 20
20.050848
 11
150.489578
 21
32.814033
  0
LINE
  8
別途部材
  6
DOT
 62
    47
 10
149.339575
 20
21.137368
 11
149.339575
 21
32.814033
  0
LINE
  8
別途部材
  6
DOT
 62
    47
 10
147.839575
 20
20.980845
 11
147.839575
 21
32.814033
  0
LINE
  8
別途部材
  6
DOT
 62
    47
 10
147.672907
 20
21.080845
 11
147.672907
 21
32.814033
  0
LINE
  8
別途部材
  6
DOT
 62
    47
 10
147.772907
 20
44.647222
 11
147.839575
 21
44.647222
  0
ARC
  8
別途部材
  6
DOT
 62
    47
 10
147.772909
 20
44.547222
 40
0.1
 50
90.0
 51
180.0
  0
LINE
  8
別途部材
  6
DOT
 62
    47
 10
147.839575
 20
44.4907
 11
149.339575
 21
44.4907
  0
LINE
  8
別途部材
  6
DOT
 62
    47
 10
151.656243
 20
45.57722
 11
151.656243
 21
32.814033
  0
LINE
  8
別途部材
  6
DOT
 62
    47
 10
150.489578
 20
45.57722
 11
150.489578
 21
32.814033
  0
LINE
  8
別途部材
  6
DOT
 62
    47
 10
149.339575
 20
44.4907
 11
149.339575
 21
32.814033
  0
LINE
  8
別途部材
  6
DOT
 62
    47
 10
147.839575
 20
44.647222
 11
147.839575
 21
32.814033
  0
LINE
  8
別途部材
  6
DOT
 62
    47
 10
147.672907
 20
44.547222
 11
147.672907
 21
32.814033
  0
LINE
  8
鉄骨等
  6
DOT
 62
    47
 10
151.656243
 20
20.050848
 11
150.489578
 21
20.050848
  0
LINE
  8
鉄骨等
  6
DOT
 62
    47
 10
150.489578
 20
20.050848
 11
149.339578
 21
21.454032
  0
LINE
  8
鉄骨等
  6
DOT
 62
    47
 10
151.656243
 20
45.57722
 11
150.489578
 21
45.57722
  0
LINE
  8
鉄骨等
  6
DOT
 62
    47
 10
150.489578
 20
45.57722
 11
149.339578
 21
44.174033
  0
ENDBLK
  0
BLOCK
  2
*DIM_0017
 70
    65
 10
0.0
 20
0.0
  0
LINE
  8
寸法
  6
BYBLOCK
 62
     0
 10
100.109175
 20
22.814035
 11
100.109175
 21
42.814035
  0
POINT
  8
寸法
 62
     0
 10
100.109175
 20
22.814035
  0
POINT
  8
寸法
 62
     0
 10
100.109175
 20
42.814035
  0
TEXT
  7
TextStyle03
  8
寸法
  6
CONTINUOUS
 62
     0
 10
99.75
 20
21.925
  1
呼称寸法　600
 40
3.0
 50
90.0
 72
     5
 11
99.75
 21
43.675
  0
ENDBLK
  0
BLOCK
  2
*DIM_0018
 70
    65
 10
0.0
 20
0.0
  0
LINE
  8
寸法
  6
CONTINUOUS
 10
100.109175
 20
45.57722
 11
100.109175
 21
42.814035
  0
POINT
  8
寸法
 10
100.109175
 20
45.57722
  0
POINT
  8
寸法
 10
100.109175
 20
42.814035
  0
TEXT
  7
TextStyle03
  8
寸法
  6
CONTINUOUS
 10
101.525
 20
46.64375
  1
82.9
 40
3.0
 50
90.0
 72
     5
 11
101.525
 21
53.20625
  0
ENDBLK
  0
BLOCK
  2
*DIM_0019
 70
    65
 10
0.0
 20
0.0
  0
LINE
  8
寸法
  6
CONTINUOUS
 10
100.109175
 20
22.814035
 11
100.109175
 21
20.050848
  0
POINT
  8
寸法
 10
100.109175
 20
22.814035
  0
POINT
  8
寸法
 10
100.109175
 20
20.050848
  0
TEXT
  7
TextStyle03
  8
寸法
  6
CONTINUOUS
 10
101.525
 20
12.41875
  1
82.9
 40
3.0
 50
90.0
 72
     5
 11
101.525
 21
18.98125
  0
ENDBLK
  0
BLOCK
  2
*GRP_0020
 70
    65
 10
0.0
 20
0.0
  0
LINE
  8
補助線
  6
BYBLOCK
 62
    64
 10
-113.836013
 20
-74.615697
 11
-113.984937
 21
-74.690523
  0
LINE
  8
補助線
  6
BYBLOCK
 62
    64
 10
-113.947887
 20
-74.578645
 11
-113.873063
 21
-74.727573
  0
LINE
  8
補助線
  6
BYBLOCK
 62
    64
 10
-103.917533
 20
-69.63234
 11
-104.06646
 21
-69.707165
  0
LINE
  8
補助線
  6
BYBLOCK
 62
    64
 10
-104.02941
 20
-69.595287
 11
-103.954585
 21
-69.744215
  0
LINE
  8
補助線
  6
BYBLOCK
 62
    64
 10
-94.147983
 20
-64.723808
 11
-93.999055
 21
-64.648982
  0
LINE
  8
補助線
  6
BYBLOCK
 62
    64
 10
-94.110933
 20
-64.61193
 11
-94.036107
 21
-64.760858
  0
LINE
  8
型材断面
  6
CONTINUOUS
 10
-114.582453
 20
-74.058133
 11
-114.804755
 21
-74.729385
  0
LINE
  8
型材断面
  6
CONTINUOUS
 10
-114.804755
 20
-74.729385
 11
-114.505452
 21
-75.32509
  0
LINE
  8
型材断面
  6
CONTINUOUS
 10
-114.505452
 20
-75.32509
 11
-113.8342
 21
-75.547393
  0
LINE
  8
型材断面
  6
CONTINUOUS
 10
-94.149795
 20
-63.792115
 11
-93.47854
 21
-64.014418
  0
LINE
  8
型材断面
  6
CONTINUOUS
 10
-93.47854
 20
-64.014418
 11
-93.179237
 21
-64.610123
  0
LINE
  8
型材断面
  6
CONTINUOUS
 10
-93.179237
 20
-64.610123
 11
-93.401542
 21
-65.281375
  0
LINE
  8
型材断面
  6
CONTINUOUS
 10
-114.582453
 20
-74.058133
 11
-94.149795
 21
-63.792115
  0
LINE
  8
型材断面
  6
CONTINUOUS
 10
-113.8342
 20
-75.547393
 11
-93.401542
 21
-65.281375
  0
CIRCLE
  8
ボルト／ビス
  6
CONTINUOUS
 10
-113.910475
 20
-74.65311
 40
0.250185
  0
CIRCLE
  8
ボルト／ビス
  6
CONTINUOUS
 10
-113.910475
 20
-74.65311
 40
0.301025
  0
LINE
  8
ボルト／ビス
  6
CONTINUOUS
 62
    64
 10
-114.16024
 20
-74.638608
 11
-114.022795
 21
-74.429558
  0
LINE
  8
ボルト／ビス
  6
CONTINUOUS
 62
    64
 10
-113.77303
 20
-74.44406
 11
-114.022795
 21
-74.429558
  0
LINE
  8
ボルト／ビス
  6
CONTINUOUS
 62
    64
 10
-114.04792
 20
-74.86216
 11
-113.798155
 21
-74.876663
  0
LINE
  8
ボルト／ビス
  6
CONTINUOUS
 62
    64
 10
-113.66071
 20
-74.667612
 11
-113.798155
 21
-74.876663
  0
LINE
  8
ボルト／ビス
  6
CONTINUOUS
 62
    64
 10
-114.16024
 20
-74.638608
 11
-114.04792
 21
-74.86216
  0
LINE
  8
ボルト／ビス
  6
CONTINUOUS
 62
    64
 10
-113.77303
 20
-74.44406
 11
-113.66071
 21
-74.667612
  0
CIRCLE
  8
ボルト／ビス
  6
CONTINUOUS
 62
    64
 10
-113.910475
 20
-74.65311
 40
0.216668
  0
CIRCLE
  8
ボルト／ビス
  6
CONTINUOUS
 10
-103.991997
 20
-69.669752
 40
0.250185
  0
CIRCLE
  8
ボルト／ビス
  6
CONTINUOUS
 10
-103.991997
 20
-69.669752
 40
0.301025
  0
LINE
  8
ボルト／ビス
  6
CONTINUOUS
 62
    64
 10
-104.241763
 20
-69.655248
 11
-104.104317
 21
-69.446198
  0
LINE
  8
ボルト／ビス
  6
CONTINUOUS
 62
    64
 10
-103.854553
 20
-69.4607
 11
-104.104317
 21
-69.446198
  0
LINE
  8
ボルト／ビス
  6
CONTINUOUS
 62
    64
 10
-104.129443
 20
-69.878802
 11
-103.879675
 21
-69.893307
  0
LINE
  8
ボルト／ビス
  6
CONTINUOUS
 62
    64
 10
-103.742232
 20
-69.684257
 11
-103.879675
 21
-69.893307
  0
LINE
  8
ボルト／ビス
  6
CONTINUOUS
 62
    64
 10
-104.241763
 20
-69.655248
 11
-104.129443
 21
-69.878802
  0
LINE
  8
ボルト／ビス
  6
CONTINUOUS
 62
    64
 10
-103.854553
 20
-69.4607
 11
-103.742232
 21
-69.684257
  0
CIRCLE
  8
ボルト／ビス
  6
CONTINUOUS
 62
    64
 10
-103.991997
 20
-69.669752
 40
0.216668
  0
CIRCLE
  8
ボルト／ビス
  6
CONTINUOUS
 10
-94.07352
 20
-64.686395
 40
0.250185
  0
CIRCLE
  8
ボルト／ビス
  6
CONTINUOUS
 10
-94.07352
 20
-64.686395
 40
0.301025
  0
LINE
  8
ボルト／ビス
  6
CONTINUOUS
 62
    64
 10
-93.936075
 20
-64.477345
 11
-94.18584
 21
-64.462842
  0
LINE
  8
ボルト／ビス
  6
CONTINUOUS
 62
    64
 10
-94.323285
 20
-64.671893
 11
-94.18584
 21
-64.462842
  0
LINE
  8
ボルト／ビス
  6
CONTINUOUS
 62
    64
 10
-93.823755
 20
-64.7009
 11
-93.961197
 21
-64.909948
  0
LINE
  8
ボルト／ビス
  6
CONTINUOUS
 62
    64
 10
-94.210965
 20
-64.895445
 11
-93.961197
 21
-64.909948
  0
LINE
  8
ボルト／ビス
  6
CONTINUOUS
 62
    64
 10
-93.936075
 20
-64.477345
 11
-93.823755
 21
-64.7009
  0
LINE
  8
ボルト／ビス
  6
CONTINUOUS
 62
    64
 10
-94.323285
 20
-64.671893
 11
-94.210965
 21
-64.895445
  0
CIRCLE
  8
ボルト／ビス
  6
CONTINUOUS
 62
    64
 10
-94.07352
 20
-64.686395
 40
0.216668
  0
ENDBLK
  0
BLOCK
  2
*GRP_0021
 70
    65
 10
0.0
 20
0.0
  0
LINE
  8
補助線
  6
BYBLOCK
 62
    64
 10
-94.147983
 20
-74.615697
 11
-93.999057
 21
-74.690523
  0
LINE
  8
補助線
  6
BYBLOCK
 62
    64
 10
-94.036107
 20
-74.578645
 11
-94.110933
 21
-74.727573
  0
LINE
  8
補助線
  6
BYBLOCK
 62
    64
 10
-104.066463
 20
-69.63234
 11
-103.917535
 21
-69.707165
  0
LINE
  8
補助線
  6
BYBLOCK
 62
    64
 10
-103.954585
 20
-69.595287
 11
-104.02941
 21
-69.744215
  0
LINE
  8
補助線
  6
BYBLOCK
 62
    64
 10
-113.836013
 20
-64.723808
 11
-113.98494
 21
-64.648982
  0
LINE
  8
補助線
  6
BYBLOCK
 62
    64
 10
-113.873063
 20
-64.61193
 11
-113.947887
 21
-64.760858
  0
LINE
  8
型材断面
  6
CONTINUOUS
 10
-93.401542
 20
-74.058133
 11
-93.17924
 21
-74.729385
  0
LINE
  8
型材断面
  6
CONTINUOUS
 10
-93.17924
 20
-74.729385
 11
-93.478543
 21
-75.32509
  0
LINE
  8
型材断面
  6
CONTINUOUS
 10
-93.478543
 20
-75.32509
 11
-94.149795
 21
-75.547393
  0
LINE
  8
型材断面
  6
CONTINUOUS
 10
-113.8342
 20
-63.792115
 11
-114.505455
 21
-64.014418
  0
LINE
  8
型材断面
  6
CONTINUOUS
 10
-114.505455
 20
-64.014418
 11
-114.804757
 21
-64.610123
  0
LINE
  8
型材断面
  6
CONTINUOUS
 10
-114.804757
 20
-64.610123
 11
-114.582453
 21
-65.281375
  0
LINE
  8
型材断面
  6
CONTINUOUS
 10
-93.401542
 20
-74.058133
 11
-113.8342
 21
-63.792115
  0
LINE
  8
型材断面
  6
CONTINUOUS
 10
-94.149795
 20
-75.547393
 11
-114.582453
 21
-65.281375
  0
CIRCLE
  8
ボルト／ビス
  6
CONTINUOUS
 10
-94.07352
 20
-74.65311
 40
0.250185
  0
CIRCLE
  8
ボルト／ビス
  6
CONTINUOUS
 10
-94.07352
 20
-74.65311
 40
0.301025
  0
LINE
  8
ボルト／ビス
  6
CONTINUOUS
 62
    64
 10
-93.823755
 20
-74.638608
 11
-93.9612
 21
-74.429558
  0
LINE
  8
ボルト／ビス
  6
CONTINUOUS
 62
    64
 10
-94.210965
 20
-74.44406
 11
-93.9612
 21
-74.429558
  0
LINE
  8
ボルト／ビス
  6
CONTINUOUS
 62
    64
 10
-93.936075
 20
-74.86216
 11
-94.18584
 21
-74.876663
  0
LINE
  8
ボルト／ビス
  6
CONTINUOUS
 62
    64
 10
-94.323285
 20
-74.667612
 11
-94.18584
 21
-74.876663
  0
LINE
  8
ボルト／ビス
  6
CONTINUOUS
 62
    64
 10
-93.823755
 20
-74.638608
 11
-93.936075
 21
-74.86216
  0
LINE
  8
ボルト／ビス
  6
CONTINUOUS
 62
    64
 10
-94.210965
 20
-74.44406
 11
-94.323285
 21
-74.667612
  0
CIRCLE
  8
ボルト／ビス
  6
CONTINUOUS
 62
    64
 10
-94.07352
 20
-74.65311
 40
0.216668
  0
CIRCLE
  8
ボルト／ビス
  6
CONTINUOUS
 10
-103.991997
 20
-69.669752
 40
0.250185
  0
CIRCLE
  8
ボルト／ビス
  6
CONTINUOUS
 10
-103.991997
 20
-69.669752
 40
0.301025
  0
LINE
  8
ボルト／ビス
  6
CONTINUOUS
 62
    64
 10
-103.742232
 20
-69.655248
 11
-103.879677
 21
-69.446198
  0
LINE
  8
ボルト／ビス
  6
CONTINUOUS
 62
    64
 10
-104.129443
 20
-69.4607
 11
-103.879677
 21
-69.446198
  0
LINE
  8
ボルト／ビス
  6
CONTINUOUS
 62
    64
 10
-103.854553
 20
-69.878802
 11
-104.10432
 21
-69.893307
  0
LINE
  8
ボルト／ビス
  6
CONTINUOUS
 62
    64
 10
-104.241763
 20
-69.684257
 11
-104.10432
 21
-69.893307
  0
LINE
  8
ボルト／ビス
  6
CONTINUOUS
 62
    64
 10
-103.742232
 20
-69.655248
 11
-103.854553
 21
-69.878802
  0
LINE
  8
ボルト／ビス
  6
CONTINUOUS
 62
    64
 10
-104.129443
 20
-69.4607
 11
-104.241763
 21
-69.684257
  0
CIRCLE
  8
ボルト／ビス
  6
CONTINUOUS
 62
    64
 10
-103.991997
 20
-69.669752
 40
0.216668
  0
CIRCLE
  8
ボルト／ビス
  6
CONTINUOUS
 10
-113.910475
 20
-64.686395
 40
0.250185
  0
CIRCLE
  8
ボルト／ビス
  6
CONTINUOUS
 10
-113.910475
 20
-64.686395
 40
0.301025
  0
LINE
  8
ボルト／ビス
  6
CONTINUOUS
 62
    64
 10
-114.04792
 20
-64.477345
 11
-113.798155
 21
-64.462842
  0
LINE
  8
ボルト／ビス
  6
CONTINUOUS
 62
    64
 10
-113.66071
 20
-64.671893
 11
-113.798155
 21
-64.462842
  0
LINE
  8
ボルト／ビス
  6
CONTINUOUS
 62
    64
 10
-114.16024
 20
-64.7009
 11
-114.022797
 21
-64.909948
  0
LINE
  8
ボルト／ビス
  6
CONTINUOUS
 62
    64
 10
-113.77303
 20
-64.895445
 11
-114.022797
 21
-64.909948
  0
LINE
  8
ボルト／ビス
  6
CONTINUOUS
 62
    64
 10
-114.04792
 20
-64.477345
 11
-114.16024
 21
-64.7009
  0
LINE
  8
ボルト／ビス
  6
CONTINUOUS
 62
    64
 10
-113.66071
 20
-64.671893
 11
-113.77303
 21
-64.895445
  0
CIRCLE
  8
ボルト／ビス
  6
CONTINUOUS
 62
    64
 10
-113.910475
 20
-64.686395
 40
0.216668
  0
ENDBLK
  0
BLOCK
  2
*GRP_0022
 70
    65
 10
0.0
 20
0.0
  0
LINE
  8
補助線
  6
BYBLOCK
 62
    64
 10
62.681732
 20
-74.615697
 11
62.830658
 21
-74.690523
  0
LINE
  8
補助線
  6
BYBLOCK
 62
    64
 10
62.793607
 20
-74.578645
 11
62.718783
 21
-74.727573
  0
LINE
  8
補助線
  6
BYBLOCK
 62
    64
 10
52.763253
 20
-69.63234
 11
52.91218
 21
-69.707165
  0
LINE
  8
補助線
  6
BYBLOCK
 62
    64
 10
52.87513
 20
-69.595287
 11
52.800305
 21
-69.744215
  0
LINE
  8
補助線
  6
BYBLOCK
 62
    64
 10
42.993702
 20
-64.723808
 11
42.844775
 21
-64.648982
  0
LINE
  8
補助線
  6
BYBLOCK
 62
    64
 10
42.956653
 20
-64.61193
 11
42.881827
 21
-64.760858
  0
LINE
  8
型材断面
  6
CONTINUOUS
 10
63.428173
 20
-74.058133
 11
63.650475
 21
-74.729385
  0
LINE
  8
型材断面
  6
CONTINUOUS
 10
63.650475
 20
-74.729385
 11
63.351173
 21
-75.32509
  0
LINE
  8
型材断面
  6
CONTINUOUS
 10
63.351173
 20
-75.32509
 11
62.67992
 21
-75.547393
  0
LINE
  8
型材断面
  6
CONTINUOUS
 10
42.995515
 20
-63.792115
 11
42.32426
 21
-64.014418
  0
LINE
  8
型材断面
  6
CONTINUOUS
 10
42.32426
 20
-64.014418
 11
42.024957
 21
-64.610123
  0
LINE
  8
型材断面
  6
CONTINUOUS
 10
42.024957
 20
-64.610123
 11
42.247263
 21
-65.281375
  0
LINE
  8
型材断面
  6
CONTINUOUS
 10
63.428173
 20
-74.058133
 11
42.995515
 21
-63.792115
  0
LINE
  8
型材断面
  6
CONTINUOUS
 10
62.67992
 20
-75.547393
 11
42.247263
 21
-65.281375
  0
CIRCLE
  8
ボルト／ビス
  6
CONTINUOUS
 10
62.756195
 20
-74.65311
 40
0.250185
  0
CIRCLE
  8
ボルト／ビス
  6
CONTINUOUS
 10
62.756195
 20
-74.65311
 40
0.301025
  0
LINE
  8
ボルト／ビス
  6
CONTINUOUS
 62
    64
 10
63.00596
 20
-74.638608
 11
62.868515
 21
-74.429558
  0
LINE
  8
ボルト／ビス
  6
CONTINUOUS
 62
    64
 10
62.61875
 20
-74.44406
 11
62.868515
 21
-74.429558
  0
LINE
  8
ボルト／ビス
  6
CONTINUOUS
 62
    64
 10
62.89364
 20
-74.86216
 11
62.643875
 21
-74.876663
  0
LINE
  8
ボルト／ビス
  6
CONTINUOUS
 62
    64
 10
62.50643
 20
-74.667612
 11
62.643875
 21
-74.876663
  0
LINE
  8
ボルト／ビス
  6
CONTINUOUS
 62
    64
 10
63.00596
 20
-74.638608
 11
62.89364
 21
-74.86216
  0
LINE
  8
ボルト／ビス
  6
CONTINUOUS
 62
    64
 10
62.61875
 20
-74.44406
 11
62.50643
 21
-74.667612
  0
CIRCLE
  8
ボルト／ビス
  6
CONTINUOUS
 62
    64
 10
62.756195
 20
-74.65311
 40
0.216668
  0
CIRCLE
  8
ボルト／ビス
  6
CONTINUOUS
 10
52.837717
 20
-69.669752
 40
0.250185
  0
CIRCLE
  8
ボルト／ビス
  6
CONTINUOUS
 10
52.837717
 20
-69.669752
 40
0.301025
  0
LINE
  8
ボルト／ビス
  6
CONTINUOUS
 62
    64
 10
53.087483
 20
-69.655248
 11
52.950037
 21
-69.446198
  0
LINE
  8
ボルト／ビス
  6
CONTINUOUS
 62
    64
 10
52.700273
 20
-69.4607
 11
52.950037
 21
-69.446198
  0
LINE
  8
ボルト／ビス
  6
CONTINUOUS
 62
    64
 10
52.975163
 20
-69.878802
 11
52.725395
 21
-69.893307
  0
LINE
  8
ボルト／ビス
  6
CONTINUOUS
 62
    64
 10
52.587953
 20
-69.684257
 11
52.725395
 21
-69.893307
  0
LINE
  8
ボルト／ビス
  6
CONTINUOUS
 62
    64
 10
53.087483
 20
-69.655248
 11
52.975163
 21
-69.878802
  0
LINE
  8
ボルト／ビス
  6
CONTINUOUS
 62
    64
 10
52.700273
 20
-69.4607
 11
52.587953
 21
-69.684257
  0
CIRCLE
  8
ボルト／ビス
  6
CONTINUOUS
 62
    64
 10
52.837717
 20
-69.669752
 40
0.216668
  0
CIRCLE
  8
ボルト／ビス
  6
CONTINUOUS
 10
42.91924
 20
-64.686395
 40
0.250185
  0
CIRCLE
  8
ボルト／ビス
  6
CONTINUOUS
 10
42.91924
 20
-64.686395
 40
0.301025
  0
LINE
  8
ボルト／ビス
  6
CONTINUOUS
 62
    64
 10
42.781795
 20
-64.477345
 11
43.03156
 21
-64.462842
  0
LINE
  8
ボルト／ビス
  6
CONTINUOUS
 62
    64
 10
43.169005
 20
-64.671893
 11
43.03156
 21
-64.462842
  0
LINE
  8
ボルト／ビス
  6
CONTINUOUS
 62
    64
 10
42.669475
 20
-64.7009
 11
42.806918
 21
-64.909948
  0
LINE
  8
ボルト／ビス
  6
CONTINUOUS
 62
    64
 10
43.056685
 20
-64.895445
 11
42.806918
 21
-64.909948
  0
LINE
  8
ボルト／ビス
  6
CONTINUOUS
 62
    64
 10
42.781795
 20
-64.477345
 11
42.669475
 21
-64.7009
  0
LINE
  8
ボルト／ビス
  6
CONTINUOUS
 62
    64
 10
43.169005
 20
-64.671893
 11
43.056685
 21
-64.895445
  0
CIRCLE
  8
ボルト／ビス
  6
CONTINUOUS
 62
    64
 10
42.91924
 20
-64.686395
 40
0.216668
  0
ENDBLK
  0
BLOCK
  2
*GRP_0023
 70
    65
 10
0.0
 20
0.0
  0
LINE
  8
補助線
  6
BYBLOCK
 62
    64
 10
42.993702
 20
-74.615697
 11
42.844778
 21
-74.690523
  0
LINE
  8
補助線
  6
BYBLOCK
 62
    64
 10
42.881827
 20
-74.578645
 11
42.956653
 21
-74.727573
  0
LINE
  8
補助線
  6
BYBLOCK
 62
    64
 10
52.912183
 20
-69.63234
 11
52.763255
 21
-69.707165
  0
LINE
  8
補助線
  6
BYBLOCK
 62
    64
 10
52.800305
 20
-69.595287
 11
52.87513
 21
-69.744215
  0
LINE
  8
補助線
  6
BYBLOCK
 62
    64
 10
62.681732
 20
-64.723808
 11
62.83066
 21
-64.648982
  0
LINE
  8
補助線
  6
BYBLOCK
 62
    64
 10
62.718783
 20
-64.61193
 11
62.793607
 21
-64.760858
  0
LINE
  8
型材断面
  6
CONTINUOUS
 10
42.247263
 20
-74.058133
 11
42.02496
 21
-74.729385
  0
LINE
  8
型材断面
  6
CONTINUOUS
 10
42.02496
 20
-74.729385
 11
42.324263
 21
-75.32509
  0
LINE
  8
型材断面
  6
CONTINUOUS
 10
42.324263
 20
-75.32509
 11
42.995515
 21
-75.547393
  0
LINE
  8
型材断面
  6
CONTINUOUS
 10
62.67992
 20
-63.792115
 11
63.351175
 21
-64.014418
  0
LINE
  8
型材断面
  6
CONTINUOUS
 10
63.351175
 20
-64.014418
 11
63.650477
 21
-64.610123
  0
LINE
  8
型材断面
  6
CONTINUOUS
 10
63.650477
 20
-64.610123
 11
63.428173
 21
-65.281375
  0
LINE
  8
型材断面
  6
CONTINUOUS
 10
42.247263
 20
-74.058133
 11
62.67992
 21
-63.792115
  0
LINE
  8
型材断面
  6
CONTINUOUS
 10
42.995515
 20
-75.547393
 11
63.428173
 21
-65.281375
  0
CIRCLE
  8
ボルト／ビス
  6
CONTINUOUS
 10
42.91924
 20
-74.65311
 40
0.250185
  0
CIRCLE
  8
ボルト／ビス
  6
CONTINUOUS
 10
42.91924
 20
-74.65311
 40
0.301025
  0
LINE
  8
ボルト／ビス
  6
CONTINUOUS
 62
    64
 10
42.669475
 20
-74.638608
 11
42.80692
 21
-74.429558
  0
LINE
  8
ボルト／ビス
  6
CONTINUOUS
 62
    64
 10
43.056685
 20
-74.44406
 11
42.80692
 21
-74.429558
  0
LINE
  8
ボルト／ビス
  6
CONTINUOUS
 62
    64
 10
42.781795
 20
-74.86216
 11
43.03156
 21
-74.876663
  0
LINE
  8
ボルト／ビス
  6
CONTINUOUS
 62
    64
 10
43.169005
 20
-74.667612
 11
43.03156
 21
-74.876663
  0
LINE
  8
ボルト／ビス
  6
CONTINUOUS
 62
    64
 10
42.669475
 20
-74.638608
 11
42.781795
 21
-74.86216
  0
LINE
  8
ボルト／ビス
  6
CONTINUOUS
 62
    64
 10
43.056685
 20
-74.44406
 11
43.169005
 21
-74.667612
  0
CIRCLE
  8
ボルト／ビス
  6
CONTINUOUS
 62
    64
 10
42.91924
 20
-74.65311
 40
0.216668
  0
CIRCLE
  8
ボルト／ビス
  6
CONTINUOUS
 10
52.837717
 20
-69.669752
 40
0.250185
  0
CIRCLE
  8
ボルト／ビス
  6
CONTINUOUS
 10
52.837717
 20
-69.669752
 40
0.301025
  0
LINE
  8
ボルト／ビス
  6
CONTINUOUS
 62
    64
 10
52.587953
 20
-69.655248
 11
52.725397
 21
-69.446198
  0
LINE
  8
ボルト／ビス
  6
CONTINUOUS
 62
    64
 10
52.975163
 20
-69.4607
 11
52.725397
 21
-69.446198
  0
LINE
  8
ボルト／ビス
  6
CONTINUOUS
 62
    64
 10
52.700273
 20
-69.878802
 11
52.95004
 21
-69.893307
  0
LINE
  8
ボルト／ビス
  6
CONTINUOUS
 62
    64
 10
53.087483
 20
-69.684257
 11
52.95004
 21
-69.893307
  0
LINE
  8
ボルト／ビス
  6
CONTINUOUS
 62
    64
 10
52.587953
 20
-69.655248
 11
52.700273
 21
-69.878802
  0
LINE
  8
ボルト／ビス
  6
CONTINUOUS
 62
    64
 10
52.975163
 20
-69.4607
 11
53.087483
 21
-69.684257
  0
CIRCLE
  8
ボルト／ビス
  6
CONTINUOUS
 62
    64
 10
52.837717
 20
-69.669752
 40
0.216668
  0
CIRCLE
  8
ボルト／ビス
  6
CONTINUOUS
 10
62.756195
 20
-64.686395
 40
0.250185
  0
CIRCLE
  8
ボルト／ビス
  6
CONTINUOUS
 10
62.756195
 20
-64.686395
 40
0.301025
  0
LINE
  8
ボルト／ビス
  6
CONTINUOUS
 62
    64
 10
62.89364
 20
-64.477345
 11
62.643875
 21
-64.462842
  0
LINE
  8
ボルト／ビス
  6
CONTINUOUS
 62
    64
 10
62.50643
 20
-64.671893
 11
62.643875
 21
-64.462842
  0
LINE
  8
ボルト／ビス
  6
CONTINUOUS
 62
    64
 10
63.00596
 20
-64.7009
 11
62.868518
 21
-64.909948
  0
LINE
  8
ボルト／ビス
  6
CONTINUOUS
 62
    64
 10
62.61875
 20
-64.895445
 11
62.868518
 21
-64.909948
  0
LINE
  8
ボルト／ビス
  6
CONTINUOUS
 62
    64
 10
62.89364
 20
-64.477345
 11
63.00596
 21
-64.7009
  0
LINE
  8
ボルト／ビス
  6
CONTINUOUS
 62
    64
 10
62.50643
 20
-64.671893
 11
62.61875
 21
-64.895445
  0
CIRCLE
  8
ボルト／ビス
  6
CONTINUOUS
 62
    64
 10
62.756195
 20
-64.686395
 40
0.216668
  0
ENDBLK
  0
BLOCK
  2
*GRP_0024
 70
    65
 10
0.0
 20
0.0
  0
LINE
  8
補助線
  6
BYBLOCK
 62
    64
 10
-15.733125
 20
-74.615697
 11
-15.5842
 21
-74.690523
  0
LINE
  8
補助線
  6
BYBLOCK
 62
    64
 10
-15.62125
 20
-74.578645
 11
-15.696075
 21
-74.727573
  0
LINE
  8
補助線
  6
BYBLOCK
 62
    64
 10
-25.651605
 20
-69.63234
 11
-25.502678
 21
-69.707165
  0
LINE
  8
補助線
  6
BYBLOCK
 62
    64
 10
-25.539728
 20
-69.595287
 11
-25.614552
 21
-69.744215
  0
LINE
  8
補助線
  6
BYBLOCK
 62
    64
 10
-35.421155
 20
-64.723808
 11
-35.570082
 21
-64.648982
  0
LINE
  8
補助線
  6
BYBLOCK
 62
    64
 10
-35.458205
 20
-64.61193
 11
-35.53303
 21
-64.760858
  0
LINE
  8
型材断面
  6
CONTINUOUS
 10
-14.986685
 20
-74.058133
 11
-14.764383
 21
-74.729385
  0
LINE
  8
型材断面
  6
CONTINUOUS
 10
-14.764383
 20
-74.729385
 11
-15.063685
 21
-75.32509
  0
LINE
  8
型材断面
  6
CONTINUOUS
 10
-15.063685
 20
-75.32509
 11
-15.734937
 21
-75.547393
  0
LINE
  8
型材断面
  6
CONTINUOUS
 10
-35.419343
 20
-63.792115
 11
-36.090597
 21
-64.014418
  0
LINE
  8
型材断面
  6
CONTINUOUS
 10
-36.090597
 20
-64.014418
 11
-36.3899
 21
-64.610123
  0
LINE
  8
型材断面
  6
CONTINUOUS
 10
-36.3899
 20
-64.610123
 11
-36.167595
 21
-65.281375
  0
LINE
  8
型材断面
  6
CONTINUOUS
 10
-14.986685
 20
-74.058133
 11
-35.419343
 21
-63.792115
  0
LINE
  8
型材断面
  6
CONTINUOUS
 10
-15.734937
 20
-75.547393
 11
-36.167595
 21
-65.281375
  0
CIRCLE
  8
ボルト／ビス
  6
CONTINUOUS
 10
-15.658662
 20
-74.65311
 40
0.250185
  0
CIRCLE
  8
ボルト／ビス
  6
CONTINUOUS
 10
-15.658662
 20
-74.65311
 40
0.301025
  0
LINE
  8
ボルト／ビス
  6
CONTINUOUS
 62
    64
 10
-15.408897
 20
-74.638608
 11
-15.546342
 21
-74.429558
  0
LINE
  8
ボルト／ビス
  6
CONTINUOUS
 62
    64
 10
-15.796108
 20
-74.44406
 11
-15.546342
 21
-74.429558
  0
LINE
  8
ボルト／ビス
  6
CONTINUOUS
 62
    64
 10
-15.521217
 20
-74.86216
 11
-15.770982
 21
-74.876663
  0
LINE
  8
ボルト／ビス
  6
CONTINUOUS
 62
    64
 10
-15.908428
 20
-74.667612
 11
-15.770982
 21
-74.876663
  0
LINE
  8
ボルト／ビス
  6
CONTINUOUS
 62
    64
 10
-15.408897
 20
-74.638608
 11
-15.521217
 21
-74.86216
  0
LINE
  8
ボルト／ビス
  6
CONTINUOUS
 62
    64
 10
-15.796108
 20
-74.44406
 11
-15.908428
 21
-74.667612
  0
CIRCLE
  8
ボルト／ビス
  6
CONTINUOUS
 62
    64
 10
-15.658662
 20
-74.65311
 40
0.216668
  0
CIRCLE
  8
ボルト／ビス
  6
CONTINUOUS
 10
-25.57714
 20
-69.669752
 40
0.250185
  0
CIRCLE
  8
ボルト／ビス
  6
CONTINUOUS
 10
-25.57714
 20
-69.669752
 40
0.301025
  0
LINE
  8
ボルト／ビス
  6
CONTINUOUS
 62
    64
 10
-25.327375
 20
-69.655248
 11
-25.46482
 21
-69.446198
  0
LINE
  8
ボルト／ビス
  6
CONTINUOUS
 62
    64
 10
-25.714585
 20
-69.4607
 11
-25.46482
 21
-69.446198
  0
LINE
  8
ボルト／ビス
  6
CONTINUOUS
 62
    64
 10
-25.439695
 20
-69.878802
 11
-25.689462
 21
-69.893307
  0
LINE
  8
ボルト／ビス
  6
CONTINUOUS
 62
    64
 10
-25.826905
 20
-69.684257
 11
-25.689462
 21
-69.893307
  0
LINE
  8
ボルト／ビス
  6
CONTINUOUS
 62
    64
 10
-25.327375
 20
-69.655248
 11
-25.439695
 21
-69.878802
  0
LINE
  8
ボルト／ビス
  6
CONTINUOUS
 62
    64
 10
-25.714585
 20
-69.4607
 11
-25.826905
 21
-69.684257
  0
CIRCLE
  8
ボルト／ビス
  6
CONTINUOUS
 62
    64
 10
-25.57714
 20
-69.669752
 40
0.216668
  0
CIRCLE
  8
ボルト／ビス
  6
CONTINUOUS
 10
-35.495618
 20
-64.686395
 40
0.250185
  0
CIRCLE
  8
ボルト／ビス
  6
CONTINUOUS
 10
-35.495618
 20
-64.686395
 40
0.301025
  0
LINE
  8
ボルト／ビス
  6
CONTINUOUS
 62
    64
 10
-35.633062
 20
-64.477345
 11
-35.383298
 21
-64.462842
  0
LINE
  8
ボルト／ビス
  6
CONTINUOUS
 62
    64
 10
-35.245852
 20
-64.671893
 11
-35.383298
 21
-64.462842
  0
LINE
  8
ボルト／ビス
  6
CONTINUOUS
 62
    64
 10
-35.745382
 20
-64.7009
 11
-35.60794
 21
-64.909948
  0
LINE
  8
ボルト／ビス
  6
CONTINUOUS
 62
    64
 10
-35.358173
 20
-64.895445
 11
-35.60794
 21
-64.909948
  0
LINE
  8
ボルト／ビス
  6
CONTINUOUS
 62
    64
 10
-35.633062
 20
-64.477345
 11
-35.745382
 21
-64.7009
  0
LINE
  8
ボルト／ビス
  6
CONTINUOUS
 62
    64
 10
-35.245852
 20
-64.671893
 11
-35.358173
 21
-64.895445
  0
CIRCLE
  8
ボルト／ビス
  6
CONTINUOUS
 62
    64
 10
-35.495618
 20
-64.686395
 40
0.216668
  0
ENDBLK
  0
BLOCK
  2
*GRP_0025
 70
    65
 10
0.0
 20
0.0
  0
LINE
  8
補助線
  6
BYBLOCK
 62
    64
 10
-35.421155
 20
-74.615697
 11
-35.57008
 21
-74.690523
  0
LINE
  8
補助線
  6
BYBLOCK
 62
    64
 10
-35.53303
 20
-74.578645
 11
-35.458205
 21
-74.727573
  0
LINE
  8
補助線
  6
BYBLOCK
 62
    64
 10
-25.502675
 20
-69.63234
 11
-25.651602
 21
-69.707165
  0
LINE
  8
補助線
  6
BYBLOCK
 62
    64
 10
-25.614552
 20
-69.595287
 11
-25.539728
 21
-69.744215
  0
LINE
  8
補助線
  6
BYBLOCK
 62
    64
 10
-15.733125
 20
-64.723808
 11
-15.584198
 21
-64.648982
  0
LINE
  8
補助線
  6
BYBLOCK
 62
    64
 10
-15.696075
 20
-64.61193
 11
-15.62125
 21
-64.760858
  0
LINE
  8
型材断面
  6
CONTINUOUS
 10
-36.167595
 20
-74.058133
 11
-36.389898
 21
-74.729385
  0
LINE
  8
型材断面
  6
CONTINUOUS
 10
-36.389898
 20
-74.729385
 11
-36.090595
 21
-75.32509
  0
LINE
  8
型材断面
  6
CONTINUOUS
 10
-36.090595
 20
-75.32509
 11
-35.419343
 21
-75.547393
  0
LINE
  8
型材断面
  6
CONTINUOUS
 10
-15.734937
 20
-63.792115
 11
-15.063682
 21
-64.014418
  0
LINE
  8
型材断面
  6
CONTINUOUS
 10
-15.063682
 20
-64.014418
 11
-14.76438
 21
-64.610123
  0
LINE
  8
型材断面
  6
CONTINUOUS
 10
-14.76438
 20
-64.610123
 11
-14.986685
 21
-65.281375
  0
LINE
  8
型材断面
  6
CONTINUOUS
 10
-36.167595
 20
-74.058133
 11
-15.734937
 21
-63.792115
  0
LINE
  8
型材断面
  6
CONTINUOUS
 10
-35.419343
 20
-75.547393
 11
-14.986685
 21
-65.281375
  0
CIRCLE
  8
ボルト／ビス
  6
CONTINUOUS
 10
-35.495618
 20
-74.65311
 40
0.250185
  0
CIRCLE
  8
ボルト／ビス
  6
CONTINUOUS
 10
-35.495618
 20
-74.65311
 40
0.301025
  0
LINE
  8
ボルト／ビス
  6
CONTINUOUS
 62
    64
 10
-35.745382
 20
-74.638608
 11
-35.607938
 21
-74.429558
  0
LINE
  8
ボルト／ビス
  6
CONTINUOUS
 62
    64
 10
-35.358173
 20
-74.44406
 11
-35.607938
 21
-74.429558
  0
LINE
  8
ボルト／ビス
  6
CONTINUOUS
 62
    64
 10
-35.633062
 20
-74.86216
 11
-35.383298
 21
-74.876663
  0
LINE
  8
ボルト／ビス
  6
CONTINUOUS
 62
    64
 10
-35.245852
 20
-74.667612
 11
-35.383298
 21
-74.876663
  0
LINE
  8
ボルト／ビス
  6
CONTINUOUS
 62
    64
 10
-35.745382
 20
-74.638608
 11
-35.633062
 21
-74.86216
  0
LINE
  8
ボルト／ビス
  6
CONTINUOUS
 62
    64
 10
-35.358173
 20
-74.44406
 11
-35.245852
 21
-74.667612
  0
CIRCLE
  8
ボルト／ビス
  6
CONTINUOUS
 62
    64
 10
-35.495618
 20
-74.65311
 40
0.216668
  0
CIRCLE
  8
ボルト／ビス
  6
CONTINUOUS
 10
-25.57714
 20
-69.669752
 40
0.250185
  0
CIRCLE
  8
ボルト／ビス
  6
CONTINUOUS
 10
-25.57714
 20
-69.669752
 40
0.301025
  0
LINE
  8
ボルト／ビス
  6
CONTINUOUS
 62
    64
 10
-25.826905
 20
-69.655248
 11
-25.68946
 21
-69.446198
  0
LINE
  8
ボルト／ビス
  6
CONTINUOUS
 62
    64
 10
-25.439695
 20
-69.4607
 11
-25.68946
 21
-69.446198
  0
LINE
  8
ボルト／ビス
  6
CONTINUOUS
 62
    64
 10
-25.714585
 20
-69.878802
 11
-25.464818
 21
-69.893307
  0
LINE
  8
ボルト／ビス
  6
CONTINUOUS
 62
    64
 10
-25.327375
 20
-69.684257
 11
-25.464818
 21
-69.893307
  0
LINE
  8
ボルト／ビス
  6
CONTINUOUS
 62
    64
 10
-25.826905
 20
-69.655248
 11
-25.714585
 21
-69.878802
  0
LINE
  8
ボルト／ビス
  6
CONTINUOUS
 62
    64
 10
-25.439695
 20
-69.4607
 11
-25.327375
 21
-69.684257
  0
CIRCLE
  8
ボルト／ビス
  6
CONTINUOUS
 62
    64
 10
-25.57714
 20
-69.669752
 40
0.216668
  0
CIRCLE
  8
ボルト／ビス
  6
CONTINUOUS
 10
-15.658662
 20
-64.686395
 40
0.250185
  0
CIRCLE
  8
ボルト／ビス
  6
CONTINUOUS
 10
-15.658662
 20
-64.686395
 40
0.301025
  0
LINE
  8
ボルト／ビス
  6
CONTINUOUS
 62
    64
 10
-15.521217
 20
-64.477345
 11
-15.770982
 21
-64.462842
  0
LINE
  8
ボルト／ビス
  6
CONTINUOUS
 62
    64
 10
-15.908428
 20
-64.671893
 11
-15.770982
 21
-64.462842
  0
LINE
  8
ボルト／ビス
  6
CONTINUOUS
 62
    64
 10
-15.408897
 20
-64.7009
 11
-15.54634
 21
-64.909948
  0
LINE
  8
ボルト／ビス
  6
CONTINUOUS
 62
    64
 10
-15.796108
 20
-64.895445
 11
-15.54634
 21
-64.909948
  0
LINE
  8
ボルト／ビス
  6
CONTINUOUS
 62
    64
 10
-15.521217
 20
-64.477345
 11
-15.408897
 21
-64.7009
  0
LINE
  8
ボルト／ビス
  6
CONTINUOUS
 62
    64
 10
-15.908428
 20
-64.671893
 11
-15.796108
 21
-64.895445
  0
CIRCLE
  8
ボルト／ビス
  6
CONTINUOUS
 62
    64
 10
-15.658662
 20
-64.686395
 40
0.216668
  0
ENDBLK
  0
BLOCK
  2
*DIM_0026
 70
    65
 10
0.0
 20
0.0
  0
LINE
  8
寸法
  6
CONTINUOUS
 10
161.17608
 20
-55.52427
 11
125.442748
 21
-55.52427
  0
POINT
  8
寸法
 10
161.17608
 20
-55.52427
  0
POINT
  8
寸法
 10
125.442748
 20
-55.52427
  0
TEXT
  7
TextStyle03
  8
寸法
  6
CONTINUOUS
 10
140.01875
 20
-55.175
  1
1072
 40
3.0
 72
     5
 11
146.58125
 21
-55.175
  0
ENDBLK
  0
BLOCK
  2
*DIM_0027
 70
    65
 10
0.0
 20
0.0
  0
LINE
  8
寸法
  6
BYBLOCK
 62
     0
 10
85.266347
 20
-69.076395
 11
85.266347
 21
-61.743062
  0
POINT
  8
寸法
 62
     0
 10
85.266347
 20
-61.743062
  0
TEXT
  7
TextStyle03
  8
寸法
  6
CONTINUOUS
 62
     0
 10
85.05
 20
-59.49375
  1
上昇210以上
 40
3.0
 50
90.0
 72
     5
 11
85.05
 21
-41.30625
  0
ENDBLK
  0
BLOCK
  2
*DIM_0028
 70
    65
 10
0.0
 20
0.0
  0
LINE
  8
寸法
  6
BYBLOCK
 62
     0
 10
155.00624
 20
51.815152
 11
147.672907
 21
51.815152
  0
POINT
  8
寸法
 62
     0
 10
147.672907
 20
51.815152
  0
TEXT
  7
TextStyle03
  8
寸法
  6
CONTINUOUS
 62
     0
 10
125.38125
 20
50.15
  1
上昇210以上
 40
3.0
 72
     5
 11
143.56875
 21
50.15
  0
ENDBLK
  0
BLOCK
  2
*DIM_0029
 70
    65
 10
0.0
 20
0.0
  0
LINE
  8
寸法
  6
CONTINUOUS
 10
166.17608
 20
-63.785395
 11
169.799972
 21
-63.785395
  0
LINE
  8
寸法
  6
CONTINUOUS
 10
166.17608
 20
-83.785395
 11
169.799972
 21
-83.785395
  0
LINE
  8
寸法
  6
CONTINUOUS
 10
169.799972
 20
-63.785395
 11
169.799972
 21
-83.785395
  0
POINT
  8
寸法
 10
169.799972
 20
-63.785395
  0
POINT
  8
寸法
 10
169.799972
 20
-83.785395
  0
TEXT
  7
TextStyle03
  8
寸法
  6
CONTINUOUS
 10
169.4
 20
-76.2375
  1
600
 40
3.0
 50
90.0
 72
     5
 11
169.4
 21
-71.3625
  0
ENDBLK
  0
BLOCK
  2
*DIM_0030
 70
    65
 10
0.0
 20
0.0
  0
LINE
  8
寸法
  6
CONTINUOUS
 10
72.765037
 20
-69.076395
 11
85.266347
 21
-69.076395
  0
LINE
  8
寸法
  6
CONTINUOUS
 10
73.852863
 20
-77.192947
 11
85.266347
 21
-77.192947
  0
LINE
  8
寸法
  6
CONTINUOUS
 10
85.266347
 20
-69.076395
 11
85.266347
 21
-77.192947
  0
POINT
  8
寸法
 10
85.266347
 20
-69.076395
  0
POINT
  8
寸法
 10
85.266347
 20
-77.192947
  0
TEXT
  7
TextStyle03
  8
寸法
  6
CONTINUOUS
 10
88.275
 20
-77.275
  1
243.5
 40
3.0
 50
90.0
 72
     5
 11
88.275
 21
-69.025
  0
ENDBLK
  0
BLOCK
  2
*DIM_0031
 70
    65
 10
0.0
 20
0.0
  0
LINE
  8
寸法
  6
CONTINUOUS
 10
155.00624
 20
49.457957
 11
155.00624
 21
51.815152
  0
LINE
  8
寸法
  6
CONTINUOUS
 10
163.122792
 20
48.403357
 11
163.122792
 21
51.815152
  0
LINE
  8
寸法
  6
CONTINUOUS
 10
155.00624
 20
51.815152
 11
163.122792
 21
51.815152
  0
POINT
  8
寸法
 10
155.00624
 20
51.815152
  0
POINT
  8
寸法
 10
163.122792
 20
51.815152
  0
TEXT
  7
TextStyle03
  8
寸法
  6
CONTINUOUS
 10
154.95
 20
52.175
  1
243.5
 40
3.0
 72
     5
 11
163.2
 21
52.175
  0
ENDBLK
  0
ENDSEC
  0
SECTION
  2
ENTITIES
  0
POLYLINE
  8
通り芯
  6
CONTINUOUS
 66
     1
 70
     1
  0
VERTEX
  8
通り芯
 10
-210.0
 20
-148.5
  0
VERTEX
  8
通り芯
 10
210.0
 20
-148.5
  0
VERTEX
  8
通り芯
 10
210.0
 20
148.5
  0
VERTEX
  8
通り芯
 10
-210.0
 20
148.5
  0
SEQEND
  0
INSERT
  2
*GRP_0001
  8
型材断面
  6
CONTINUOUS
 10
0.0
 20
0.0
  0
LINE
  8
型材断面
  6
DASHDOT
 10
66.089525
 20
-77.836442
 11
66.089525
 21
42.814033
  0
LINE
  8
型材断面
  6
DASHDOT
 10
-25.577142
 20
-77.836442
 11
-25.577142
 21
42.814033
  0
LINE
  8
型材断面
  6
DASHDOT
 10
-117.243808
 20
-77.836442
 11
-117.243808
 21
42.814033
  0
LINE
  8
型材断面
  6
DASHDOT
 10
163.766288
 20
22.814033
 11
-117.243808
 21
22.814033
  0
LINE
  8
型材断面
  6
DASHDOT
 10
163.766288
 20
32.814033
 11
-117.243808
 21
32.814033
  0
POLYLINE
  8
型材断面
  6
CONTINUOUS
 66
     1
 70
     1
  0
VERTEX
  8
型材断面
 10
-15.464005
 20
13.03811
  0
VERTEX
  8
型材断面
 10
-34.235935
 20
13.03811
  0
VERTEX
  8
型材断面
 10
-34.235935
 20
8.301267
  0
VERTEX
  8
型材断面
 10
-15.464005
 20
8.301267
  0
SEQEND
  0
POLYLINE
  8
型材断面
  6
CONTINUOUS
 66
     1
 70
     1
  0
VERTEX
  8
型材断面
 10
-15.464005
 20
52.589955
  0
VERTEX
  8
型材断面
 10
-34.235935
 20
52.589955
  0
VERTEX
  8
型材断面
 10
-34.235935
 20
57.326798
  0
VERTEX
  8
型材断面
 10
-15.464005
 20
57.326798
  0
SEQEND
  0
LINE
  8
型材断面
  6
CONTINUOUS
 10
-158.096015
 20
80.791505
 11
-157.49996
 21
78.200998
  0
LINE
  8
型材断面
  6
CONTINUOUS
 10
-158.096015
 20
80.791505
 11
-158.692072
 21
78.200998
  0
LINE
  8
型材断面
  6
CONTINUOUS
 10
-158.692072
 20
78.200998
 11
-157.49996
 21
78.200998
  0
LINE
  8
型材断面
  6
CONTINUOUS
 10
-164.118603
 20
74.922105
 11
-117.876825
 21
74.922105
  0
LINE
  8
型材断面
  6
CONTINUOUS
 10
-158.096015
 20
87.32138
 11
-159.591645
 21
84.730873
  0
LINE
  8
型材断面
  6
CONTINUOUS
 10
-158.096015
 20
87.32138
 11
-156.600385
 21
84.730873
  0
LINE
  8
型材断面
  6
CONTINUOUS
 10
-156.600385
 20
84.730873
 11
-159.591645
 21
84.730873
  0
LINE
  8
型材断面
  6
CONTINUOUS
 10
-164.118603
 20
83.792277
 11
-117.876825
 21
83.792277
  0
LINE
  8
型材断面
  6
CONTINUOUS
 10
-164.118603
 20
69.134073
 11
-117.876825
 21
69.134073
  0
LINE
  8
型材断面
  6
CONTINUOUS
 10
-164.118603
 20
63.34604
 11
-117.876825
 21
63.34604
  0
LINE
  8
型材断面
  6
DASHDOT
 10
163.766288
 20
42.814033
 11
-117.243808
 21
42.814033
  0
INSERT
  2
*GRP_0016
  8
型材断面
  6
DASHDOT
 10
0.0
 20
0.0
  0
INSERT
  2
*GRP_0020
  8
型材断面
  6
CONTINUOUS
 10
0.0
 20
0.0
  0
INSERT
  2
*GRP_0021
  8
型材断面
  6
CONTINUOUS
 10
0.0
 20
0.0
  0
INSERT
  2
*GRP_0022
  8
型材断面
  6
CONTINUOUS
 10
0.0
 20
0.0
  0
INSERT
  2
*GRP_0023
  8
型材断面
  6
CONTINUOUS
 10
0.0
 20
0.0
  0
INSERT
  2
*GRP_0024
  8
型材断面
  6
CONTINUOUS
 10
0.0
 20
0.0
  0
INSERT
  2
*GRP_0025
  8
型材断面
  6
CONTINUOUS
 10
0.0
 20
0.0
  0
LINE
  8
型材断面
  6
CONTINUOUS
 10
-120.007147
 20
20.050848
 11
68.85286
 21
20.050848
  0
LINE
  8
型材断面
  6
CONTINUOUS
 10
-120.007147
 20
45.57722
 11
68.85286
 21
45.57722
  0
LINE
  8
型材断面
  6
CONTINUOUS
 10
-120.007145
 20
32.814033
 11
-122.597653
 21
34.309663
  0
LINE
  8
型材断面
  6
CONTINUOUS
 10
-120.007145
 20
32.814033
 11
-122.597653
 21
31.318403
  0
LINE
  8
型材断面
  6
CONTINUOUS
 10
-122.597653
 20
31.318403
 11
-122.597653
 21
34.309663
  0
LINE
  8
型材断面
  6
CONTINUOUS
 10
-120.007147
 20
39.114035
 11
-122.597657
 21
38.517982
  0
LINE
  8
型材断面
  6
CONTINUOUS
 10
-120.007147
 20
39.114035
 11
-122.597655
 21
39.710095
  0
LINE
  8
型材断面
  6
CONTINUOUS
 10
-122.597655
 20
39.710095
 11
-122.597657
 21
38.517982
  0
LINE
  8
型材断面
  6
CONTINUOUS
 10
-120.007147
 20
26.51403
 11
-122.597657
 21
27.110082
  0
LINE
  8
型材断面
  6
CONTINUOUS
 10
-120.007147
 20
26.51403
 11
-122.597655
 21
25.91797
  0
LINE
  8
型材断面
  6
CONTINUOUS
 10
-122.597655
 20
25.91797
 11
-122.597657
 21
27.110082
  0
LINE
  8
型材断面
  6
CONTINUOUS
 10
-100.57714
 20
45.57722
 11
-102.07277
 21
48.167727
  0
LINE
  8
型材断面
  6
CONTINUOUS
 10
-100.57714
 20
45.57722
 11
-99.08151
 21
48.167727
  0
LINE
  8
型材断面
  6
CONTINUOUS
 10
-99.08151
 20
48.167727
 11
-102.07277
 21
48.167727
  0
LINE
  8
型材断面
  6
CONTINUOUS
 10
49.422855
 20
45.57722
 11
50.918485
 21
48.167727
  0
LINE
  8
型材断面
  6
CONTINUOUS
 10
49.422855
 20
45.57722
 11
47.927225
 21
48.167727
  0
LINE
  8
型材断面
  6
CONTINUOUS
 10
47.927225
 20
48.167727
 11
50.918485
 21
48.167727
  0
LINE
  8
型材断面
  6
CONTINUOUS
 10
-25.577142
 20
45.577218
 11
-27.072772
 21
48.167725
  0
LINE
  8
型材断面
  6
CONTINUOUS
 10
-25.577142
 20
45.577218
 11
-24.081513
 21
48.167725
  0
LINE
  8
型材断面
  6
CONTINUOUS
 10
-24.081513
 20
48.167725
 11
-27.072772
 21
48.167725
  0
LINE
  8
型材断面
  6
CONTINUOUS
 10
68.852863
 20
39.114035
 11
71.443373
 21
38.517982
  0
LINE
  8
型材断面
  6
CONTINUOUS
 10
68.852863
 20
39.114035
 11
71.44337
 21
39.710095
  0
LINE
  8
型材断面
  6
CONTINUOUS
 10
71.44337
 20
39.710095
 11
71.443373
 21
38.517982
  0
LINE
  8
型材断面
  6
CONTINUOUS
 10
68.852863
 20
26.51403
 11
71.443373
 21
27.110082
  0
LINE
  8
型材断面
  6
CONTINUOUS
 10
68.852863
 20
26.51403
 11
71.44337
 21
25.91797
  0
LINE
  8
型材断面
  6
CONTINUOUS
 10
71.44337
 20
25.91797
 11
71.443373
 21
27.110082
  0
LINE
  8
型材断面
  6
CONTINUOUS
 10
68.85286
 20
32.814033
 11
71.443368
 21
34.309663
  0
LINE
  8
型材断面
  6
CONTINUOUS
 10
68.85286
 20
32.814033
 11
71.443368
 21
31.318403
  0
LINE
  8
型材断面
  6
CONTINUOUS
 10
71.443368
 20
31.318403
 11
71.443368
 21
34.309663
  0
LINE
  8
型材断面
  6
CONTINUOUS
 10
-100.57714
 20
20.050848
 11
-102.07277
 21
17.46034
  0
LINE
  8
型材断面
  6
CONTINUOUS
 10
-100.57714
 20
20.050848
 11
-99.08151
 21
17.46034
  0
LINE
  8
型材断面
  6
CONTINUOUS
 10
-99.08151
 20
17.46034
 11
-102.07277
 21
17.46034
  0
LINE
  8
型材断面
  6
CONTINUOUS
 10
49.422855
 20
20.050848
 11
50.918485
 21
17.46034
  0
LINE
  8
型材断面
  6
CONTINUOUS
 10
49.422855
 20
20.050848
 11
47.927225
 21
17.46034
  0
LINE
  8
型材断面
  6
CONTINUOUS
 10
47.927225
 20
17.46034
 11
50.918485
 21
17.46034
  0
LINE
  8
型材断面
  6
CONTINUOUS
 10
-25.577142
 20
20.050845
 11
-27.072772
 21
17.460338
  0
LINE
  8
型材断面
  6
CONTINUOUS
 10
-25.577142
 20
20.050845
 11
-24.081513
 21
17.460338
  0
LINE
  8
型材断面
  6
CONTINUOUS
 10
-24.081513
 20
17.460338
 11
-27.072772
 21
17.460338
  0
LINE
  8
型材断面
  6
DASHDOT
 10
29.772857
 20
42.814033
 11
29.772857
 21
22.814033
  0
LINE
  8
型材断面
  6
DASHDOT
 10
-7.127142
 20
22.814033
 11
-7.127142
 21
42.814033
  0
LINE
  8
型材断面
  6
CONTINUOUS
 10
31.022857
 20
24.314035
 11
28.522857
 21
24.314038
  0
LINE
  8
型材断面
  6
CONTINUOUS
 10
31.022857
 20
41.31403
 11
28.522857
 21
41.314027
  0
LINE
  8
型材断面
  6
CONTINUOUS
 10
31.022857
 20
24.314035
 11
31.022857
 21
41.31403
  0
LINE
  8
型材断面
  6
CONTINUOUS
 10
28.522857
 20
24.314038
 11
28.522857
 21
41.314027
  0
LINE
  8
型材断面
  6
CONTINUOUS
 10
-5.877142
 20
24.314035
 11
-8.377142
 21
24.314038
  0
LINE
  8
型材断面
  6
CONTINUOUS
 10
-5.877142
 20
41.31403
 11
-8.377142
 21
41.314027
  0
LINE
  8
型材断面
  6
CONTINUOUS
 10
-5.877142
 20
24.314035
 11
-5.877142
 21
41.31403
  0
LINE
  8
型材断面
  6
CONTINUOUS
 10
-8.377142
 20
24.314038
 11
-8.377142
 21
41.314027
  0
LINE
  8
型材断面
  6
CONTINUOUS
 10
68.852863
 20
20.050848
 11
68.852863
 21
45.57722
  0
LINE
  8
型材断面
  6
CONTINUOUS
 10
67.687183
 20
20.98068
 11
67.922883
 21
21.21638
  0
LINE
  8
型材断面
  6
CONTINUOUS
 10
65.18718
 20
23.48068
 11
65.42288
 21
23.71638
  0
LINE
  8
型材断面
  6
CONTINUOUS
 10
65.42288
 20
23.71638
 11
67.922883
 21
21.21638
  0
LINE
  8
型材断面
  6
CONTINUOUS
 10
65.18718
 20
23.48068
 11
67.687183
 21
20.98068
  0
LINE
  8
型材断面
  6
CONTINUOUS
 10
68.852715
 20
20.050848
 11
67.80503
 21
21.098527
  0
LINE
  8
型材断面
  6
CONTINUOUS
 10
67.922868
 20
32.814033
 11
67.922883
 21
21.21638
  0
LINE
  8
型材断面
  6
CONTINUOUS
 10
65.422868
 20
33.2307
 11
67.922868
 21
33.2307
  0
LINE
  8
型材断面
  6
CONTINUOUS
 10
65.422868
 20
32.397365
 11
67.922868
 21
32.397365
  0
LINE
  8
型材断面
  6
CONTINUOUS
 10
65.422868
 20
32.397365
 11
65.42288
 21
23.71638
  0
LINE
  8
型材断面
  6
CONTINUOUS
 10
67.687183
 20
44.647385
 11
67.922883
 21
44.411685
  0
LINE
  8
型材断面
  6
CONTINUOUS
 10
65.18718
 20
42.147385
 11
65.42288
 21
41.911685
  0
LINE
  8
型材断面
  6
CONTINUOUS
 10
65.42288
 20
41.911685
 11
67.922883
 21
44.411685
  0
LINE
  8
型材断面
  6
CONTINUOUS
 10
65.18718
 20
42.147385
 11
67.687183
 21
44.647385
  0
LINE
  8
型材断面
  6
CONTINUOUS
 10
68.852715
 20
45.577218
 11
67.80503
 21
44.529537
  0
LINE
  8
型材断面
  6
CONTINUOUS
 10
65.422868
 20
33.2307
 11
65.42288
 21
41.911685
  0
LINE
  8
型材断面
  6
CONTINUOUS
 10
67.922868
 20
32.814033
 11
67.922883
 21
44.411685
  0
LINE
  8
型材断面
  6
CONTINUOUS
 10
-25.577142
 20
44.647325
 11
67.687185
 21
44.647387
  0
LINE
  8
型材断面
  6
CONTINUOUS
 10
-25.577142
 20
20.98074
 11
67.687185
 21
20.980677
  0
LINE
  8
型材断面
  6
CONTINUOUS
 10
48.34786
 20
23.48069
 11
48.34786
 21
20.98069
  0
LINE
  8
型材断面
  6
CONTINUOUS
 10
47.514525
 20
23.48069
 11
47.514525
 21
20.98069
  0
LINE
  8
型材断面
  6
CONTINUOUS
 10
11.739525
 20
23.48069
 11
11.739525
 21
20.98069
  0
LINE
  8
型材断面
  6
CONTINUOUS
 10
10.90619
 20
23.48069
 11
10.90619
 21
20.98069
  0
LINE
  8
型材断面
  6
CONTINUOUS
 10
-25.160475
 20
23.48069
 11
-25.160475
 21
20.98069
  0
LINE
  8
型材断面
  6
CONTINUOUS
 10
-25.99381
 20
23.48069
 11
-25.99381
 21
20.98069
  0
LINE
  8
型材断面
  6
CONTINUOUS
 10
48.34786
 20
42.147375
 11
48.34786
 21
44.647375
  0
LINE
  8
型材断面
  6
CONTINUOUS
 10
47.514525
 20
42.147375
 11
47.514525
 21
44.647375
  0
LINE
  8
型材断面
  6
CONTINUOUS
 10
11.739525
 20
42.147375
 11
11.739525
 21
44.647375
  0
LINE
  8
型材断面
  6
CONTINUOUS
 10
10.90619
 20
42.147375
 11
10.90619
 21
44.647375
  0
LINE
  8
型材断面
  6
CONTINUOUS
 10
-25.160475
 20
42.147375
 11
-25.160475
 21
44.647375
  0
LINE
  8
型材断面
  6
CONTINUOUS
 10
-25.99381
 20
42.147375
 11
-25.99381
 21
44.647375
  0
LINE
  8
型材断面
  6
CONTINUOUS
 10
-25.160475
 20
23.480743
 11
10.90619
 21
23.480717
  0
LINE
  8
型材断面
  6
CONTINUOUS
 10
-25.160475
 20
42.147322
 11
10.90619
 21
42.147348
  0
LINE
  8
型材断面
  6
CONTINUOUS
 10
11.739525
 20
42.14735
 11
47.514525
 21
42.147375
  0
LINE
  8
型材断面
  6
CONTINUOUS
 10
48.34786
 20
42.147375
 11
65.187183
 21
42.147387
  0
LINE
  8
型材断面
  6
CONTINUOUS
 10
11.739525
 20
23.480715
 11
47.514525
 21
23.48069
  0
LINE
  8
型材断面
  6
CONTINUOUS
 10
48.34786
 20
23.48069
 11
65.187183
 21
23.480677
  0
LINE
  8
型材断面
  6
DASHDOT
 10
-80.927142
 20
42.814033
 11
-80.927142
 21
22.814033
  0
LINE
  8
型材断面
  6
DASHDOT
 10
-44.027142
 20
22.814033
 11
-44.027142
 21
42.814033
  0
LINE
  8
型材断面
  6
CONTINUOUS
 10
-82.177142
 20
24.314035
 11
-79.677142
 21
24.314038
  0
LINE
  8
型材断面
  6
CONTINUOUS
 10
-82.177142
 20
41.31403
 11
-79.677142
 21
41.314027
  0
LINE
  8
型材断面
  6
CONTINUOUS
 10
-82.177142
 20
24.314035
 11
-82.177142
 21
41.31403
  0
LINE
  8
型材断面
  6
CONTINUOUS
 10
-79.677142
 20
24.314038
 11
-79.677142
 21
41.314027
  0
LINE
  8
型材断面
  6
CONTINUOUS
 10
-45.277142
 20
24.314035
 11
-42.777142
 21
24.314038
  0
LINE
  8
型材断面
  6
CONTINUOUS
 10
-45.277142
 20
41.31403
 11
-42.777142
 21
41.314027
  0
LINE
  8
型材断面
  6
CONTINUOUS
 10
-45.277142
 20
24.314035
 11
-45.277142
 21
41.31403
  0
LINE
  8
型材断面
  6
CONTINUOUS
 10
-42.777142
 20
24.314038
 11
-42.777142
 21
41.314027
  0
LINE
  8
型材断面
  6
CONTINUOUS
 10
-120.007147
 20
20.050848
 11
-120.007147
 21
45.57722
  0
LINE
  8
型材断面
  6
CONTINUOUS
 10
-118.841467
 20
20.98068
 11
-119.077168
 21
21.21638
  0
LINE
  8
型材断面
  6
CONTINUOUS
 10
-116.341465
 20
23.48068
 11
-116.577165
 21
23.71638
  0
LINE
  8
型材断面
  6
CONTINUOUS
 10
-116.577165
 20
23.71638
 11
-119.077168
 21
21.21638
  0
LINE
  8
型材断面
  6
CONTINUOUS
 10
-116.341465
 20
23.48068
 11
-118.841467
 21
20.98068
  0
LINE
  8
型材断面
  6
CONTINUOUS
 10
-120.007
 20
20.050848
 11
-118.959315
 21
21.098527
  0
LINE
  8
型材断面
  6
CONTINUOUS
 10
-119.077153
 20
32.814033
 11
-119.077168
 21
21.21638
  0
LINE
  8
型材断面
  6
CONTINUOUS
 10
-116.577153
 20
33.2307
 11
-119.077153
 21
33.2307
  0
LINE
  8
型材断面
  6
CONTINUOUS
 10
-116.577153
 20
32.397365
 11
-119.077153
 21
32.397365
  0
LINE
  8
型材断面
  6
CONTINUOUS
 10
-116.577153
 20
32.397365
 11
-116.577165
 21
23.71638
  0
LINE
  8
型材断面
  6
CONTINUOUS
 10
-118.841467
 20
44.647385
 11
-119.077168
 21
44.411685
  0
LINE
  8
型材断面
  6
CONTINUOUS
 10
-116.341465
 20
42.147385
 11
-116.577165
 21
41.911685
  0
LINE
  8
型材断面
  6
CONTINUOUS
 10
-116.577165
 20
41.911685
 11
-119.077168
 21
44.411685
  0
LINE
  8
型材断面
  6
CONTINUOUS
 10
-116.341465
 20
42.147385
 11
-118.841467
 21
44.647385
  0
LINE
  8
型材断面
  6
CONTINUOUS
 10
-120.007
 20
45.577218
 11
-118.959315
 21
44.529537
  0
LINE
  8
型材断面
  6
CONTINUOUS
 10
-116.577153
 20
33.2307
 11
-116.577165
 21
41.911685
  0
LINE
  8
型材断面
  6
CONTINUOUS
 10
-119.077153
 20
32.814033
 11
-119.077168
 21
44.411685
  0
LINE
  8
型材断面
  6
CONTINUOUS
 10
-99.502145
 20
23.48069
 11
-99.502145
 21
20.98069
  0
LINE
  8
型材断面
  6
CONTINUOUS
 10
-98.66881
 20
23.48069
 11
-98.66881
 21
20.98069
  0
LINE
  8
型材断面
  6
CONTINUOUS
 10
-62.89381
 20
23.48069
 11
-62.89381
 21
20.98069
  0
LINE
  8
型材断面
  6
CONTINUOUS
 10
-62.060475
 20
23.48069
 11
-62.060475
 21
20.98069
  0
LINE
  8
型材断面
  6
CONTINUOUS
 10
-99.502145
 20
42.147375
 11
-99.502145
 21
44.647375
  0
LINE
  8
型材断面
  6
CONTINUOUS
 10
-98.66881
 20
42.147375
 11
-98.66881
 21
44.647375
  0
LINE
  8
型材断面
  6
CONTINUOUS
 10
-62.89381
 20
42.147375
 11
-62.89381
 21
44.647375
  0
LINE
  8
型材断面
  6
CONTINUOUS
 10
-62.060475
 20
42.147375
 11
-62.060475
 21
44.647375
  0
LINE
  8
型材断面
  6
CONTINUOUS
 10
-62.89381
 20
42.14735
 11
-98.66881
 21
42.147375
  0
LINE
  8
型材断面
  6
CONTINUOUS
 10
-99.502145
 20
42.147375
 11
-116.341467
 21
42.147387
  0
LINE
  8
型材断面
  6
CONTINUOUS
 10
-62.89381
 20
23.480715
 11
-98.66881
 21
23.48069
  0
LINE
  8
型材断面
  6
CONTINUOUS
 10
-99.502145
 20
23.48069
 11
-116.341467
 21
23.480677
  0
LINE
  8
型材断面
  6
CONTINUOUS
 10
-25.99381
 20
42.147322
 11
-62.060475
 21
42.147348
  0
LINE
  8
型材断面
  6
CONTINUOUS
 10
-25.99381
 20
23.480743
 11
-62.060475
 21
23.480717
  0
LINE
  8
型材断面
  6
CONTINUOUS
 10
-25.577142
 20
44.647325
 11
-118.84147
 21
44.647387
  0
LINE
  8
型材断面
  6
CONTINUOUS
 10
-25.577142
 20
20.98074
 11
-118.84147
 21
20.980677
  0
LINE
  8
型材断面
  6
CONTINUOUS
 10
68.352863
 20
-77.192947
 11
68.352863
 21
-77.529612
  0
LINE
  8
型材断面
  6
CONTINUOUS
 10
68.656195
 20
-73.096397
 11
68.852863
 21
-73.293065
  0
LINE
  8
型材断面
  6
CONTINUOUS
 10
68.852863
 20
-73.293065
 11
68.852863
 21
-77.192947
  0
LINE
  8
型材断面
  6
CONTINUOUS
 10
163.122792
 20
45.077223
 11
163.459457
 21
45.077223
  0
LINE
  8
型材断面
  6
CONTINUOUS
 10
159.026243
 20
45.380555
 11
159.22291
 21
45.577223
  0
LINE
  8
型材断面
  6
CONTINUOUS
 10
159.22291
 20
45.577223
 11
163.122792
 21
45.577223
  0
LINE
  8
型材断面
  6
CONTINUOUS
 62
    47
 10
159.026288
 20
45.380597
 11
159.026288
 21
32.814033
  0
LINE
  8
型材断面
  6
CONTINUOUS
 10
159.22291
 20
45.577223
 11
159.22291
 21
32.814033
  0
LINE
  8
型材断面
  6
CONTINUOUS
 10
163.459457
 20
45.077223
 11
163.459457
 21
32.814033
  0
LINE
  8
型材断面
  6
CONTINUOUS
 10
163.122792
 20
45.577223
 11
163.122792
 21
32.814033
  0
LINE
  8
型材断面
  6
CONTINUOUS
 10
163.122792
 20
20.550842
 11
163.459457
 21
20.550842
  0
LINE
  8
型材断面
  6
CONTINUOUS
 10
159.026243
 20
20.24751
 11
159.22291
 21
20.050842
  0
LINE
  8
型材断面
  6
CONTINUOUS
 10
159.22291
 20
20.050842
 11
163.122792
 21
20.050842
  0
LINE
  8
型材断面
  6
CONTINUOUS
 62
    47
 10
159.026288
 20
20.247467
 11
159.026288
 21
32.814033
  0
LINE
  8
型材断面
  6
CONTINUOUS
 10
159.22291
 20
20.050842
 11
159.22291
 21
32.814033
  0
LINE
  8
型材断面
  6
CONTINUOUS
 10
163.459457
 20
20.550842
 11
163.459457
 21
32.814033
  0
LINE
  8
型材断面
  6
CONTINUOUS
 10
163.122792
 20
20.050842
 11
163.122792
 21
32.814033
  0
LINE
  8
型材断面
  6
CONTINUOUS
 62
    47
 10
68.656237
 20
-73.096443
 11
-25.577142
 21
-73.096443
  0
LINE
  8
型材断面
  6
CONTINUOUS
 10
68.852863
 20
-73.293065
 11
-25.577142
 21
-73.293065
  0
LINE
  8
型材断面
  6
CONTINUOUS
 10
68.852863
 20
-77.192947
 11
-25.577142
 21
-77.192947
  0
LINE
  8
型材断面
  6
CONTINUOUS
 10
68.352863
 20
-77.529612
 11
-25.577142
 21
-77.529612
  0
LINE
  8
型材断面
  6
CONTINUOUS
 10
-119.507147
 20
-77.192947
 11
-119.507147
 21
-77.529612
  0
LINE
  8
型材断面
  6
CONTINUOUS
 10
-119.81048
 20
-73.096397
 11
-120.007147
 21
-73.293065
  0
LINE
  8
型材断面
  6
CONTINUOUS
 10
-120.007147
 20
-73.293065
 11
-120.007147
 21
-77.192947
  0
LINE
  8
型材断面
  6
CONTINUOUS
 62
    47
 10
-119.810523
 20
-73.096443
 11
-25.577142
 21
-73.096443
  0
LINE
  8
型材断面
  6
CONTINUOUS
 10
-120.007147
 20
-73.293065
 11
-25.577142
 21
-73.293065
  0
LINE
  8
型材断面
  6
CONTINUOUS
 10
-120.007147
 20
-77.192947
 11
-25.577142
 21
-77.192947
  0
LINE
  8
型材断面
  6
CONTINUOUS
 10
-119.507147
 20
-77.529612
 11
-25.577142
 21
-77.529612
  0
TEXT
  7
TextStyle03
  8
文字
  6
CONTINUOUS
 10
-33.175
 20
9.325
  1
可動装置側
 40
3.0
 72
     5
 11
-16.675
 21
9.325
  0
TEXT
  7
TextStyle03
  8
文字
  6
CONTINUOUS
 10
-33.175
 20
53.3
  1
可動装置側
 40
3.0
 72
     5
 11
-16.675
 21
53.3
  0
TEXT
  7
TextStyle03
  8
文字
  6
CONTINUOUS
 10
-155.275
 20
79.425
  1
はケーシング位置を示す
 40
3.0
 72
     5
 11
-118.525
 21
79.425
  0
TEXT
  7
TextStyle03
  8
文字
  6
CONTINUOUS
 10
-155.275
 20
76.05
  1
４ヶ所中1ヶ所に設定
 40
3.0
 72
     5
 11
-123.5875
 21
76.05
  0
TEXT
  7
TextStyle03
  8
文字
  6
CONTINUOUS
 10
-155.275
 20
84.95
  1
は排水穴位置を示す
 40
3.0
 72
     5
 11
-125.275
 21
84.95
  0
TEXT
  7
TextStyle03
  8
文字
  6
CONTINUOUS
 10
-138.3
 20
11.275
  1
アンカーピッチ
 40
3.0
 50
90.0
 72
     5
 11
-138.3
 21
34.525
  0
TEXT
  7
TextStyle03
  8
文字
  6
CONTINUOUS
 10
-103.2
 20
79.225
  1
アンカーピッチ
 40
3.0
 72
     5
 11
-79.95
 21
79.225
  0
TEXT
  7
TextStyle03
  8
文字
  6
CONTINUOUS
 10
-159.0
 20
70.075
  1
アンカー数量　１８ヶ所
 40
3.0
 72
     5
 11
-122.25
 21
70.075
  0
TEXT
  7
TextStyle03
  8
文字
  6
CONTINUOUS
 10
-159.075
 20
64.3
  1
アームユニット数　４～６ヶ所
 40
3.0
 72
     5
 11
-112.2
 21
64.3
  0
TEXT
  7
TextStyle03
  8
文字
  6
CONTINUOUS
 10
-164.0
 20
59.35
  1
※重量に依るのでご相談ください
 40
3.0
 72
     5
 11
-113.75
 21
59.35
  0
LINE
  8
文字
  6
CONTINUOUS
 10
-120.007147
 20
-70.743062
 11
-120.007147
 21
-12.609317
  0
LINE
  8
文字
  6
CONTINUOUS
 10
68.85286
 20
-70.743062
 11
68.85286
 21
-12.609317
  0
LINE
  8
文字
  6
CONTINUOUS
 10
85.266347
 20
-69.076395
 11
71.662667
 21
-69.076395
  0
LINE
  8
文字
  6
CONTINUOUS
 10
85.266347
 20
-61.743062
 11
71.662667
 21
-61.743062
  0
LINE
  8
文字
  6
CONTINUOUS
 10
157.218553
 20
45.57722
 11
100.109175
 21
45.57722
  0
LINE
  8
文字
  6
CONTINUOUS
 10
157.218553
 20
20.050848
 11
100.109175
 21
20.050848
  0
LINE
  8
文字
  6
CONTINUOUS
 10
155.00624
 20
51.815152
 11
155.00624
 21
46.90238
  0
LINE
  8
文字
  6
CONTINUOUS
 10
147.672907
 20
51.815152
 11
147.672907
 21
46.90238
  0
LINE
  8
文字
  6
CONTINUOUS
 10
161.17608
 20
-55.52427
 11
161.17608
 21
-62.8
  0
LINE
  8
文字
  6
CONTINUOUS
 10
125.442748
 20
-55.52427
 11
125.442748
 21
-62.8
  0
TEXT
  7
TextStyle03
  8
文字
  6
CONTINUOUS
 10
142.625
 20
-77.375
  1
網入り6.8t
 40
3.0
 72
     5
 11
159.3125
 21
-77.375
  0
TEXT
  7
TextStyle03
  8
文字
  6
CONTINUOUS
 10
149.3
 20
-82.05
  1
×５枚
 40
3.0
 72
     5
 11
159.05
 21
-82.05
  0
TEXT
  7
TextStyle03
  8
文字
  6
CONTINUOUS
 10
62.825
 20
125.25
  1
シリーズ：ＴＦＦＬ
 40
5.0
 72
     5
 11
112.825
 21
125.25
  0
TEXT
  7
TextStyle03
  8
文字
  6
CONTINUOUS
 10
62.825
 20
119.625
  1
　　　　　（上下可動）600×5500タイプ
 40
5.0
 72
     5
 11
166.2625
 21
119.625
  0
TEXT
  7
TextStyle03
  8
文字
  6
CONTINUOUS
 10
62.825
 20
114.0
  1
図面名　：外観姿図
 40
5.0
 72
     5
 11
112.825
 21
114.0
  0
TEXT
  7
TextStyle03
  8
文字
  6
CONTINUOUS
 10
62.825
 20
108.375
  1
　　　　　　
 40
5.0
 72
     5
 11
95.95
 21
108.375
  0
TEXT
  7
TextStyle03
  8
文字
  6
CONTINUOUS
 10
62.975
 20
104.525
  1
ＮＳコード：ＮＳＦＬ
 40
5.0
 72
     5
 11
118.6
 21
104.525
  0
INSERT
  2
*DIM_0002
  8
寸法
  6
CONTINUOUS
 10
0.0
 20
0.0
  0
INSERT
  2
*DIM_0003
  8
寸法
  6
CONTINUOUS
 10
0.0
 20
0.0
  0
INSERT
  2
*DIM_0004
  8
寸法
  6
CONTINUOUS
 10
0.0
 20
0.0
  0
INSERT
  2
*DIM_0005
  8
寸法
  6
CONTINUOUS
 10
0.0
 20
0.0
  0
INSERT
  2
*DIM_0006
  8
寸法
  6
CONTINUOUS
 10
0.0
 20
0.0
  0
INSERT
  2
*DIM_0007
  8
寸法
  6
CONTINUOUS
 10
0.0
 20
0.0
  0
INSERT
  2
*DIM_0008
  8
寸法
  6
CONTINUOUS
 10
0.0
 20
0.0
  0
INSERT
  2
*DIM_0009
  8
寸法
  6
CONTINUOUS
 10
0.0
 20
0.0
  0
INSERT
  2
*DIM_0010
  8
寸法
  6
CONTINUOUS
 10
0.0
 20
0.0
  0
INSERT
  2
*DIM_0011
  8
寸法
  6
CONTINUOUS
 10
0.0
 20
0.0
  0
INSERT
  2
*DIM_0012
  8
寸法
  6
CONTINUOUS
 10
0.0
 20
0.0
  0
INSERT
  2
*DIM_0013
  8
寸法
  6
CONTINUOUS
 10
0.0
 20
0.0
  0
INSERT
  2
*DIM_0014
  8
寸法
  6
CONTINUOUS
 10
0.0
 20
0.0
  0
INSERT
  2
*DIM_0015
  8
寸法
  6
CONTINUOUS
 10
0.0
 20
0.0
  0
INSERT
  2
*DIM_0017
  8
寸法
  6
CONTINUOUS
 10
0.0
 20
0.0
  0
INSERT
  2
*DIM_0018
  8
寸法
  6
CONTINUOUS
 10
0.0
 20
0.0
  0
INSERT
  2
*DIM_0019
  8
寸法
  6
CONTINUOUS
 10
0.0
 20
0.0
  0
INSERT
  2
*DIM_0026
  8
寸法
  6
CONTINUOUS
 10
0.0
 20
0.0
  0
INSERT
  2
*DIM_0027
  8
寸法
  6
CONTINUOUS
 10
0.0
 20
0.0
  0
INSERT
  2
*DIM_0028
  8
寸法
  6
CONTINUOUS
 10
0.0
 20
0.0
  0
INSERT
  2
*DIM_0029
  8
寸法
  6
CONTINUOUS
 10
0.0
 20
0.0
  0
INSERT
  2
*DIM_0030
  8
寸法
  6
CONTINUOUS
 10
0.0
 20
0.0
  0
INSERT
  2
*DIM_0031
  8
寸法
  6
CONTINUOUS
 10
0.0
 20
0.0
  0
LINE
  8
別途部材
  6
CONTINUOUS
 62
    47
 10
-119.07715
 20
-69.176395
 11
-119.07715
 21
-69.243062
  0
ARC
  8
別途部材
  6
CONTINUOUS
 62
    47
 10
-118.977146
 20
-69.176395
 40
0.1
 50
90.0
 51
180.0
  0
LINE
  8
別途部材
  6
CONTINUOUS
 62
    47
 10
-118.920627
 20
-69.243062
 11
-118.920627
 21
-70.743062
  0
LINE
  8
別途部材
  6
DOT
 62
    47
 10
-119.07715
 20
-61.843062
 11
-119.07715
 21
-61.90973
  0
ARC
  8
別途部材
  6
DOT
 62
    47
 10
-118.977146
 20
-61.843061
 40
0.1
 50
90.0
 51
180.0
  0
LINE
  8
別途部材
  6
DOT
 62
    47
 10
-118.920627
 20
-61.90973
 11
-118.920627
 21
-63.40973
  0
LINE
  8
別途部材
  6
CONTINUOUS
 62
    47
 10
67.922862
 20
-69.176395
 11
67.922862
 21
-69.243062
  0
ARC
  8
別途部材
  6
CONTINUOUS
 62
    47
 10
67.822857
 20
-69.176395
 40
0.1
 50
0.0
 51
90.0
  0
LINE
  8
別途部材
  6
CONTINUOUS
 62
    47
 10
67.76634
 20
-69.243062
 11
67.76634
 21
-70.743062
  0
LINE
  8
別途部材
  6
DOT
 62
    47
 10
67.922862
 20
-61.843062
 11
67.922862
 21
-61.90973
  0
ARC
  8
別途部材
  6
DOT
 62
    47
 10
67.822857
 20
-61.843061
 40
0.1
 50
0.0
 51
90.0
  0
LINE
  8
別途部材
  6
DOT
 62
    47
 10
67.76634
 20
-61.90973
 11
67.76634
 21
-63.40973
  0
LINE
  8
別途部材
  6
DOT
 62
    47
 10
-120.007147
 20
-64.559732
 11
-25.577142
 21
-64.559732
  0
LINE
  8
別途部材
  6
DOT
 62
    47
 10
-118.920627
 20
-63.40973
 11
-25.577142
 21
-63.40973
  0
LINE
  8
別途部材
  6
DOT
 62
    47
 10
-118.97715
 20
-61.743062
 11
-25.577142
 21
-61.743062
  0
LINE
  8
別途部材
  6
DOT
 62
    47
 10
-119.07715
 20
-61.90973
 11
-25.577142
 21
-61.90973
  0
LINE
  8
別途部材
  6
DOT
 62
    47
 10
-120.007147
 20
-65.726397
 11
-25.577142
 21
-65.726397
  0
LINE
  8
別途部材
  6
CONTINUOUS
 62
    47
 10
-118.97715
 20
-69.076395
 11
-25.577142
 21
-69.076395
  0
LINE
  8
別途部材
  6
CONTINUOUS
 62
    47
 10
-119.07715
 20
-69.243062
 11
-25.577142
 21
-69.243062
  0
LINE
  8
別途部材
  6
CONTINUOUS
 62
    47
 10
-118.920627
 20
-70.743062
 11
-25.577142
 21
-70.743062
  0
LINE
  8
別途部材
  6
CONTINUOUS
 62
    47
 10
-120.007147
 20
-71.893065
 11
-25.577142
 21
-71.893065
  0
LINE
  8
別途部材
  6
CONTINUOUS
 62
    47
 10
-120.007147
 20
-73.05973
 11
-25.577142
 21
-73.05973
  0
LINE
  8
別途部材
  6
CONTINUOUS
 62
    47
 10
68.85286
 20
-73.05973
 11
-25.577142
 21
-73.05973
  0
LINE
  8
別途部材
  6
CONTINUOUS
 62
    47
 10
68.85286
 20
-71.893065
 11
-25.577142
 21
-71.893065
  0
LINE
  8
別途部材
  6
CONTINUOUS
 62
    47
 10
67.76634
 20
-70.743062
 11
-25.577142
 21
-70.743062
  0
LINE
  8
別途部材
  6
CONTINUOUS
 62
    47
 10
67.822862
 20
-69.076395
 11
-25.577142
 21
-69.076395
  0
LINE
  8
別途部材
  6
CONTINUOUS
 62
    47
 10
67.922862
 20
-69.243062
 11
-25.577142
 21
-69.243062
  0
LINE
  8
別途部材
  6
DOT
 62
    47
 10
67.76634
 20
-63.40973
 11
-25.577142
 21
-63.40973
  0
LINE
  8
別途部材
  6
DOT
 62
    47
 10
68.85286
 20
-64.559732
 11
-25.577142
 21
-64.559732
  0
LINE
  8
別途部材
  6
DOT
 62
    47
 10
68.85286
 20
-65.726397
 11
-25.577142
 21
-65.726397
  0
LINE
  8
別途部材
  6
DOT
 62
    47
 10
67.922862
 20
-61.90973
 11
-25.577142
 21
-61.90973
  0
LINE
  8
別途部材
  6
DOT
 62
    47
 10
67.822862
 20
-61.743062
 11
-25.577142
 21
-61.743062
  0
LINE
  8
別途部材
  6
CONTINUOUS
 62
    47
 10
155.10624
 20
20.980845
 11
155.172907
 21
20.980845
  0
ARC
  8
別途部材
  6
CONTINUOUS
 62
    47
 10
155.106242
 20
21.080846
 40
0.1
 50
180.0
 51
270.0
  0
LINE
  8
別途部材
  6
CONTINUOUS
 62
    47
 10
155.172907
 20
21.137368
 11
156.672907
 21
21.137368
  0
LINE
  8
別途部材
  6
CONTINUOUS
 62
    47
 10
158.989575
 20
20.050848
 11
158.989575
 21
32.814033
  0
LINE
  8
別途部材
  6
CONTINUOUS
 62
    47
 10
157.82291
 20
20.050848
 11
157.82291
 21
32.814033
  0
LINE
  8
別途部材
  6
CONTINUOUS
 62
    47
 10
156.672907
 20
21.137368
 11
156.672907
 21
32.814033
  0
LINE
  8
別途部材
  6
CONTINUOUS
 62
    47
 10
155.172907
 20
20.980845
 11
155.172907
 21
32.814033
  0
LINE
  8
別途部材
  6
CONTINUOUS
 62
    47
 10
155.00624
 20
21.080845
 11
155.00624
 21
32.814033
  0
LINE
  8
別途部材
  6
CONTINUOUS
 62
    47
 10
155.10624
 20
44.647222
 11
155.172907
 21
44.647222
  0
ARC
  8
別途部材
  6
CONTINUOUS
 62
    47
 10
155.106242
 20
44.547222
 40
0.1
 50
90.0
 51
180.0
  0
LINE
  8
別途部材
  6
CONTINUOUS
 62
    47
 10
155.172907
 20
44.4907
 11
156.672907
 21
44.4907
  0
LINE
  8
別途部材
  6
CONTINUOUS
 62
    47
 10
158.989575
 20
45.57722
 11
158.989575
 21
32.814033
  0
LINE
  8
別途部材
  6
CONTINUOUS
 62
    47
 10
157.82291
 20
45.57722
 11
157.82291
 21
32.814033
  0
LINE
  8
別途部材
  6
CONTINUOUS
 62
    47
 10
156.672907
 20
44.4907
 11
156.672907
 21
32.814033
  0
LINE
  8
別途部材
  6
CONTINUOUS
 62
    47
 10
155.172907
 20
44.647222
 11
155.172907
 21
32.814033
  0
LINE
  8
別途部材
  6
CONTINUOUS
 62
    47
 10
155.00624
 20
44.547222
 11
155.00624
 21
32.814033
  0
LINE
  8
別途部材
  6
CONTINUOUS
 10
125.442748
 20
-63.785395
 11
125.442748
 21
-83.785395
  0
LINE
  8
曲げ物
  6
CONTINUOUS
 10
50.815255
 20
34.739582
 11
47.119943
 21
31.04427
  0
LINE
  8
曲げ物
  6
CONTINUOUS
 10
50.111785
 20
33.203472
 11
48.656055
 21
31.747742
  0
LINE
  8
曲げ物
  6
CONTINUOUS
 10
49.279145
 20
34.036112
 11
47.823415
 21
32.580383
  0
LINE
  8
曲げ物
  6
CONTINUOUS
 10
13.136292
 20
34.739582
 11
9.44098
 21
31.04427
  0
LINE
  8
曲げ物
  6
CONTINUOUS
 10
12.432822
 20
33.203472
 11
10.977093
 21
31.747742
  0
LINE
  8
曲げ物
  6
CONTINUOUS
 10
11.600182
 20
34.036112
 11
10.144453
 21
32.580383
  0
LINE
  8
曲げ物
  6
CONTINUOUS
 10
-23.613707
 20
34.739582
 11
-27.30902
 21
31.04427
  0
LINE
  8
曲げ物
  6
CONTINUOUS
 10
-24.317177
 20
33.203472
 11
-25.772908
 21
31.747742
  0
LINE
  8
曲げ物
  6
CONTINUOUS
 10
-25.149817
 20
34.036112
 11
-26.605548
 21
32.580383
  0
LINE
  8
曲げ物
  6
CONTINUOUS
 10
-59.20689
 20
34.739582
 11
-62.902203
 21
31.04427
  0
LINE
  8
曲げ物
  6
CONTINUOUS
 10
-59.91036
 20
33.203472
 11
-61.36609
 21
31.747742
  0
LINE
  8
曲げ物
  6
CONTINUOUS
 10
-60.743
 20
34.036112
 11
-62.19873
 21
32.580383
  0
LINE
  8
曲げ物
  6
CONTINUOUS
 10
-97.915222
 20
34.739582
 11
-101.610535
 21
31.04427
  0
LINE
  8
曲げ物
  6
CONTINUOUS
 10
-98.618692
 20
33.203472
 11
-100.074423
 21
31.747742
  0
LINE
  8
曲げ物
  6
CONTINUOUS
 10
-99.451332
 20
34.036112
 11
-100.907063
 21
32.580383
  0
LINE
  8
曲げ物
  6
CONTINUOUS
 10
161.17608
 20
-63.785395
 11
125.442748
 21
-63.785395
  0
LINE
  8
曲げ物
  6
CONTINUOUS
 10
161.17608
 20
-83.785395
 11
125.442748
 21
-83.785395
  0
LINE
  8
曲げ物
  6
CONTINUOUS
 10
161.17608
 20
-63.785395
 11
161.17608
 21
-83.785395
  0
LINE
  8
鉄骨等
  6
CONTINUOUS
 62
    47
 10
-120.007147
 20
-73.05973
 11
-120.007147
 21
-71.893065
  0
LINE
  8
鉄骨等
  6
CONTINUOUS
 62
    47
 10
-120.007147
 20
-71.893065
 11
-118.603963
 21
-70.743065
  0
LINE
  8
鉄骨等
  6
DOT
 62
    47
 10
-120.007147
 20
-65.726397
 11
-120.007147
 21
-64.559732
  0
LINE
  8
鉄骨等
  6
DOT
 62
    47
 10
-120.007147
 20
-64.559732
 11
-118.603963
 21
-63.409732
  0
LINE
  8
鉄骨等
  6
CONTINUOUS
 62
    47
 10
68.85286
 20
-73.05973
 11
68.85286
 21
-71.893065
  0
LINE
  8
鉄骨等
  6
CONTINUOUS
 62
    47
 10
68.85286
 20
-71.893065
 11
67.449675
 21
-70.743065
  0
LINE
  8
鉄骨等
  6
DOT
 62
    47
 10
68.85286
 20
-65.726397
 11
68.85286
 21
-64.559732
  0
LINE
  8
鉄骨等
  6
DOT
 62
    47
 10
68.85286
 20
-64.559732
 11
67.449675
 21
-63.409732
  0
LINE
  8
鉄骨等
  6
CONTINUOUS
 62
    47
 10
158.989575
 20
20.050848
 11
157.82291
 21
20.050848
  0
LINE
  8
鉄骨等
  6
CONTINUOUS
 62
    47
 10
157.82291
 20
20.050848
 11
156.67291
 21
21.454032
  0
LINE
  8
鉄骨等
  6
CONTINUOUS
 62
    47
 10
158.989575
 20
45.57722
 11
157.82291
 21
45.57722
  0
LINE
  8
鉄骨等
  6
CONTINUOUS
 62
    47
 10
157.82291
 20
45.57722
 11
156.67291
 21
44.174033
  0
ENDSEC
  0
EOF
