  0
SECTION
  2
HEADER
  9
$EXTMIN
 10
-210.0
 20
-148.5
  9
$EXTMAX
 10
210.0
 20
148.5
  9
$PDMODE
 70
    32
  9
$PDSIZE
 40
1.5
  9
$LTSCALE
 40
10.0
  0
ENDSEC
  0
SECTION
  2
TABLES
  0
TABLE
  2
LTYPE
 70
    15
  0
LTYPE
  2
CONTINUOUS
 70
    64
  3
実線
 72
    65
 73
     0
 40
0.0
  0
LTYPE
  2
DASHED
 70
    64
  3
破線A
 72
    65
 73
     2
 40
0.6
 49
0.4
 49
-0.2
  0
LTYPE
  2
DASHEDX2
 70
    64
  3
破線B
 72
    65
 73
     2
 40
1.3
 49
0.9
 49
-0.4
  0
LTYPE
  2
DASHDOT
 70
    64
  3
１点鎖線A
 72
    65
 73
     4
 40
0.5375
 49
0.375
 49
-0.05
 49
0.0625
 49
-0.05
  0
LTYPE
  2
DASHDOTX2
 70
    64
  3
１点鎖線B
 72
    65
 73
     4
 40
1.075
 49
0.75
 49
-0.1
 49
0.125
 49
-0.1
  0
LTYPE
  2
DIVIDE2
 70
    64
  3
２点鎖線A
 72
    65
 73
     6
 40
0.5125
 49
0.3
 49
-0.0375
 49
0.05
 49
-0.0375
 49
0.05
 49
-0.0375
  0
LTYPE
  2
DIVIDE
 70
    64
  3
２点鎖線B
 72
    65
 73
     6
 40
1.05
 49
0.55
 49
-0.1
 49
0.1
 49
-0.1
 49
0.1
 49
-0.1
  0
LTYPE
  2
DOT
 70
    64
  3
点線A
 72
    65
 73
     2
 40
0.1125
 49
0.0625
 49
-0.05
  0
LTYPE
  2
DOTX2
 70
    64
  3
点線B
 72
    65
 73
     2
 40
0.275
 49
0.15
 49
-0.125
  0
LTYPE
  2
CONTINUOUS
 70
    64
  3
実線
 72
    65
 73
     0
 40
0.0
  0
LTYPE
  2
CONTINUOUS
 70
    64
  3
実線
 72
    65
 73
     0
 40
0.0
  0
LTYPE
  2
CONTINUOUS
 70
    64
  3
実線
 72
    65
 73
     0
 40
0.0
  0
LTYPE
  2
CONTINUOUS
 70
    64
  3
実線
 72
    65
 73
     0
 40
0.0
  0
LTYPE
  2
CONTINUOUS
 70
    64
  3
実線
 72
    65
 73
     0
 40
0.0
  0
LTYPE
  2
CONTINUOUS
 70
    64
  3
実線
 72
    65
 73
     0
 40
0.0
  0
ENDTAB
  0
TABLE
  2
LAYER
 70
    34
  0
LAYER
  2
通り芯
 70
     0
 62
    15
  6
CONTINUOUS
  0
LAYER
  2
補助線
 70
     0
 62
    16
  6
DOT
  0
LAYER
  2
躯体
 70
     0
 62
    31
  6
CONTINUOUS
  0
LAYER
  2
型材
 70
     0
 62
    32
  6
CONTINUOUS
  0
LAYER
  2
型材断面
 70
     0
 62
    47
  6
CONTINUOUS
  0
LAYER
  2
ガラス
 70
     0
 62
    48
  6
CONTINUOUS
  0
LAYER
  2
ゴム等
 70
     0
 62
    63
  6
CONTINUOUS
  0
LAYER
  2
ボルト／ビス
 70
     0
 62
    64
  6
CONTINUOUS
  0
LAYER
  2
文字
 70
     0
 62
    79
  6
CONTINUOUS
  0
LAYER
  2
寸法
 70
     0
 62
    80
  6
CONTINUOUS
  0
LAYER
  2
ﾊｯﾁﾝｸﾞ
 70
     0
 62
    95
  6
CONTINUOUS
  0
LAYER
  2
別途部材
 70
     0
 62
    96
  6
CONTINUOUS
  0
LAYER
  2
曲げ物
 70
     0
 62
   111
  6
CONTINUOUS
  0
LAYER
  2
鉄骨等
 70
     0
 62
   112
  6
CONTINUOUS
  0
LAYER
  2
St
 70
     0
 62
   127
  6
CONTINUOUS
  0
LAYER
  2
その他部品等
 70
     0
 62
   128
  6
CONTINUOUS
  0
LAYER
  2
ｶﾞｽｹｯﾄ
 70
     0
 62
   143
  6
CONTINUOUS
  0
LAYER
  2
ｽｹｯﾁ
 70
     0
 62
    14
  6
CONTINUOUS
  0
LAYER
  2
0
 70
     0
 62
    17
  6
CONTINUOUS
  0
LAYER
  2
1
 70
     0
 62
    30
  6
CONTINUOUS
  0
LAYER
  2
4
 70
     0
 62
    33
  6
CONTINUOUS
  0
LAYER
  2
ﾚｲﾔ3
 70
     0
 62
    46
  6
CONTINUOUS
  0
LAYER
  2
外形線
 70
     0
 62
    49
  6
CONTINUOUS
  0
LAYER
  2
部品
 70
     0
 62
    14
  6
CONTINUOUS
  0
LAYER
  2
サッシ芯
 70
     0
 62
    17
  6
DASHDOTX2
  0
LAYER
  2
寸法線
 70
     0
 62
    62
  6
CONTINUOUS
  0
LAYER
  2
姿図外形線
 70
     0
 62
    65
  6
CONTINUOUS
  0
LAYER
  2
姿補助線
 70
     0
 62
    30
  6
CONTINUOUS
  0
LAYER
  2
透視線
 70
     0
 62
    78
  6
DOT
  0
LAYER
  2
用紙
 70
     0
 62
    81
  6
CONTINUOUS
  0
LAYER
  2
実線図枠
 70
     0
 62
    94
  6
CONTINUOUS
  0
LAYER
  2
補助図枠
 70
     0
 62
    97
  6
CONTINUOUS
  0
LAYER
  2
建具記号
 70
     0
 62
   110
  6
CONTINUOUS
  0
LAYER
  2
補助文字
 70
     0
 62
   113
  6
CONTINUOUS
  0
ENDTAB
  0
TABLE
  2
STYLE
 70
    10
  0
STYLE
  2
STANDARD
 70
     0
 40
1.0
 41
1.0
 42
1.0
 50
0.0
 71
     0
  3
TXT
  4
BIGFONT
  0
STYLE
  2
TATE
 70
     4
 40
1.0
 41
1.0
 42
1.0
 50
0.0
 71
     0
  3
TXT
  4
BIGFONT
  0
STYLE
  2
TextStyle03
 70
     0
 40
1.0
 41
1.0
 42
1.0
 50
0.0
 71
     0
  3
MONOTXT
  4
BIGFONT
  0
STYLE
  2
TextStyle04
 70
     0
 40
1.0
 41
1.0
 42
1.0
 50
0.0
 71
     0
  3
MONOTXT
  4
BIGFONT
  0
STYLE
  2
TextStyle05
 70
     0
 40
1.0
 41
1.0
 42
1.0
 50
0.0
 71
     0
  3
MONOTXT
  4
BIGFONT
  0
STYLE
  2
TextStyle06
 70
     0
 40
1.0
 41
1.0
 42
1.0
 50
0.0
 71
     0
  3
MONOTXT
  4
BIGFONT
  0
STYLE
  2
TextStyle07
 70
     0
 40
1.0
 41
1.0
 42
1.0
 50
0.0
 71
     0
  3
MONOTXT
  4
BIGFONT
  0
STYLE
  2
TextStyle08
 70
     0
 40
1.0
 41
1.0
 42
1.0
 50
0.0
 71
     0
  3
MONOTXT
  4
BIGFONT
  0
STYLE
  2
TextStyle09
 70
     0
 40
1.0
 41
1.0
 42
1.0
 50
0.0
 71
     0
  3
MONOTXT
  4
BIGFONT
  0
STYLE
  2
TextStyle10
 70
     0
 40
1.0
 41
1.0
 42
1.0
 50
0.0
 71
     0
  3
MONOTXT
  4
BIGFONT
  0
ENDTAB
  0
ENDSEC
  0
SECTION
  2
BLOCKS
  0
BLOCK
  2
*GRP_0001
 70
    65
 10
0.0
 20
0.0
  0
LINE
  8
型材断面
  6
CONTINUOUS
 10
195.0
 20
133.5
 11
195.0
 21
-133.5
  0
LINE
  8
型材断面
  6
CONTINUOUS
 10
195.0
 20
-133.5
 11
-185.0
 21
-133.5
  0
LINE
  8
型材断面
  6
CONTINUOUS
 10
-185.0
 20
-133.5
 11
-185.0
 21
133.5
  0
LINE
  8
型材断面
  6
CONTINUOUS
 10
195.0
 20
133.5
 11
-185.0
 21
133.5
  0
LINE
  8
型材断面
  6
CONTINUOUS
 10
145.0
 20
-133.5
 11
145.0
 21
-118.5
  0
LINE
  8
型材断面
  6
CONTINUOUS
 10
195.0
 20
-118.5
 11
145.0
 21
-118.5
  0
ENDBLK
  0
BLOCK
  2
*DIM_0002
 70
    65
 10
0.0
 20
0.0
  0
LINE
  8
寸法
  6
BYBLOCK
 62
     0
 10
-28.596933
 20
19.183902
 11
-28.596933
 21
13.85658
  0
LINE
  8
寸法
  6
BYBLOCK
 62
     0
 10
4.736403
 20
19.183902
 11
4.736403
 21
13.85658
  0
LINE
  8
寸法
  6
BYBLOCK
 62
     0
 10
-28.596933
 20
13.85658
 11
4.736403
 21
13.85658
  0
POINT
  8
寸法
 62
     0
 10
-28.596933
 20
13.85658
  0
POINT
  8
寸法
 62
     0
 10
4.736403
 20
13.85658
  0
TEXT
  7
TextStyle03
  8
寸法
  6
CONTINUOUS
 62
     0
 10
-15.23125
 20
14.225
  1
1000
 40
3.0
 72
     5
 11
-8.66875
 21
14.225
  0
ENDBLK
  0
BLOCK
  2
*DIM_0003
 70
    65
 10
0.0
 20
0.0
  0
LINE
  8
寸法
  6
BYBLOCK
 62
     0
 10
22.403067
 20
52.814035
 11
32.12735
 21
52.814035
  0
LINE
  8
寸法
  6
BYBLOCK
 62
     0
 10
25.033197
 20
49.114035
 11
32.12735
 21
49.114035
  0
LINE
  8
寸法
  6
BYBLOCK
 62
     0
 10
32.12735
 20
52.814035
 11
32.12735
 21
49.114035
  0
POINT
  8
寸法
 62
     0
 10
32.12735
 20
52.814035
  0
POINT
  8
寸法
 62
     0
 10
32.12735
 20
49.114035
  0
TEXT
  7
TextStyle03
  8
寸法
  6
CONTINUOUS
 62
     0
 10
31.8
 20
53.8125
  1
111
 40
3.0
 50
90.0
 72
     5
 11
31.8
 21
58.6875
  0
ENDBLK
  0
BLOCK
  2
*DIM_0004
 70
    65
 10
0.0
 20
0.0
  0
LINE
  8
寸法
  6
BYBLOCK
 62
     0
 10
22.403067
 20
22.81403
 11
32.12735
 21
22.814027
  0
LINE
  8
寸法
  6
BYBLOCK
 62
     0
 10
25.033197
 20
26.51403
 11
32.12735
 21
26.514027
  0
LINE
  8
寸法
  6
BYBLOCK
 62
     0
 10
32.12735
 20
22.814027
 11
32.12735
 21
26.514027
  0
POINT
  8
寸法
 62
     0
 10
32.12735
 20
22.814027
  0
POINT
  8
寸法
 62
     0
 10
32.12735
 20
26.514027
  0
TEXT
  7
TextStyle03
  8
寸法
  6
CONTINUOUS
 62
     0
 10
31.8
 20
16.9375
  1
111
 40
3.0
 50
90.0
 72
     5
 11
31.8
 21
21.8125
  0
ENDBLK
  0
BLOCK
  2
*DIM_0005
 70
    65
 10
0.0
 20
0.0
  0
LINE
  8
寸法
  6
BYBLOCK
 62
     0
 10
-48.2636
 20
47.814033
 11
-61.556437
 21
47.814033
  0
LINE
  8
寸法
  6
BYBLOCK
 62
     0
 10
-48.2636
 20
27.814033
 11
-61.556437
 21
27.814033
  0
LINE
  8
寸法
  6
BYBLOCK
 62
     0
 10
-61.556437
 20
47.814033
 11
-61.556437
 21
27.814033
  0
POINT
  8
寸法
 62
     0
 10
-61.556437
 20
47.814033
  0
POINT
  8
寸法
 62
     0
 10
-61.556437
 20
27.814033
  0
TEXT
  7
TextStyle03
  8
寸法
  6
CONTINUOUS
 62
     0
 10
-61.95
 20
35.3625
  1
600
 40
3.0
 50
90.0
 72
     5
 11
-61.95
 21
40.2375
  0
ENDBLK
  0
BLOCK
  2
*DIM_0006
 70
    65
 10
0.0
 20
0.0
  0
LINE
  8
寸法
  6
BYBLOCK
 62
     0
 10
-35.263598
 20
55.814033
 11
-35.263598
 21
84.741653
  0
LINE
  8
寸法
  6
BYBLOCK
 62
     0
 10
-11.930265
 20
55.814033
 11
-11.930265
 21
84.741653
  0
LINE
  8
寸法
  6
BYBLOCK
 62
     0
 10
-35.263598
 20
84.741653
 11
-11.930265
 21
84.741653
  0
POINT
  8
寸法
 62
     0
 10
-35.263598
 20
84.741653
  0
POINT
  8
寸法
 62
     0
 10
-11.930265
 20
84.741653
  0
TEXT
  7
TextStyle03
  8
寸法
  6
CONTINUOUS
 62
     0
 10
-26.0375
 20
85.125
  1
700
 40
3.0
 72
     5
 11
-21.1625
 21
85.125
  0
ENDBLK
  0
BLOCK
  2
*DIM_0007
 70
    65
 10
0.0
 20
0.0
  0
LINE
  8
寸法
  6
BYBLOCK
 62
     0
 10
11.403067
 20
55.814033
 11
11.403067
 21
84.741653
  0
LINE
  8
寸法
  6
BYBLOCK
 62
     0
 10
-11.930265
 20
84.741653
 11
11.403067
 21
84.741653
  0
POINT
  8
寸法
 62
     0
 10
11.403067
 20
84.741653
  0
TEXT
  7
TextStyle03
  8
寸法
  6
CONTINUOUS
 62
     0
 10
-2.7125
 20
85.125
  1
700
 40
3.0
 72
     5
 11
2.1625
 21
85.125
  0
ENDBLK
  0
BLOCK
  2
*DIM_0008
 70
    65
 10
0.0
 20
0.0
  0
LINE
  8
寸法
  6
BYBLOCK
 62
     0
 10
-45.2636
 20
-15.999145
 11
-45.2636
 21
-12.609317
  0
LINE
  8
寸法
  6
BYBLOCK
 62
     0
 10
21.403067
 20
-12.609317
 11
-45.2636
 21
-12.609317
  0
POINT
  8
寸法
 62
     0
 10
21.403067
 20
-12.609317
  0
POINT
  8
寸法
 62
     0
 10
-45.2636
 20
-12.609317
  0
TEXT
  7
TextStyle03
  8
寸法
  6
CONTINUOUS
 62
     0
 10
-23.66875
 20
-12.25
  1
呼称寸法　2000
 40
3.0
 72
     5
 11
-0.23125
 21
-12.25
  0
ENDBLK
  0
BLOCK
  2
*DIM_0009
 70
    65
 10
0.0
 20
0.0
  0
LINE
  8
寸法
  6
CONTINUOUS
 10
-45.2636
 20
-12.609317
 11
-48.026933
 21
-12.609317
  0
POINT
  8
寸法
 10
-45.2636
 20
-12.609317
  0
POINT
  8
寸法
 10
-48.026933
 20
-12.609317
  0
TEXT
  7
TextStyle03
  8
寸法
  6
CONTINUOUS
 10
-52.63125
 20
-11.725
  1
82.9
 40
3.0
 72
     5
 11
-46.06875
 21
-11.725
  0
ENDBLK
  0
BLOCK
  2
*DIM_0010
 70
    65
 10
0.0
 20
0.0
  0
LINE
  8
寸法
  6
CONTINUOUS
 10
24.166403
 20
-12.609317
 11
21.403067
 21
-12.609317
  0
POINT
  8
寸法
 10
24.166403
 20
-12.609317
  0
POINT
  8
寸法
 10
21.403067
 20
-12.609317
  0
TEXT
  7
TextStyle03
  8
寸法
  6
CONTINUOUS
 10
22.49375
 20
-11.775
  1
82.9
 40
3.0
 72
     5
 11
29.05625
 21
-11.775
  0
ENDBLK
  0
BLOCK
  2
*DIM_0011
 70
    65
 10
0.0
 20
0.0
  0
LINE
  8
寸法
  6
CONTINUOUS
 10
55.422717
 20
55.577218
 11
55.422717
 21
52.814033
  0
POINT
  8
寸法
 10
55.422717
 20
55.577218
  0
POINT
  8
寸法
 10
55.422717
 20
52.814033
  0
TEXT
  7
TextStyle03
  8
寸法
  6
CONTINUOUS
 10
56.825
 20
56.64375
  1
82.9
 40
3.0
 50
90.0
 72
     5
 11
56.825
 21
63.20625
  0
ENDBLK
  0
BLOCK
  2
*DIM_0012
 70
    65
 10
0.0
 20
0.0
  0
LINE
  8
寸法
  6
CONTINUOUS
 10
55.422717
 20
22.814033
 11
55.422717
 21
20.050845
  0
POINT
  8
寸法
 10
55.422717
 20
22.814033
  0
POINT
  8
寸法
 10
55.422717
 20
20.050845
  0
TEXT
  7
TextStyle03
  8
寸法
  6
CONTINUOUS
 10
56.825
 20
12.41875
  1
82.9
 40
3.0
 50
90.0
 72
     5
 11
56.825
 21
18.98125
  0
ENDBLK
  0
BLOCK
  2
*DIM_0013
 70
    65
 10
0.0
 20
0.0
  0
LINE
  8
寸法
  6
CONTINUOUS
 10
55.422717
 20
52.814033
 11
55.422717
 21
22.814033
  0
POINT
  8
寸法
 10
55.422717
 20
52.814033
  0
POINT
  8
寸法
 10
55.422717
 20
22.814033
  0
TEXT
  7
TextStyle03
  8
寸法
  6
CONTINUOUS
 10
55.025
 20
26.925
  1
呼称寸法　900
 40
3.0
 50
90.0
 72
     5
 11
55.025
 21
48.675
  0
ENDBLK
  0
BLOCK
  2
*DIM_0014
 70
    65
 10
0.0
 20
0.0
  0
LINE
  8
寸法
  6
CONTINUOUS
 10
116.489623
 20
-44.119285
 11
83.75629
 21
-44.119285
  0
POINT
  8
寸法
 10
116.489623
 20
-44.119285
  0
POINT
  8
寸法
 10
83.75629
 20
-44.119285
  0
TEXT
  7
TextStyle03
  8
寸法
  6
CONTINUOUS
 10
97.6625
 20
-43.775
  1
982
 40
3.0
 72
     5
 11
102.5375
 21
-43.775
  0
ENDBLK
  0
BLOCK
  2
*DIM_0015
 70
    65
 10
0.0
 20
0.0
  0
LINE
  8
寸法
  6
BYBLOCK
 62
     0
 10
40.57989
 20
-59.076395
 11
40.57989
 21
-69.076395
  0
POINT
  8
寸法
 62
     0
 10
40.57989
 20
-59.076395
  0
POINT
  8
寸法
 62
     0
 10
40.57989
 20
-69.076395
  0
TEXT
  7
TextStyle03
  8
寸法
  6
CONTINUOUS
 62
     0
 10
39.775
 20
-56.86875
  1
上昇243以上
 40
3.0
 50
90.0
 72
     5
 11
39.775
 21
-38.68125
  0
ENDBLK
  0
BLOCK
  2
*DIM_0016
 70
    65
 10
0.0
 20
0.0
  0
LINE
  8
寸法
  6
BYBLOCK
 62
     0
 10
110.319782
 20
61.81515
 11
100.319782
 21
61.81515
  0
POINT
  8
寸法
 62
     0
 10
110.319782
 20
61.81515
  0
POINT
  8
寸法
 62
     0
 10
100.319782
 20
61.81515
  0
TEXT
  7
TextStyle03
  8
寸法
  6
CONTINUOUS
 62
     0
 10
78.23125
 20
60.25
  1
上昇243以上
 40
3.0
 72
     5
 11
96.41875
 21
60.25
  0
ENDBLK
  0
BLOCK
  2
*DIM_0017
 70
    65
 10
0.0
 20
0.0
  0
LINE
  8
寸法
  6
CONTINUOUS
 10
121.489623
 20
-53.785395
 11
124.85669
 21
-53.785395
  0
LINE
  8
寸法
  6
CONTINUOUS
 10
121.489623
 20
-83.785395
 11
124.85669
 21
-83.785395
  0
LINE
  8
寸法
  6
CONTINUOUS
 10
124.85669
 20
-53.785395
 11
124.85669
 21
-83.785395
  0
POINT
  8
寸法
 10
124.85669
 20
-53.785395
  0
POINT
  8
寸法
 10
124.85669
 20
-83.785395
  0
TEXT
  7
TextStyle03
  8
寸法
  6
CONTINUOUS
 10
124.475
 20
-71.2375
  1
900
 40
3.0
 50
90.0
 72
     5
 11
124.475
 21
-66.3625
  0
ENDBLK
  0
BLOCK
  2
*DIM_0018
 70
    65
 10
0.0
 20
0.0
  0
LINE
  8
寸法
  6
CONTINUOUS
 10
28.07858
 20
-69.076395
 11
40.57989
 21
-69.076395
  0
LINE
  8
寸法
  6
CONTINUOUS
 10
29.166405
 20
-77.192947
 11
40.57989
 21
-77.192947
  0
LINE
  8
寸法
  6
CONTINUOUS
 10
40.57989
 20
-69.076395
 11
40.57989
 21
-77.192947
  0
POINT
  8
寸法
 10
40.57989
 20
-69.076395
  0
POINT
  8
寸法
 10
40.57989
 20
-77.192947
  0
TEXT
  7
TextStyle03
  8
寸法
  6
CONTINUOUS
 10
43.6
 20
-77.275
  1
243.5
 40
3.0
 50
90.0
 72
     5
 11
43.6
 21
-69.025
  0
ENDBLK
  0
BLOCK
  2
*DIM_0019
 70
    65
 10
0.0
 20
0.0
  0
LINE
  8
寸法
  6
CONTINUOUS
 10
110.319782
 20
57.814033
 11
110.319782
 21
61.81515
  0
LINE
  8
寸法
  6
CONTINUOUS
 10
118.436335
 20
57.814033
 11
118.436335
 21
61.81515
  0
LINE
  8
寸法
  6
CONTINUOUS
 10
110.319782
 20
61.81515
 11
118.436335
 21
61.81515
  0
POINT
  8
寸法
 10
110.319782
 20
61.81515
  0
POINT
  8
寸法
 10
118.436335
 20
61.81515
  0
TEXT
  7
TextStyle03
  8
寸法
  6
CONTINUOUS
 10
110.25
 20
62.175
  1
243.5
 40
3.0
 72
     5
 11
118.5
 21
62.175
  0
ENDBLK
  0
ENDSEC
  0
SECTION
  2
ENTITIES
  0
POLYLINE
  8
通り芯
  6
CONTINUOUS
 66
     1
 70
     1
  0
VERTEX
  8
通り芯
 10
-210.0
 20
-148.5
  0
VERTEX
  8
通り芯
 10
210.0
 20
-148.5
  0
VERTEX
  8
通り芯
 10
210.0
 20
148.5
  0
VERTEX
  8
通り芯
 10
-210.0
 20
148.5
  0
SEQEND
  0
INSERT
  2
*GRP_0001
  8
型材断面
  6
CONTINUOUS
 10
0.0
 20
0.0
  0
LINE
  8
型材断面
  6
DASHDOT
 10
21.403067
 20
-77.836442
 11
21.403067
 21
52.814033
  0
LINE
  8
型材断面
  6
DASHDOT
 10
-11.930265
 20
-77.836442
 11
-11.930265
 21
52.814033
  0
LINE
  8
型材断面
  6
DASHDOT
 10
-45.2636
 20
-77.836442
 11
-45.2636
 21
52.814033
  0
LINE
  8
型材断面
  6
DASHDOT
 10
119.07983
 20
52.814033
 11
-45.2636
 21
52.814033
  0
LINE
  8
型材断面
  6
DASHDOT
 10
119.07983
 20
37.814033
 11
-45.2636
 21
37.814033
  0
LINE
  8
型材断面
  6
DASHDOT
 10
119.07983
 20
22.814033
 11
-45.2636
 21
22.814033
  0
LINE
  8
型材断面
  6
DASHDOT
 10
-11.930265
 20
22.814033
 11
-11.930265
 21
52.814033
  0
POLYLINE
  8
型材断面
  6
CONTINUOUS
 66
     1
 70
     1
  0
VERTEX
  8
型材断面
 10
-2.324078
 20
13.03811
  0
VERTEX
  8
型材断面
 10
-21.096007
 20
13.03811
  0
VERTEX
  8
型材断面
 10
-21.096007
 20
8.301267
  0
VERTEX
  8
型材断面
 10
-2.324078
 20
8.301267
  0
SEQEND
  0
POLYLINE
  8
型材断面
  6
CONTINUOUS
 66
     1
 70
     1
  0
VERTEX
  8
型材断面
 10
-2.324078
 20
62.589955
  0
VERTEX
  8
型材断面
 10
-21.096007
 20
62.589955
  0
VERTEX
  8
型材断面
 10
-21.096007
 20
67.326798
  0
VERTEX
  8
型材断面
 10
-2.324078
 20
67.326798
  0
SEQEND
  0
LINE
  8
型材断面
  6
CONTINUOUS
 10
-99.142122
 20
90.791505
 11
-98.546068
 21
88.200998
  0
LINE
  8
型材断面
  6
CONTINUOUS
 10
-99.142122
 20
90.791505
 11
-99.73818
 21
88.200998
  0
LINE
  8
型材断面
  6
CONTINUOUS
 10
-99.73818
 20
88.200998
 11
-98.546068
 21
88.200998
  0
LINE
  8
型材断面
  6
CONTINUOUS
 10
-105.16471
 20
84.922105
 11
-58.922933
 21
84.922105
  0
LINE
  8
型材断面
  6
CONTINUOUS
 10
-99.142122
 20
97.32138
 11
-100.637752
 21
94.730873
  0
LINE
  8
型材断面
  6
CONTINUOUS
 10
-99.142122
 20
97.32138
 11
-97.646493
 21
94.730873
  0
LINE
  8
型材断面
  6
CONTINUOUS
 10
-97.646493
 20
94.730873
 11
-100.637752
 21
94.730873
  0
LINE
  8
型材断面
  6
CONTINUOUS
 10
-105.16471
 20
93.792277
 11
-58.922933
 21
93.792277
  0
LINE
  8
型材断面
  6
CONTINUOUS
 10
-105.16471
 20
79.134073
 11
-58.922933
 21
79.134073
  0
LINE
  8
型材断面
  6
CONTINUOUS
 10
-105.16471
 20
73.34604
 11
-58.922933
 21
73.34604
  0
LINE
  8
型材断面
  6
CONTINUOUS
 10
-48.026933
 20
55.577218
 11
24.166403
 21
55.577218
  0
LINE
  8
型材断面
  6
CONTINUOUS
 10
24.166403
 20
20.050845
 11
-48.026933
 21
20.050845
  0
LINE
  8
型材断面
  6
CONTINUOUS
 10
-48.026933
 20
37.81403
 11
-50.61744
 21
39.30966
  0
LINE
  8
型材断面
  6
CONTINUOUS
 10
-48.026933
 20
37.81403
 11
-50.61744
 21
36.3184
  0
LINE
  8
型材断面
  6
CONTINUOUS
 10
-50.61744
 20
36.3184
 11
-50.61744
 21
39.30966
  0
LINE
  8
型材断面
  6
CONTINUOUS
 10
-48.02693
 20
49.114033
 11
-50.61744
 21
48.51798
  0
LINE
  8
型材断面
  6
CONTINUOUS
 10
-48.02693
 20
49.114033
 11
-50.617437
 21
49.710093
  0
LINE
  8
型材断面
  6
CONTINUOUS
 10
-50.617437
 20
49.710093
 11
-50.61744
 21
48.51798
  0
LINE
  8
型材断面
  6
CONTINUOUS
 10
-48.02693
 20
26.514027
 11
-50.61744
 21
27.11008
  0
LINE
  8
型材断面
  6
CONTINUOUS
 10
-48.02693
 20
26.514027
 11
-50.617437
 21
25.917967
  0
LINE
  8
型材断面
  6
CONTINUOUS
 10
-50.617437
 20
25.917967
 11
-50.61744
 21
27.11008
  0
LINE
  8
型材断面
  6
CONTINUOUS
 10
-28.596933
 20
55.577218
 11
-30.092562
 21
58.167725
  0
LINE
  8
型材断面
  6
CONTINUOUS
 10
-28.596933
 20
55.577218
 11
-27.101303
 21
58.167725
  0
LINE
  8
型材断面
  6
CONTINUOUS
 10
-27.101303
 20
58.167725
 11
-30.092562
 21
58.167725
  0
LINE
  8
型材断面
  6
CONTINUOUS
 10
4.736403
 20
55.577218
 11
6.232033
 21
58.167725
  0
LINE
  8
型材断面
  6
CONTINUOUS
 10
4.736403
 20
55.577218
 11
3.240772
 21
58.167725
  0
LINE
  8
型材断面
  6
CONTINUOUS
 10
3.240772
 20
58.167725
 11
6.232033
 21
58.167725
  0
LINE
  8
型材断面
  6
CONTINUOUS
 10
24.166403
 20
37.814033
 11
26.75691
 21
39.309663
  0
LINE
  8
型材断面
  6
CONTINUOUS
 10
24.166403
 20
37.814033
 11
26.75691
 21
36.318403
  0
LINE
  8
型材断面
  6
CONTINUOUS
 10
26.75691
 20
36.318403
 11
26.75691
 21
39.309663
  0
LINE
  8
型材断面
  6
CONTINUOUS
 10
24.1664
 20
49.114035
 11
26.75691
 21
48.517982
  0
LINE
  8
型材断面
  6
CONTINUOUS
 10
24.1664
 20
49.114035
 11
26.756907
 21
49.710095
  0
LINE
  8
型材断面
  6
CONTINUOUS
 10
26.756907
 20
49.710095
 11
26.75691
 21
48.517982
  0
LINE
  8
型材断面
  6
CONTINUOUS
 10
24.1664
 20
26.51403
 11
26.75691
 21
27.110082
  0
LINE
  8
型材断面
  6
CONTINUOUS
 10
24.1664
 20
26.51403
 11
26.756907
 21
25.91797
  0
LINE
  8
型材断面
  6
CONTINUOUS
 10
26.756907
 20
25.91797
 11
26.75691
 21
27.110082
  0
LINE
  8
型材断面
  6
CONTINUOUS
 10
-28.596933
 20
20.050845
 11
-30.092562
 21
17.460338
  0
LINE
  8
型材断面
  6
CONTINUOUS
 10
-28.596933
 20
20.050845
 11
-27.101303
 21
17.460338
  0
LINE
  8
型材断面
  6
CONTINUOUS
 10
-27.101303
 20
17.460338
 11
-30.092562
 21
17.460338
  0
LINE
  8
型材断面
  6
CONTINUOUS
 10
4.736403
 20
20.050845
 11
6.232033
 21
17.460338
  0
LINE
  8
型材断面
  6
CONTINUOUS
 10
4.736403
 20
20.050845
 11
3.240772
 21
17.460338
  0
LINE
  8
型材断面
  6
CONTINUOUS
 10
3.240772
 20
17.460338
 11
6.232033
 21
17.460338
  0
LINE
  8
型材断面
  6
CONTINUOUS
 10
-10.680265
 20
24.314035
 11
-13.180265
 21
24.314035
  0
LINE
  8
型材断面
  6
CONTINUOUS
 10
-10.680265
 20
24.314035
 11
-10.680265
 21
51.31403
  0
LINE
  8
型材断面
  6
CONTINUOUS
 10
-10.680265
 20
51.31403
 11
-13.180265
 21
51.31403
  0
LINE
  8
型材断面
  6
CONTINUOUS
 10
-13.180265
 20
24.314035
 11
-13.180265
 21
51.31403
  0
LINE
  8
型材断面
  6
CONTINUOUS
 10
24.166405
 20
20.050845
 11
24.166405
 21
55.577218
  0
LINE
  8
型材断面
  6
CONTINUOUS
 10
23.000725
 20
20.980677
 11
23.236425
 21
21.216378
  0
LINE
  8
型材断面
  6
CONTINUOUS
 10
20.500722
 20
23.480677
 11
20.736422
 21
23.716378
  0
LINE
  8
型材断面
  6
CONTINUOUS
 10
20.736422
 20
23.716378
 11
23.236425
 21
21.216378
  0
LINE
  8
型材断面
  6
CONTINUOUS
 10
20.500722
 20
23.480677
 11
23.000725
 21
20.980677
  0
LINE
  8
型材断面
  6
CONTINUOUS
 10
24.166258
 20
20.050845
 11
23.118572
 21
21.098525
  0
LINE
  8
型材断面
  6
CONTINUOUS
 10
23.236403
 20
37.814033
 11
23.236425
 21
21.216378
  0
LINE
  8
型材断面
  6
CONTINUOUS
 10
23.000725
 20
54.647387
 11
23.236425
 21
54.411687
  0
LINE
  8
型材断面
  6
CONTINUOUS
 10
20.736422
 20
51.911687
 11
23.236425
 21
54.411687
  0
LINE
  8
型材断面
  6
CONTINUOUS
 10
24.166258
 20
55.57722
 11
23.118572
 21
54.52954
  0
LINE
  8
型材断面
  6
CONTINUOUS
 10
20.500722
 20
52.147387
 11
20.736422
 21
51.911687
  0
LINE
  8
型材断面
  6
CONTINUOUS
 10
23.236403
 20
37.814033
 11
23.236425
 21
54.411687
  0
LINE
  8
型材断面
  6
CONTINUOUS
 10
20.500722
 20
52.147387
 11
23.000725
 21
54.647387
  0
LINE
  8
型材断面
  6
CONTINUOUS
 10
20.736403
 20
38.2307
 11
23.236403
 21
38.2307
  0
LINE
  8
型材断面
  6
CONTINUOUS
 10
20.736403
 20
37.397365
 11
23.236403
 21
37.397365
  0
LINE
  8
型材断面
  6
CONTINUOUS
 10
20.736403
 20
37.397365
 11
20.736422
 21
23.716378
  0
LINE
  8
型材断面
  6
CONTINUOUS
 10
20.736403
 20
38.2307
 11
20.736422
 21
51.911687
  0
LINE
  8
型材断面
  6
CONTINUOUS
 10
-11.930265
 20
54.64736
 11
23.000725
 21
54.647387
  0
LINE
  8
型材断面
  6
CONTINUOUS
 10
-11.930265
 20
20.980705
 11
23.000725
 21
20.980677
  0
LINE
  8
型材断面
  6
CONTINUOUS
 10
5.15307
 20
23.48069
 11
5.15307
 21
20.980693
  0
LINE
  8
型材断面
  6
CONTINUOUS
 10
4.319735
 20
23.48069
 11
4.319735
 21
20.980693
  0
LINE
  8
型材断面
  6
CONTINUOUS
 10
5.15307
 20
52.147375
 11
5.15307
 21
54.647372
  0
LINE
  8
型材断面
  6
CONTINUOUS
 10
4.319735
 20
52.147375
 11
4.319735
 21
54.647372
  0
LINE
  8
型材断面
  6
CONTINUOUS
 10
-11.930265
 20
52.147363
 11
4.319735
 21
52.147375
  0
LINE
  8
型材断面
  6
CONTINUOUS
 10
5.15307
 20
52.147375
 11
20.500722
 21
52.147387
  0
LINE
  8
型材断面
  6
CONTINUOUS
 10
-11.930265
 20
23.480703
 11
4.319735
 21
23.48069
  0
LINE
  8
型材断面
  6
CONTINUOUS
 10
5.15307
 20
23.48069
 11
20.500722
 21
23.480677
  0
LINE
  8
型材断面
  6
CONTINUOUS
 10
-48.026935
 20
20.050845
 11
-48.026935
 21
55.577218
  0
LINE
  8
型材断面
  6
CONTINUOUS
 10
-46.861255
 20
20.980677
 11
-47.096955
 21
21.216378
  0
LINE
  8
型材断面
  6
CONTINUOUS
 10
-44.361252
 20
23.480677
 11
-44.596953
 21
23.716378
  0
LINE
  8
型材断面
  6
CONTINUOUS
 10
-44.596953
 20
23.716378
 11
-47.096955
 21
21.216378
  0
LINE
  8
型材断面
  6
CONTINUOUS
 10
-44.361252
 20
23.480677
 11
-46.861255
 21
20.980677
  0
LINE
  8
型材断面
  6
CONTINUOUS
 10
-48.026787
 20
20.050845
 11
-46.979103
 21
21.098525
  0
LINE
  8
型材断面
  6
CONTINUOUS
 10
-47.096933
 20
37.814033
 11
-47.096955
 21
21.216378
  0
LINE
  8
型材断面
  6
CONTINUOUS
 10
-46.861255
 20
54.647387
 11
-47.096955
 21
54.411687
  0
LINE
  8
型材断面
  6
CONTINUOUS
 10
-44.596953
 20
51.911687
 11
-47.096955
 21
54.411687
  0
LINE
  8
型材断面
  6
CONTINUOUS
 10
-48.026787
 20
55.57722
 11
-46.979103
 21
54.52954
  0
LINE
  8
型材断面
  6
CONTINUOUS
 10
-44.361252
 20
52.147387
 11
-44.596953
 21
51.911687
  0
LINE
  8
型材断面
  6
CONTINUOUS
 10
-47.096933
 20
37.814033
 11
-47.096955
 21
54.411687
  0
LINE
  8
型材断面
  6
CONTINUOUS
 10
-44.361252
 20
52.147387
 11
-46.861255
 21
54.647387
  0
LINE
  8
型材断面
  6
CONTINUOUS
 10
-44.596933
 20
38.2307
 11
-47.096933
 21
38.2307
  0
LINE
  8
型材断面
  6
CONTINUOUS
 10
-44.596933
 20
37.397365
 11
-47.096933
 21
37.397365
  0
LINE
  8
型材断面
  6
CONTINUOUS
 10
-44.596933
 20
37.397365
 11
-44.596953
 21
23.716378
  0
LINE
  8
型材断面
  6
CONTINUOUS
 10
-44.596933
 20
38.2307
 11
-44.596953
 21
51.911687
  0
LINE
  8
型材断面
  6
CONTINUOUS
 10
-29.0136
 20
23.48069
 11
-29.0136
 21
20.980693
  0
LINE
  8
型材断面
  6
CONTINUOUS
 10
-28.180265
 20
23.48069
 11
-28.180265
 21
20.980693
  0
LINE
  8
型材断面
  6
CONTINUOUS
 10
-29.0136
 20
52.147375
 11
-29.0136
 21
54.647372
  0
LINE
  8
型材断面
  6
CONTINUOUS
 10
-28.180265
 20
52.147375
 11
-28.180265
 21
54.647372
  0
LINE
  8
型材断面
  6
CONTINUOUS
 10
-29.0136
 20
52.147375
 11
-44.361252
 21
52.147387
  0
LINE
  8
型材断面
  6
CONTINUOUS
 10
-29.0136
 20
23.48069
 11
-44.361252
 21
23.480677
  0
LINE
  8
型材断面
  6
CONTINUOUS
 10
-11.930265
 20
23.480703
 11
-28.180265
 21
23.48069
  0
LINE
  8
型材断面
  6
CONTINUOUS
 10
-11.930265
 20
52.147363
 11
-28.180265
 21
52.147375
  0
LINE
  8
型材断面
  6
CONTINUOUS
 10
-11.930265
 20
54.64736
 11
-46.861255
 21
54.647387
  0
LINE
  8
型材断面
  6
CONTINUOUS
 10
-11.930265
 20
20.980705
 11
-46.861255
 21
20.980677
  0
LINE
  8
型材断面
  6
CONTINUOUS
 10
23.666405
 20
-77.192947
 11
23.666405
 21
-77.529612
  0
LINE
  8
型材断面
  6
CONTINUOUS
 10
23.969737
 20
-73.096397
 11
24.166405
 21
-73.293065
  0
LINE
  8
型材断面
  6
CONTINUOUS
 10
24.166405
 20
-73.293065
 11
24.166405
 21
-77.192947
  0
LINE
  8
型材断面
  6
CONTINUOUS
 10
24.166405
 20
-77.192947
 11
-11.930265
 21
-77.192947
  0
LINE
  8
型材断面
  6
CONTINUOUS
 10
23.666405
 20
-77.529612
 11
-11.930265
 21
-77.529612
  0
LINE
  8
型材断面
  6
CONTINUOUS
 62
    47
 10
23.96978
 20
-73.096443
 11
-11.930265
 21
-73.096443
  0
LINE
  8
型材断面
  6
CONTINUOUS
 10
24.166405
 20
-73.293065
 11
-11.930265
 21
-73.293065
  0
LINE
  8
型材断面
  6
CONTINUOUS
 10
118.436335
 20
55.07722
 11
118.773
 21
55.07722
  0
LINE
  8
型材断面
  6
CONTINUOUS
 10
114.339785
 20
55.380552
 11
114.536453
 21
55.57722
  0
LINE
  8
型材断面
  6
CONTINUOUS
 10
114.536453
 20
55.57722
 11
118.436335
 21
55.57722
  0
LINE
  8
型材断面
  6
CONTINUOUS
 10
118.773
 20
55.07722
 11
118.773
 21
37.814033
  0
LINE
  8
型材断面
  6
CONTINUOUS
 10
118.436335
 20
55.57722
 11
118.436335
 21
37.814033
  0
LINE
  8
型材断面
  6
CONTINUOUS
 62
    47
 10
114.33983
 20
55.380595
 11
114.33983
 21
37.814033
  0
LINE
  8
型材断面
  6
CONTINUOUS
 10
114.536453
 20
55.57722
 11
114.536453
 21
37.814033
  0
LINE
  8
型材断面
  6
CONTINUOUS
 10
118.436335
 20
20.550845
 11
118.773
 21
20.550845
  0
LINE
  8
型材断面
  6
CONTINUOUS
 10
114.339785
 20
20.247513
 11
114.536453
 21
20.050845
  0
LINE
  8
型材断面
  6
CONTINUOUS
 10
114.536453
 20
20.050845
 11
118.436335
 21
20.050845
  0
LINE
  8
型材断面
  6
CONTINUOUS
 10
118.773
 20
20.550845
 11
118.773
 21
37.814033
  0
LINE
  8
型材断面
  6
CONTINUOUS
 10
118.436335
 20
20.050845
 11
118.436335
 21
37.814033
  0
LINE
  8
型材断面
  6
CONTINUOUS
 62
    47
 10
114.33983
 20
20.24747
 11
114.33983
 21
37.814033
  0
LINE
  8
型材断面
  6
CONTINUOUS
 10
114.536453
 20
20.050845
 11
114.536453
 21
37.814033
  0
LINE
  8
型材断面
  6
CONTINUOUS
 10
-47.526935
 20
-77.192947
 11
-47.526935
 21
-77.529612
  0
LINE
  8
型材断面
  6
CONTINUOUS
 10
-47.830267
 20
-73.096397
 11
-48.026935
 21
-73.293065
  0
LINE
  8
型材断面
  6
CONTINUOUS
 10
-48.026935
 20
-73.293065
 11
-48.026935
 21
-77.192947
  0
LINE
  8
型材断面
  6
CONTINUOUS
 10
-48.026935
 20
-77.192947
 11
-11.930265
 21
-77.192947
  0
LINE
  8
型材断面
  6
CONTINUOUS
 10
-47.526935
 20
-77.529612
 11
-11.930265
 21
-77.529612
  0
LINE
  8
型材断面
  6
CONTINUOUS
 62
    47
 10
-47.83031
 20
-73.096443
 11
-11.930265
 21
-73.096443
  0
LINE
  8
型材断面
  6
CONTINUOUS
 10
-48.026935
 20
-73.293065
 11
-11.930265
 21
-73.293065
  0
TEXT
  7
TextStyle03
  8
文字
  6
CONTINUOUS
 10
-20.0
 20
9.325
  1
可動装置側
 40
3.0
 72
     5
 11
-3.5
 21
9.325
  0
TEXT
  7
TextStyle03
  8
文字
  6
CONTINUOUS
 10
-20.0
 20
63.275
  1
可動装置側
 40
3.0
 72
     5
 11
-3.5
 21
63.275
  0
TEXT
  7
TextStyle03
  8
文字
  6
CONTINUOUS
 10
-96.375
 20
89.4
  1
はケーシング位置を示す
 40
3.0
 72
     5
 11
-59.625
 21
89.4
  0
TEXT
  7
TextStyle03
  8
文字
  6
CONTINUOUS
 10
-96.375
 20
86.025
  1
４ヶ所中1ヶ所に設定
 40
3.0
 72
     5
 11
-64.6875
 21
86.025
  0
TEXT
  7
TextStyle03
  8
文字
  6
CONTINUOUS
 10
-96.375
 20
94.925
  1
は排水穴位置を示す
 40
3.0
 72
     5
 11
-66.375
 21
94.925
  0
TEXT
  7
TextStyle03
  8
文字
  6
CONTINUOUS
 10
-66.275
 20
16.275
  1
アンカーピッチ
 40
3.0
 50
90.0
 72
     5
 11
-66.275
 21
39.525
  0
TEXT
  7
TextStyle03
  8
文字
  6
CONTINUOUS
 10
-37.825
 20
89.675
  1
アンカーピッチ
 40
3.0
 72
     5
 11
-14.575
 21
89.675
  0
TEXT
  7
TextStyle03
  8
文字
  6
CONTINUOUS
 10
-100.1
 20
80.05
  1
アンカー数量　１０ヶ所
 40
3.0
 72
     5
 11
-63.35
 21
80.05
  0
TEXT
  7
TextStyle03
  8
文字
  6
CONTINUOUS
 10
-100.125
 20
74.3
  1
アームユニット数　２ヶ所
 40
3.0
 72
     5
 11
-60.0
 21
74.3
  0
LINE
  8
文字
  6
CONTINUOUS
 10
24.166403
 20
-70.743062
 11
24.166403
 21
-12.609317
  0
LINE
  8
文字
  6
CONTINUOUS
 10
-48.026933
 20
-70.743062
 11
-48.026933
 21
-12.609317
  0
LINE
  8
文字
  6
CONTINUOUS
 10
40.57989
 20
-59.076395
 11
26.97621
 21
-59.076395
  0
LINE
  8
文字
  6
CONTINUOUS
 10
112.532095
 20
55.577218
 11
55.422717
 21
55.577218
  0
LINE
  8
文字
  6
CONTINUOUS
 10
112.532095
 20
20.050845
 11
55.422717
 21
20.050845
  0
LINE
  8
文字
  6
CONTINUOUS
 10
100.319782
 20
61.81515
 11
100.319782
 21
56.902377
  0
LINE
  8
文字
  6
CONTINUOUS
 10
83.75629
 20
-44.119285
 11
83.75629
 21
-52.670693
  0
LINE
  8
文字
  6
CONTINUOUS
 10
116.489623
 20
-44.119285
 11
116.489623
 21
-52.670693
  0
TEXT
  7
TextStyle03
  8
文字
  6
CONTINUOUS
 10
97.975
 20
-77.375
  1
網入り6.8t
 40
3.0
 72
     5
 11
114.6625
 21
-77.375
  0
TEXT
  7
TextStyle03
  8
文字
  6
CONTINUOUS
 10
104.65
 20
-82.05
  1
×２枚
 40
3.0
 72
     5
 11
114.4
 21
-82.05
  0
TEXT
  7
TextStyle03
  8
文字
  6
CONTINUOUS
 10
64.575
 20
125.25
  1
シリーズ：ＴＦＦＬ
 40
5.0
 72
     5
 11
114.575
 21
125.25
  0
TEXT
  7
TextStyle03
  8
文字
  6
CONTINUOUS
 10
64.575
 20
119.625
  1
　　　　　（上下可動）900×2000タイプ
 40
5.0
 72
     5
 11
168.0125
 21
119.625
  0
TEXT
  7
TextStyle03
  8
文字
  6
CONTINUOUS
 10
64.575
 20
114.0
  1
図面名　：外観姿図
 40
5.0
 72
     5
 11
114.575
 21
114.0
  0
TEXT
  7
TextStyle03
  8
文字
  6
CONTINUOUS
 10
64.575
 20
108.375
  1
　　　　　　
 40
5.0
 72
     5
 11
97.7
 21
108.375
  0
TEXT
  7
TextStyle03
  8
文字
  6
CONTINUOUS
 10
64.725
 20
104.525
  1
ＮＳコード：ＮＳＦＬ
 40
5.0
 72
     5
 11
120.35
 21
104.525
  0
INSERT
  2
*DIM_0002
  8
寸法
  6
CONTINUOUS
 10
0.0
 20
0.0
  0
INSERT
  2
*DIM_0003
  8
寸法
  6
CONTINUOUS
 10
0.0
 20
0.0
  0
INSERT
  2
*DIM_0004
  8
寸法
  6
CONTINUOUS
 10
0.0
 20
0.0
  0
INSERT
  2
*DIM_0005
  8
寸法
  6
CONTINUOUS
 10
0.0
 20
0.0
  0
INSERT
  2
*DIM_0006
  8
寸法
  6
CONTINUOUS
 10
0.0
 20
0.0
  0
INSERT
  2
*DIM_0007
  8
寸法
  6
CONTINUOUS
 10
0.0
 20
0.0
  0
INSERT
  2
*DIM_0008
  8
寸法
  6
CONTINUOUS
 10
0.0
 20
0.0
  0
INSERT
  2
*DIM_0009
  8
寸法
  6
CONTINUOUS
 10
0.0
 20
0.0
  0
INSERT
  2
*DIM_0010
  8
寸法
  6
CONTINUOUS
 10
0.0
 20
0.0
  0
INSERT
  2
*DIM_0011
  8
寸法
  6
CONTINUOUS
 10
0.0
 20
0.0
  0
INSERT
  2
*DIM_0012
  8
寸法
  6
CONTINUOUS
 10
0.0
 20
0.0
  0
INSERT
  2
*DIM_0013
  8
寸法
  6
CONTINUOUS
 10
0.0
 20
0.0
  0
INSERT
  2
*DIM_0014
  8
寸法
  6
CONTINUOUS
 10
0.0
 20
0.0
  0
INSERT
  2
*DIM_0015
  8
寸法
  6
CONTINUOUS
 10
0.0
 20
0.0
  0
INSERT
  2
*DIM_0016
  8
寸法
  6
CONTINUOUS
 10
0.0
 20
0.0
  0
INSERT
  2
*DIM_0017
  8
寸法
  6
CONTINUOUS
 10
0.0
 20
0.0
  0
INSERT
  2
*DIM_0018
  8
寸法
  6
CONTINUOUS
 10
0.0
 20
0.0
  0
INSERT
  2
*DIM_0019
  8
寸法
  6
CONTINUOUS
 10
0.0
 20
0.0
  0
LINE
  8
別途部材
  6
CONTINUOUS
 62
    47
 10
-47.096935
 20
-69.176395
 11
-47.096935
 21
-69.243062
  0
ARC
  8
別途部材
  6
CONTINUOUS
 62
    47
 10
-46.996933
 20
-69.1764
 40
0.1
 50
90.0
 51
180.0
  0
LINE
  8
別途部材
  6
CONTINUOUS
 62
    47
 10
-46.940413
 20
-69.243062
 11
-46.940413
 21
-70.743062
  0
LINE
  8
別途部材
  6
CONTINUOUS
 62
    47
 10
-46.996935
 20
-69.076395
 11
-11.930265
 21
-69.076395
  0
LINE
  8
別途部材
  6
CONTINUOUS
 62
    47
 10
-47.096935
 20
-69.243062
 11
-11.930265
 21
-69.243062
  0
LINE
  8
別途部材
  6
CONTINUOUS
 62
    47
 10
-46.940413
 20
-70.743062
 11
-11.930265
 21
-70.743062
  0
LINE
  8
別途部材
  6
CONTINUOUS
 62
    47
 10
-48.026933
 20
-71.893065
 11
-11.930265
 21
-71.893065
  0
LINE
  8
別途部材
  6
CONTINUOUS
 62
    47
 10
-48.026933
 20
-73.05973
 11
-11.930265
 21
-73.05973
  0
LINE
  8
別途部材
  6
CONTINUOUS
 62
    47
 10
23.236405
 20
-69.176395
 11
23.236405
 21
-69.243062
  0
ARC
  8
別途部材
  6
CONTINUOUS
 62
    47
 10
23.136403
 20
-69.1764
 40
0.1
 50
0.0
 51
90.0
  0
LINE
  8
別途部材
  6
CONTINUOUS
 62
    47
 10
23.079882
 20
-69.243062
 11
23.079882
 21
-70.743062
  0
LINE
  8
別途部材
  6
CONTINUOUS
 62
    47
 10
23.136405
 20
-69.076395
 11
-11.930265
 21
-69.076395
  0
LINE
  8
別途部材
  6
CONTINUOUS
 62
    47
 10
23.236405
 20
-69.243062
 11
-11.930265
 21
-69.243062
  0
LINE
  8
別途部材
  6
CONTINUOUS
 62
    47
 10
23.079882
 20
-70.743062
 11
-11.930265
 21
-70.743062
  0
LINE
  8
別途部材
  6
CONTINUOUS
 62
    47
 10
24.166403
 20
-71.893065
 11
-11.930265
 21
-71.893065
  0
LINE
  8
別途部材
  6
CONTINUOUS
 62
    47
 10
24.166403
 20
-73.05973
 11
-11.930265
 21
-73.05973
  0
LINE
  8
別途部材
  6
DOT
 62
    47
 10
-47.096935
 20
-59.176395
 11
-47.096935
 21
-59.243062
  0
ARC
  8
別途部材
  6
DOT
 62
    47
 10
-46.996933
 20
-59.176398
 40
0.1
 50
90.0
 51
180.0
  0
LINE
  8
別途部材
  6
DOT
 62
    47
 10
-46.940413
 20
-59.243062
 11
-46.940413
 21
-60.743062
  0
LINE
  8
別途部材
  6
DOT
 62
    47
 10
-46.996935
 20
-59.076395
 11
-11.930265
 21
-59.076395
  0
LINE
  8
別途部材
  6
DOT
 62
    47
 10
-47.096935
 20
-59.243062
 11
-11.930265
 21
-59.243062
  0
LINE
  8
別途部材
  6
DOT
 62
    47
 10
-46.940413
 20
-60.743062
 11
-11.930265
 21
-60.743062
  0
LINE
  8
別途部材
  6
DOT
 62
    47
 10
-48.026933
 20
-61.893065
 11
-11.930265
 21
-61.893065
  0
LINE
  8
別途部材
  6
DOT
 62
    47
 10
-48.026933
 20
-63.05973
 11
-11.930265
 21
-63.05973
  0
LINE
  8
別途部材
  6
DOT
 62
    47
 10
23.236405
 20
-59.176395
 11
23.236405
 21
-59.243062
  0
ARC
  8
別途部材
  6
DOT
 62
    47
 10
23.136403
 20
-59.176398
 40
0.1
 50
0.0
 51
90.0
  0
LINE
  8
別途部材
  6
DOT
 62
    47
 10
23.079882
 20
-59.243062
 11
23.079882
 21
-60.743062
  0
LINE
  8
別途部材
  6
DOT
 62
    47
 10
23.136405
 20
-59.076395
 11
-11.930265
 21
-59.076395
  0
LINE
  8
別途部材
  6
DOT
 62
    47
 10
23.236405
 20
-59.243062
 11
-11.930265
 21
-59.243062
  0
LINE
  8
別途部材
  6
DOT
 62
    47
 10
23.079882
 20
-60.743062
 11
-11.930265
 21
-60.743062
  0
LINE
  8
別途部材
  6
DOT
 62
    47
 10
24.166403
 20
-61.893065
 11
-11.930265
 21
-61.893065
  0
LINE
  8
別途部材
  6
DOT
 62
    47
 10
24.166403
 20
-63.05973
 11
-11.930265
 21
-63.05973
  0
LINE
  8
別途部材
  6
CONTINUOUS
 62
    47
 10
110.419782
 20
54.64722
 11
110.48645
 21
54.64722
  0
ARC
  8
別途部材
  6
CONTINUOUS
 62
    47
 10
110.419783
 20
54.547219
 40
0.1
 50
90.0
 51
180.0
  0
LINE
  8
別途部材
  6
CONTINUOUS
 62
    47
 10
110.48645
 20
54.490697
 11
111.98645
 21
54.490697
  0
LINE
  8
別途部材
  6
CONTINUOUS
 62
    47
 10
110.419782
 20
20.980842
 11
110.48645
 21
20.980842
  0
ARC
  8
別途部材
  6
CONTINUOUS
 62
    47
 10
110.419783
 20
21.080843
 40
0.1
 50
180.0
 51
270.0
  0
LINE
  8
別途部材
  6
CONTINUOUS
 62
    47
 10
110.48645
 20
21.137365
 11
111.98645
 21
21.137365
  0
LINE
  8
別途部材
  6
CONTINUOUS
 62
    47
 10
114.303118
 20
55.577218
 11
114.303118
 21
37.814033
  0
LINE
  8
別途部材
  6
CONTINUOUS
 62
    47
 10
113.136453
 20
55.577218
 11
113.136453
 21
37.814033
  0
LINE
  8
別途部材
  6
CONTINUOUS
 62
    47
 10
111.98645
 20
54.490697
 11
111.98645
 21
37.814033
  0
LINE
  8
別途部材
  6
CONTINUOUS
 62
    47
 10
110.48645
 20
54.64722
 11
110.48645
 21
37.814033
  0
LINE
  8
別途部材
  6
CONTINUOUS
 62
    47
 10
110.319782
 20
54.54722
 11
110.319782
 21
37.814033
  0
LINE
  8
別途部材
  6
CONTINUOUS
 62
    47
 10
114.303118
 20
20.050845
 11
114.303118
 21
37.814033
  0
LINE
  8
別途部材
  6
CONTINUOUS
 62
    47
 10
113.136453
 20
20.050845
 11
113.136453
 21
37.814033
  0
LINE
  8
別途部材
  6
CONTINUOUS
 62
    47
 10
110.48645
 20
20.980842
 11
110.48645
 21
37.814033
  0
LINE
  8
別途部材
  6
CONTINUOUS
 62
    47
 10
110.319782
 20
21.080842
 11
110.319782
 21
37.814033
  0
LINE
  8
別途部材
  6
CONTINUOUS
 62
    47
 10
111.98645
 20
21.137365
 11
111.98645
 21
37.814033
  0
LINE
  8
別途部材
  6
DOT
 62
    47
 10
100.419782
 20
54.64722
 11
100.48645
 21
54.64722
  0
ARC
  8
別途部材
  6
DOT
 62
    47
 10
100.419782
 20
54.547219
 40
0.1
 50
90.0
 51
180.0
  0
LINE
  8
別途部材
  6
DOT
 62
    47
 10
100.48645
 20
54.490697
 11
101.98645
 21
54.490697
  0
LINE
  8
別途部材
  6
DOT
 62
    47
 10
100.419782
 20
20.980842
 11
100.48645
 21
20.980842
  0
ARC
  8
別途部材
  6
DOT
 62
    47
 10
100.419782
 20
21.080843
 40
0.1
 50
180.0
 51
270.0
  0
LINE
  8
別途部材
  6
DOT
 62
    47
 10
100.48645
 20
21.137365
 11
101.98645
 21
21.137365
  0
LINE
  8
別途部材
  6
DOT
 62
    47
 10
104.303118
 20
55.577218
 11
104.303118
 21
37.814033
  0
LINE
  8
別途部材
  6
DOT
 62
    47
 10
103.136453
 20
55.577218
 11
103.136453
 21
37.814033
  0
LINE
  8
別途部材
  6
DOT
 62
    47
 10
101.98645
 20
54.490697
 11
101.98645
 21
37.814033
  0
LINE
  8
別途部材
  6
DOT
 62
    47
 10
100.48645
 20
54.64722
 11
100.48645
 21
37.814033
  0
LINE
  8
別途部材
  6
DOT
 62
    47
 10
100.319782
 20
54.54722
 11
100.319782
 21
37.814033
  0
LINE
  8
別途部材
  6
DOT
 62
    47
 10
103.136453
 20
20.050845
 11
103.136453
 21
37.814033
  0
LINE
  8
別途部材
  6
DOT
 62
    47
 10
104.303118
 20
20.050845
 11
104.303118
 21
37.814033
  0
LINE
  8
別途部材
  6
DOT
 62
    47
 10
100.48645
 20
20.980842
 11
100.48645
 21
37.814033
  0
LINE
  8
別途部材
  6
DOT
 62
    47
 10
100.319782
 20
21.080842
 11
100.319782
 21
37.814033
  0
LINE
  8
別途部材
  6
DOT
 62
    47
 10
101.98645
 20
21.137365
 11
101.98645
 21
37.814033
  0
LINE
  8
別途部材
  6
CONTINUOUS
 10
83.75629
 20
-53.785395
 11
83.75629
 21
-83.785395
  0
LINE
  8
曲げ物
  6
CONTINUOUS
 10
-26.327345
 20
39.596287
 11
-30.022657
 21
35.900975
  0
LINE
  8
曲げ物
  6
CONTINUOUS
 10
-27.030815
 20
38.060177
 11
-28.486545
 21
36.604448
  0
LINE
  8
曲げ物
  6
CONTINUOUS
 10
-27.863455
 20
38.892817
 11
-29.319185
 21
37.437088
  0
LINE
  8
曲げ物
  6
CONTINUOUS
 10
7.679505
 20
39.596287
 11
3.984193
 21
35.900975
  0
LINE
  8
曲げ物
  6
CONTINUOUS
 10
6.976035
 20
38.060177
 11
5.520305
 21
36.604448
  0
LINE
  8
曲げ物
  6
CONTINUOUS
 10
6.143395
 20
38.892817
 11
4.687665
 21
37.437088
  0
LINE
  8
曲げ物
  6
CONTINUOUS
 10
116.489623
 20
-53.785395
 11
83.75629
 21
-53.785395
  0
LINE
  8
曲げ物
  6
CONTINUOUS
 10
116.489623
 20
-83.785395
 11
83.75629
 21
-83.785395
  0
LINE
  8
曲げ物
  6
CONTINUOUS
 10
116.489623
 20
-53.785395
 11
116.489623
 21
-83.785395
  0
LINE
  8
鉄骨等
  6
CONTINUOUS
 62
    47
 10
-48.026933
 20
-73.05973
 11
-48.026933
 21
-71.893065
  0
LINE
  8
鉄骨等
  6
CONTINUOUS
 62
    47
 10
-48.026933
 20
-71.893065
 11
-46.623747
 21
-70.743065
  0
LINE
  8
鉄骨等
  6
CONTINUOUS
 62
    47
 10
24.166403
 20
-73.05973
 11
24.166403
 21
-71.893065
  0
LINE
  8
鉄骨等
  6
CONTINUOUS
 62
    47
 10
24.166403
 20
-71.893065
 11
22.763218
 21
-70.743065
  0
LINE
  8
鉄骨等
  6
DOT
 62
    47
 10
-48.026933
 20
-63.05973
 11
-48.026933
 21
-61.893065
  0
LINE
  8
鉄骨等
  6
DOT
 62
    47
 10
-48.026933
 20
-61.893065
 11
-46.623747
 21
-60.743065
  0
LINE
  8
鉄骨等
  6
DOT
 62
    47
 10
24.166403
 20
-63.05973
 11
24.166403
 21
-61.893065
  0
LINE
  8
鉄骨等
  6
DOT
 62
    47
 10
24.166403
 20
-61.893065
 11
22.763218
 21
-60.743065
  0
LINE
  8
鉄骨等
  6
CONTINUOUS
 62
    47
 10
114.303118
 20
55.577218
 11
113.136453
 21
55.577218
  0
LINE
  8
鉄骨等
  6
CONTINUOUS
 62
    47
 10
113.136453
 20
55.577218
 11
111.986453
 21
54.17403
  0
LINE
  8
鉄骨等
  6
CONTINUOUS
 62
    47
 10
114.303118
 20
20.050845
 11
113.136453
 21
20.050845
  0
LINE
  8
鉄骨等
  6
CONTINUOUS
 62
    47
 10
113.136453
 20
20.050845
 11
111.986453
 21
21.45403
  0
LINE
  8
鉄骨等
  6
DOT
 62
    47
 10
104.303118
 20
55.577218
 11
103.136453
 21
55.577218
  0
LINE
  8
鉄骨等
  6
DOT
 62
    47
 10
103.136453
 20
55.577218
 11
101.986453
 21
54.17403
  0
LINE
  8
鉄骨等
  6
DOT
 62
    47
 10
104.303118
 20
20.050845
 11
103.136453
 21
20.050845
  0
LINE
  8
鉄骨等
  6
DOT
 62
    47
 10
103.136453
 20
20.050845
 11
101.986453
 21
21.45403
  0
ENDSEC
  0
EOF
