  0
SECTION
  2
HEADER
  9
$EXTMIN
 10
-210.0
 20
-148.5
  9
$EXTMAX
 10
210.0
 20
148.5
  9
$PDMODE
 70
    32
  9
$PDSIZE
 40
1.5
  9
$LTSCALE
 40
10.0
  0
ENDSEC
  0
SECTION
  2
TABLES
  0
TABLE
  2
LTYPE
 70
    15
  0
LTYPE
  2
CONTINUOUS
 70
    64
  3
実線
 72
    65
 73
     0
 40
0.0
  0
LTYPE
  2
DASHED
 70
    64
  3
破線A
 72
    65
 73
     2
 40
0.6
 49
0.4
 49
-0.2
  0
LTYPE
  2
DASHEDX2
 70
    64
  3
破線B
 72
    65
 73
     2
 40
1.3
 49
0.9
 49
-0.4
  0
LTYPE
  2
DASHDOT
 70
    64
  3
１点鎖線A
 72
    65
 73
     4
 40
0.5375
 49
0.375
 49
-0.05
 49
0.0625
 49
-0.05
  0
LTYPE
  2
DASHDOTX2
 70
    64
  3
１点鎖線B
 72
    65
 73
     4
 40
1.075
 49
0.75
 49
-0.1
 49
0.125
 49
-0.1
  0
LTYPE
  2
DIVIDE2
 70
    64
  3
２点鎖線A
 72
    65
 73
     6
 40
0.5125
 49
0.3
 49
-0.0375
 49
0.05
 49
-0.0375
 49
0.05
 49
-0.0375
  0
LTYPE
  2
DIVIDE
 70
    64
  3
２点鎖線B
 72
    65
 73
     6
 40
1.05
 49
0.55
 49
-0.1
 49
0.1
 49
-0.1
 49
0.1
 49
-0.1
  0
LTYPE
  2
DOT
 70
    64
  3
点線A
 72
    65
 73
     2
 40
0.1125
 49
0.0625
 49
-0.05
  0
LTYPE
  2
DOTX2
 70
    64
  3
点線B
 72
    65
 73
     2
 40
0.275
 49
0.15
 49
-0.125
  0
LTYPE
  2
CONTINUOUS
 70
    64
  3
実線
 72
    65
 73
     0
 40
0.0
  0
LTYPE
  2
CONTINUOUS
 70
    64
  3
実線
 72
    65
 73
     0
 40
0.0
  0
LTYPE
  2
CONTINUOUS
 70
    64
  3
実線
 72
    65
 73
     0
 40
0.0
  0
LTYPE
  2
CONTINUOUS
 70
    64
  3
実線
 72
    65
 73
     0
 40
0.0
  0
LTYPE
  2
CONTINUOUS
 70
    64
  3
実線
 72
    65
 73
     0
 40
0.0
  0
LTYPE
  2
CONTINUOUS
 70
    64
  3
実線
 72
    65
 73
     0
 40
0.0
  0
ENDTAB
  0
TABLE
  2
LAYER
 70
    34
  0
LAYER
  2
通り芯
 70
     0
 62
    15
  6
CONTINUOUS
  0
LAYER
  2
補助線
 70
     0
 62
    16
  6
DOT
  0
LAYER
  2
躯体
 70
     0
 62
    31
  6
CONTINUOUS
  0
LAYER
  2
型材
 70
     0
 62
    32
  6
CONTINUOUS
  0
LAYER
  2
型材断面
 70
     0
 62
    47
  6
CONTINUOUS
  0
LAYER
  2
ガラス
 70
     0
 62
    48
  6
CONTINUOUS
  0
LAYER
  2
ゴム等
 70
     0
 62
    63
  6
CONTINUOUS
  0
LAYER
  2
ボルト／ビス
 70
     0
 62
    64
  6
CONTINUOUS
  0
LAYER
  2
文字
 70
     0
 62
    79
  6
CONTINUOUS
  0
LAYER
  2
寸法
 70
     0
 62
    80
  6
CONTINUOUS
  0
LAYER
  2
ﾊｯﾁﾝｸﾞ
 70
     0
 62
    95
  6
CONTINUOUS
  0
LAYER
  2
別途部材
 70
     0
 62
    96
  6
CONTINUOUS
  0
LAYER
  2
曲げ物
 70
     0
 62
   111
  6
CONTINUOUS
  0
LAYER
  2
鉄骨等
 70
     0
 62
   112
  6
CONTINUOUS
  0
LAYER
  2
St
 70
     0
 62
   127
  6
CONTINUOUS
  0
LAYER
  2
その他部品等
 70
     0
 62
   128
  6
CONTINUOUS
  0
LAYER
  2
ｶﾞｽｹｯﾄ
 70
     0
 62
   143
  6
CONTINUOUS
  0
LAYER
  2
ｽｹｯﾁ
 70
     0
 62
    14
  6
CONTINUOUS
  0
LAYER
  2
0
 70
     0
 62
    17
  6
CONTINUOUS
  0
LAYER
  2
1
 70
     0
 62
    30
  6
CONTINUOUS
  0
LAYER
  2
4
 70
     0
 62
    33
  6
CONTINUOUS
  0
LAYER
  2
ﾚｲﾔ3
 70
     0
 62
    46
  6
CONTINUOUS
  0
LAYER
  2
外形線
 70
     0
 62
    49
  6
CONTINUOUS
  0
LAYER
  2
部品
 70
     0
 62
    14
  6
CONTINUOUS
  0
LAYER
  2
サッシ芯
 70
     0
 62
    17
  6
DASHDOTX2
  0
LAYER
  2
寸法線
 70
     0
 62
    62
  6
CONTINUOUS
  0
LAYER
  2
姿図外形線
 70
     0
 62
    65
  6
CONTINUOUS
  0
LAYER
  2
姿補助線
 70
     0
 62
    30
  6
CONTINUOUS
  0
LAYER
  2
透視線
 70
     0
 62
    78
  6
DOT
  0
LAYER
  2
用紙
 70
     0
 62
    81
  6
CONTINUOUS
  0
LAYER
  2
実線図枠
 70
     0
 62
    94
  6
CONTINUOUS
  0
LAYER
  2
補助図枠
 70
     0
 62
    97
  6
CONTINUOUS
  0
LAYER
  2
建具記号
 70
     0
 62
   110
  6
CONTINUOUS
  0
LAYER
  2
補助文字
 70
     0
 62
   113
  6
CONTINUOUS
  0
ENDTAB
  0
TABLE
  2
STYLE
 70
    10
  0
STYLE
  2
STANDARD
 70
     0
 40
1.0
 41
1.0
 42
1.0
 50
0.0
 71
     0
  3
TXT
  4
BIGFONT
  0
STYLE
  2
TATE
 70
     4
 40
1.0
 41
1.0
 42
1.0
 50
0.0
 71
     0
  3
TXT
  4
BIGFONT
  0
STYLE
  2
TextStyle03
 70
     0
 40
1.0
 41
1.0
 42
1.0
 50
0.0
 71
     0
  3
MONOTXT
  4
BIGFONT
  0
STYLE
  2
TextStyle04
 70
     0
 40
1.0
 41
1.0
 42
1.0
 50
0.0
 71
     0
  3
MONOTXT
  4
BIGFONT
  0
STYLE
  2
TextStyle05
 70
     0
 40
1.0
 41
1.0
 42
1.0
 50
0.0
 71
     0
  3
MONOTXT
  4
BIGFONT
  0
STYLE
  2
TextStyle06
 70
     0
 40
1.0
 41
1.0
 42
1.0
 50
0.0
 71
     0
  3
MONOTXT
  4
BIGFONT
  0
STYLE
  2
TextStyle07
 70
     0
 40
1.0
 41
1.0
 42
1.0
 50
0.0
 71
     0
  3
MONOTXT
  4
BIGFONT
  0
STYLE
  2
TextStyle08
 70
     0
 40
1.0
 41
1.0
 42
1.0
 50
0.0
 71
     0
  3
MONOTXT
  4
BIGFONT
  0
STYLE
  2
TextStyle09
 70
     0
 40
1.0
 41
1.0
 42
1.0
 50
0.0
 71
     0
  3
MONOTXT
  4
BIGFONT
  0
STYLE
  2
TextStyle10
 70
     0
 40
1.0
 41
1.0
 42
1.0
 50
0.0
 71
     0
  3
MONOTXT
  4
BIGFONT
  0
ENDTAB
  0
ENDSEC
  0
SECTION
  2
BLOCKS
  0
BLOCK
  2
*GRP_0001
 70
    65
 10
0.0
 20
0.0
  0
LINE
  8
型材断面
  6
CONTINUOUS
 10
195.0
 20
133.5
 11
195.0
 21
-133.5
  0
LINE
  8
型材断面
  6
CONTINUOUS
 10
195.0
 20
-133.5
 11
-185.0
 21
-133.5
  0
LINE
  8
型材断面
  6
CONTINUOUS
 10
-185.0
 20
-133.5
 11
-185.0
 21
133.5
  0
LINE
  8
型材断面
  6
CONTINUOUS
 10
195.0
 20
133.5
 11
-185.0
 21
133.5
  0
LINE
  8
型材断面
  6
CONTINUOUS
 10
145.0
 20
-133.5
 11
145.0
 21
-118.5
  0
LINE
  8
型材断面
  6
CONTINUOUS
 10
195.0
 20
-118.5
 11
145.0
 21
-118.5
  0
ENDBLK
  0
BLOCK
  2
*DIM_0002
 70
    65
 10
0.0
 20
0.0
  0
LINE
  8
寸法
  6
BYBLOCK
 62
     0
 10
-59.983625
 20
19.183902
 11
-59.983625
 21
14.000657
  0
LINE
  8
寸法
  6
BYBLOCK
 62
     0
 10
23.34971
 20
19.183902
 11
23.34971
 21
14.000657
  0
LINE
  8
寸法
  6
BYBLOCK
 62
     0
 10
-59.983625
 20
14.000657
 11
23.34971
 21
14.000657
  0
POINT
  8
寸法
 62
     0
 10
-59.983625
 20
14.000657
  0
POINT
  8
寸法
 62
     0
 10
23.34971
 20
14.000657
  0
TEXT
  7
TextStyle03
  8
寸法
  6
CONTINUOUS
 62
     0
 10
-21.60625
 20
14.375
  1
2500
 40
3.0
 72
     5
 11
-15.04375
 21
14.375
  0
ENDBLK
  0
BLOCK
  2
*DIM_0003
 70
    65
 10
0.0
 20
0.0
  0
LINE
  8
寸法
  6
BYBLOCK
 62
     0
 10
41.016375
 20
52.814035
 11
50.740658
 21
52.814035
  0
LINE
  8
寸法
  6
BYBLOCK
 62
     0
 10
43.646505
 20
49.114035
 11
50.740658
 21
49.114035
  0
LINE
  8
寸法
  6
BYBLOCK
 62
     0
 10
50.740658
 20
52.814035
 11
50.740658
 21
49.114035
  0
POINT
  8
寸法
 62
     0
 10
50.740658
 20
52.814035
  0
POINT
  8
寸法
 62
     0
 10
50.740658
 20
49.114035
  0
TEXT
  7
TextStyle03
  8
寸法
  6
CONTINUOUS
 62
     0
 10
50.4
 20
53.8125
  1
111
 40
3.0
 50
90.0
 72
     5
 11
50.4
 21
58.6875
  0
ENDBLK
  0
BLOCK
  2
*DIM_0004
 70
    65
 10
0.0
 20
0.0
  0
LINE
  8
寸法
  6
BYBLOCK
 62
     0
 10
41.016375
 20
22.81403
 11
50.740658
 21
22.814027
  0
LINE
  8
寸法
  6
BYBLOCK
 62
     0
 10
43.646505
 20
26.51403
 11
50.740658
 21
26.514027
  0
LINE
  8
寸法
  6
BYBLOCK
 62
     0
 10
50.740658
 20
22.814027
 11
50.740658
 21
26.514027
  0
POINT
  8
寸法
 62
     0
 10
50.740658
 20
22.814027
  0
POINT
  8
寸法
 62
     0
 10
50.740658
 20
26.514027
  0
TEXT
  7
TextStyle03
  8
寸法
  6
CONTINUOUS
 62
     0
 10
50.4
 20
16.9375
  1
111
 40
3.0
 50
90.0
 72
     5
 11
50.4
 21
21.8125
  0
ENDBLK
  0
BLOCK
  2
*DIM_0005
 70
    65
 10
0.0
 20
0.0
  0
LINE
  8
寸法
  6
BYBLOCK
 62
     0
 10
-79.650292
 20
47.814033
 11
-92.94313
 21
47.814033
  0
LINE
  8
寸法
  6
BYBLOCK
 62
     0
 10
-79.650292
 20
27.814033
 11
-92.94313
 21
27.814033
  0
LINE
  8
寸法
  6
BYBLOCK
 62
     0
 10
-92.94313
 20
47.814033
 11
-92.94313
 21
27.814033
  0
POINT
  8
寸法
 62
     0
 10
-92.94313
 20
47.814033
  0
POINT
  8
寸法
 62
     0
 10
-92.94313
 20
27.814033
  0
TEXT
  7
TextStyle03
  8
寸法
  6
CONTINUOUS
 62
     0
 10
-93.325
 20
35.3625
  1
600
 40
3.0
 50
90.0
 72
     5
 11
-93.325
 21
40.2375
  0
ENDBLK
  0
BLOCK
  2
*DIM_0006
 70
    65
 10
0.0
 20
0.0
  0
LINE
  8
寸法
  6
BYBLOCK
 62
     0
 10
-71.65029
 20
55.814033
 11
-71.65029
 21
84.922105
  0
LINE
  8
寸法
  6
BYBLOCK
 62
     0
 10
-44.983625
 20
55.814033
 11
-44.983625
 21
84.922105
  0
LINE
  8
寸法
  6
BYBLOCK
 62
     0
 10
-71.65029
 20
84.922105
 11
-44.983625
 21
84.922105
  0
POINT
  8
寸法
 62
     0
 10
-71.65029
 20
84.922105
  0
POINT
  8
寸法
 62
     0
 10
-44.983625
 20
84.922105
  0
TEXT
  7
TextStyle03
  8
寸法
  6
CONTINUOUS
 62
     0
 10
-60.7625
 20
85.275
  1
800
 40
3.0
 72
     5
 11
-55.8875
 21
85.275
  0
ENDBLK
  0
BLOCK
  2
*DIM_0007
 70
    65
 10
0.0
 20
0.0
  0
LINE
  8
寸法
  6
BYBLOCK
 62
     0
 10
-18.316957
 20
55.814033
 11
-18.316957
 21
84.922105
  0
LINE
  8
寸法
  6
BYBLOCK
 62
     0
 10
-44.983625
 20
84.922105
 11
-18.316957
 21
84.922105
  0
POINT
  8
寸法
 62
     0
 10
-18.316957
 20
84.922105
  0
TEXT
  7
TextStyle03
  8
寸法
  6
CONTINUOUS
 62
     0
 10
-34.1125
 20
85.275
  1
800
 40
3.0
 72
     5
 11
-29.2375
 21
85.275
  0
ENDBLK
  0
BLOCK
  2
*DIM_0008
 70
    65
 10
0.0
 20
0.0
  0
LINE
  8
寸法
  6
BYBLOCK
 62
     0
 10
8.34971
 20
55.814033
 11
8.34971
 21
84.922105
  0
LINE
  8
寸法
  6
BYBLOCK
 62
     0
 10
-18.316957
 20
84.922105
 11
8.34971
 21
84.922105
  0
POINT
  8
寸法
 62
     0
 10
8.34971
 20
84.922105
  0
TEXT
  7
TextStyle03
  8
寸法
  6
CONTINUOUS
 62
     0
 10
-7.4375
 20
85.275
  1
800
 40
3.0
 72
     5
 11
-2.5625
 21
85.275
  0
ENDBLK
  0
BLOCK
  2
*DIM_0009
 70
    65
 10
0.0
 20
0.0
  0
LINE
  8
寸法
  6
BYBLOCK
 62
     0
 10
35.016375
 20
55.814033
 11
35.016375
 21
84.922105
  0
LINE
  8
寸法
  6
BYBLOCK
 62
     0
 10
8.34971
 20
84.922105
 11
35.016375
 21
84.922105
  0
POINT
  8
寸法
 62
     0
 10
35.016375
 20
84.922105
  0
TEXT
  7
TextStyle03
  8
寸法
  6
CONTINUOUS
 62
     0
 10
19.2375
 20
85.275
  1
800
 40
3.0
 72
     5
 11
24.1125
 21
85.275
  0
ENDBLK
  0
BLOCK
  2
*DIM_0010
 70
    65
 10
0.0
 20
0.0
  0
LINE
  8
寸法
  6
CONTINUOUS
 10
-76.650295
 20
-12.609317
 11
-79.413627
 21
-12.609317
  0
POINT
  8
寸法
 10
-76.650295
 20
-12.609317
  0
POINT
  8
寸法
 10
-79.413627
 20
-12.609317
  0
TEXT
  7
TextStyle03
  8
寸法
  6
CONTINUOUS
 10
-83.98125
 20
-11.725
  1
82.9
 40
3.0
 72
     5
 11
-77.41875
 21
-11.725
  0
ENDBLK
  0
BLOCK
  2
*DIM_0011
 70
    65
 10
0.0
 20
0.0
  0
LINE
  8
寸法
  6
CONTINUOUS
 10
42.77971
 20
-12.609317
 11
40.016375
 21
-12.609317
  0
POINT
  8
寸法
 10
42.77971
 20
-12.609317
  0
POINT
  8
寸法
 10
40.016375
 20
-12.609317
  0
TEXT
  7
TextStyle03
  8
寸法
  6
CONTINUOUS
 10
41.09375
 20
-11.775
  1
82.9
 40
3.0
 72
     5
 11
47.65625
 21
-11.775
  0
ENDBLK
  0
BLOCK
  2
*DIM_0012
 70
    65
 10
0.0
 20
0.0
  0
LINE
  8
寸法
  6
CONTINUOUS
 10
-76.650292
 20
-12.609317
 11
40.016375
 21
-12.609317
  0
POINT
  8
寸法
 10
-76.650292
 20
-12.609317
  0
POINT
  8
寸法
 10
40.016375
 20
-12.609317
  0
TEXT
  7
TextStyle03
  8
寸法
  6
CONTINUOUS
 10
-30.04375
 20
-12.25
  1
呼称寸法　3500
 40
3.0
 72
     5
 11
-6.60625
 21
-12.25
  0
ENDBLK
  0
BLOCK
  2
*DIM_0013
 70
    65
 10
0.0
 20
0.0
  0
LINE
  8
寸法
  6
CONTINUOUS
 10
74.036025
 20
55.577218
 11
74.036025
 21
52.814033
  0
POINT
  8
寸法
 10
74.036025
 20
55.577218
  0
POINT
  8
寸法
 10
74.036025
 20
52.814033
  0
TEXT
  7
TextStyle03
  8
寸法
  6
CONTINUOUS
 10
75.4
 20
56.64375
  1
82.9
 40
3.0
 50
90.0
 72
     5
 11
75.4
 21
63.20625
  0
ENDBLK
  0
BLOCK
  2
*DIM_0014
 70
    65
 10
0.0
 20
0.0
  0
LINE
  8
寸法
  6
CONTINUOUS
 10
74.036025
 20
22.814033
 11
74.036025
 21
20.050845
  0
POINT
  8
寸法
 10
74.036025
 20
22.814033
  0
POINT
  8
寸法
 10
74.036025
 20
20.050845
  0
TEXT
  7
TextStyle03
  8
寸法
  6
CONTINUOUS
 10
75.4
 20
12.41875
  1
82.9
 40
3.0
 50
90.0
 72
     5
 11
75.4
 21
18.98125
  0
ENDBLK
  0
BLOCK
  2
*DIM_0015
 70
    65
 10
0.0
 20
0.0
  0
LINE
  8
寸法
  6
CONTINUOUS
 10
74.036025
 20
52.814033
 11
74.036025
 21
22.814033
  0
POINT
  8
寸法
 10
74.036025
 20
52.814033
  0
POINT
  8
寸法
 10
74.036025
 20
22.814033
  0
TEXT
  7
TextStyle03
  8
寸法
  6
CONTINUOUS
 10
73.6
 20
26.925
  1
呼称寸法　900
 40
3.0
 50
90.0
 72
     5
 11
73.6
 21
48.675
  0
ENDBLK
  0
BLOCK
  2
*GRP_0016
 70
    65
 10
0.0
 20
0.0
  0
LINE
  8
補助線
  6
BYBLOCK
 62
    64
 10
-64.91988
 20
-74.673905
 11
-65.047365
 21
-74.781265
  0
LINE
  8
補助線
  6
BYBLOCK
 62
    64
 10
-65.037302
 20
-74.66384
 11
-64.929943
 21
-74.791327
  0
LINE
  8
補助線
  6
BYBLOCK
 62
    64
 10
-56.429463
 20
-67.523883
 11
-56.556948
 21
-67.631238
  0
LINE
  8
補助線
  6
BYBLOCK
 62
    64
 10
-56.546885
 20
-67.513818
 11
-56.439525
 21
-67.6413
  0
LINE
  8
補助線
  6
BYBLOCK
 62
    64
 10
-48.066528
 20
-60.481213
 11
-47.939045
 21
-60.373855
  0
LINE
  8
補助線
  6
BYBLOCK
 62
    64
 10
-48.056467
 20
-60.36379
 11
-47.949107
 21
-60.491277
  0
LINE
  8
型材断面
  6
CONTINUOUS
 10
-65.775378
 20
-74.304882
 11
-65.835755
 21
-75.009407
  0
LINE
  8
型材断面
  6
CONTINUOUS
 10
-65.835755
 20
-75.009407
 11
-65.406322
 21
-75.519343
  0
LINE
  8
型材断面
  6
CONTINUOUS
 10
-65.406322
 20
-75.519343
 11
-64.701797
 21
-75.57972
  0
LINE
  8
型材断面
  6
CONTINUOUS
 10
-48.28461
 20
-59.575403
 11
-47.580085
 21
-59.63578
  0
LINE
  8
型材断面
  6
CONTINUOUS
 10
-47.580085
 20
-59.63578
 11
-47.150652
 21
-60.145715
  0
LINE
  8
型材断面
  6
CONTINUOUS
 10
-47.150652
 20
-60.145715
 11
-47.21103
 21
-60.85024
  0
LINE
  8
型材断面
  6
CONTINUOUS
 10
-65.775378
 20
-74.304882
 11
-48.28461
 21
-59.575403
  0
LINE
  8
型材断面
  6
CONTINUOUS
 10
-64.701797
 20
-75.57972
 11
-47.21103
 21
-60.85024
  0
CIRCLE
  8
ボルト／ビス
  6
CONTINUOUS
 10
-64.983622
 20
-74.727585
 40
0.250185
  0
CIRCLE
  8
ボルト／ビス
  6
CONTINUOUS
 10
-64.983622
 20
-74.727585
 40
0.301025
  0
LINE
  8
ボルト／ビス
  6
CONTINUOUS
 62
    64
 10
-65.22993
 20
-74.771468
 11
-65.144777
 21
-74.53622
  0
LINE
  8
ボルト／ビス
  6
CONTINUOUS
 62
    64
 10
-64.89847
 20
-74.492335
 11
-65.144777
 21
-74.53622
  0
LINE
  8
ボルト／ビス
  6
CONTINUOUS
 62
    64
 10
-65.068775
 20
-74.962835
 11
-64.822468
 21
-74.91895
  0
LINE
  8
ボルト／ビス
  6
CONTINUOUS
 62
    64
 10
-64.737315
 20
-74.683702
 11
-64.822468
 21
-74.91895
  0
LINE
  8
ボルト／ビス
  6
CONTINUOUS
 62
    64
 10
-65.22993
 20
-74.771468
 11
-65.068775
 21
-74.962835
  0
LINE
  8
ボルト／ビス
  6
CONTINUOUS
 62
    64
 10
-64.89847
 20
-74.492335
 11
-64.737315
 21
-74.683702
  0
CIRCLE
  8
ボルト／ビス
  6
CONTINUOUS
 62
    64
 10
-64.983622
 20
-74.727585
 40
0.216668
  0
CIRCLE
  8
ボルト／ビス
  6
CONTINUOUS
 10
-56.493205
 20
-67.57756
 40
0.250185
  0
CIRCLE
  8
ボルト／ビス
  6
CONTINUOUS
 10
-56.493205
 20
-67.57756
 40
0.301025
  0
LINE
  8
ボルト／ビス
  6
CONTINUOUS
 62
    64
 10
-56.739513
 20
-67.621443
 11
-56.65436
 21
-67.386193
  0
LINE
  8
ボルト／ビス
  6
CONTINUOUS
 62
    64
 10
-56.408053
 20
-67.34231
 11
-56.65436
 21
-67.386193
  0
LINE
  8
ボルト／ビス
  6
CONTINUOUS
 62
    64
 10
-56.578358
 20
-67.81281
 11
-56.332048
 21
-67.768927
  0
LINE
  8
ボルト／ビス
  6
CONTINUOUS
 62
    64
 10
-56.246897
 20
-67.53368
 11
-56.332048
 21
-67.768927
  0
LINE
  8
ボルト／ビス
  6
CONTINUOUS
 62
    64
 10
-56.739513
 20
-67.621443
 11
-56.578358
 21
-67.81281
  0
LINE
  8
ボルト／ビス
  6
CONTINUOUS
 62
    64
 10
-56.408053
 20
-67.34231
 11
-56.246897
 21
-67.53368
  0
CIRCLE
  8
ボルト／ビス
  6
CONTINUOUS
 62
    64
 10
-56.493205
 20
-67.57756
 40
0.216668
  0
CIRCLE
  8
ボルト／ビス
  6
CONTINUOUS
 10
-48.002785
 20
-60.427535
 40
0.250185
  0
CIRCLE
  8
ボルト／ビス
  6
CONTINUOUS
 10
-48.002785
 20
-60.427535
 40
0.301025
  0
LINE
  8
ボルト／ビス
  6
CONTINUOUS
 62
    64
 10
-47.917633
 20
-60.192285
 11
-48.163943
 21
-60.23617
  0
LINE
  8
ボルト／ビス
  6
CONTINUOUS
 62
    64
 10
-48.249095
 20
-60.471418
 11
-48.163943
 21
-60.23617
  0
LINE
  8
ボルト／ビス
  6
CONTINUOUS
 62
    64
 10
-47.75648
 20
-60.383652
 11
-47.84163
 21
-60.6189
  0
LINE
  8
ボルト／ビス
  6
CONTINUOUS
 62
    64
 10
-48.08794
 20
-60.662785
 11
-47.84163
 21
-60.6189
  0
LINE
  8
ボルト／ビス
  6
CONTINUOUS
 62
    64
 10
-47.917633
 20
-60.192285
 11
-47.75648
 21
-60.383652
  0
LINE
  8
ボルト／ビス
  6
CONTINUOUS
 62
    64
 10
-48.249095
 20
-60.471418
 11
-48.08794
 21
-60.662785
  0
CIRCLE
  8
ボルト／ビス
  6
CONTINUOUS
 62
    64
 10
-48.002785
 20
-60.427535
 40
0.216668
  0
ENDBLK
  0
BLOCK
  2
*GRP_0017
 70
    65
 10
0.0
 20
0.0
  0
LINE
  8
補助線
  6
BYBLOCK
 62
    64
 10
-48.06653
 20
-74.673905
 11
-47.939045
 21
-74.781265
  0
LINE
  8
補助線
  6
BYBLOCK
 62
    64
 10
-47.949107
 20
-74.66384
 11
-48.056467
 21
-74.791327
  0
LINE
  8
補助線
  6
BYBLOCK
 62
    64
 10
-56.556948
 20
-67.523883
 11
-56.429463
 21
-67.631238
  0
LINE
  8
補助線
  6
BYBLOCK
 62
    64
 10
-56.439525
 20
-67.513818
 11
-56.546885
 21
-67.6413
  0
LINE
  8
補助線
  6
BYBLOCK
 62
    64
 10
-64.919883
 20
-60.481213
 11
-65.047365
 21
-60.373855
  0
LINE
  8
補助線
  6
BYBLOCK
 62
    64
 10
-64.929943
 20
-60.36379
 11
-65.037302
 21
-60.491277
  0
LINE
  8
型材断面
  6
CONTINUOUS
 10
-47.211032
 20
-74.304882
 11
-47.150655
 21
-75.009407
  0
LINE
  8
型材断面
  6
CONTINUOUS
 10
-47.150655
 20
-75.009407
 11
-47.580087
 21
-75.519343
  0
LINE
  8
型材断面
  6
CONTINUOUS
 10
-47.580087
 20
-75.519343
 11
-48.284613
 21
-75.57972
  0
LINE
  8
型材断面
  6
CONTINUOUS
 10
-64.7018
 20
-59.575403
 11
-65.406325
 21
-59.63578
  0
LINE
  8
型材断面
  6
CONTINUOUS
 10
-65.406325
 20
-59.63578
 11
-65.835758
 21
-60.145715
  0
LINE
  8
型材断面
  6
CONTINUOUS
 10
-65.835758
 20
-60.145715
 11
-65.77538
 21
-60.85024
  0
LINE
  8
型材断面
  6
CONTINUOUS
 10
-47.211032
 20
-74.304882
 11
-64.7018
 21
-59.575403
  0
LINE
  8
型材断面
  6
CONTINUOUS
 10
-48.284613
 20
-75.57972
 11
-65.77538
 21
-60.85024
  0
CIRCLE
  8
ボルト／ビス
  6
CONTINUOUS
 10
-48.002787
 20
-74.727585
 40
0.250185
  0
CIRCLE
  8
ボルト／ビス
  6
CONTINUOUS
 10
-48.002787
 20
-74.727585
 40
0.301025
  0
LINE
  8
ボルト／ビス
  6
CONTINUOUS
 62
    64
 10
-47.75648
 20
-74.771468
 11
-47.841633
 21
-74.53622
  0
LINE
  8
ボルト／ビス
  6
CONTINUOUS
 62
    64
 10
-48.08794
 20
-74.492335
 11
-47.841633
 21
-74.53622
  0
LINE
  8
ボルト／ビス
  6
CONTINUOUS
 62
    64
 10
-47.917635
 20
-74.962835
 11
-48.163943
 21
-74.91895
  0
LINE
  8
ボルト／ビス
  6
CONTINUOUS
 62
    64
 10
-48.249095
 20
-74.683702
 11
-48.163943
 21
-74.91895
  0
LINE
  8
ボルト／ビス
  6
CONTINUOUS
 62
    64
 10
-47.75648
 20
-74.771468
 11
-47.917635
 21
-74.962835
  0
LINE
  8
ボルト／ビス
  6
CONTINUOUS
 62
    64
 10
-48.08794
 20
-74.492335
 11
-48.249095
 21
-74.683702
  0
CIRCLE
  8
ボルト／ビス
  6
CONTINUOUS
 62
    64
 10
-48.002787
 20
-74.727585
 40
0.216668
  0
CIRCLE
  8
ボルト／ビス
  6
CONTINUOUS
 10
-56.493205
 20
-67.57756
 40
0.250185
  0
CIRCLE
  8
ボルト／ビス
  6
CONTINUOUS
 10
-56.493205
 20
-67.57756
 40
0.301025
  0
LINE
  8
ボルト／ビス
  6
CONTINUOUS
 62
    64
 10
-56.246897
 20
-67.621443
 11
-56.33205
 21
-67.386193
  0
LINE
  8
ボルト／ビス
  6
CONTINUOUS
 62
    64
 10
-56.578358
 20
-67.34231
 11
-56.33205
 21
-67.386193
  0
LINE
  8
ボルト／ビス
  6
CONTINUOUS
 62
    64
 10
-56.408053
 20
-67.81281
 11
-56.654363
 21
-67.768927
  0
LINE
  8
ボルト／ビス
  6
CONTINUOUS
 62
    64
 10
-56.739513
 20
-67.53368
 11
-56.654363
 21
-67.768927
  0
LINE
  8
ボルト／ビス
  6
CONTINUOUS
 62
    64
 10
-56.246897
 20
-67.621443
 11
-56.408053
 21
-67.81281
  0
LINE
  8
ボルト／ビス
  6
CONTINUOUS
 62
    64
 10
-56.578358
 20
-67.34231
 11
-56.739513
 21
-67.53368
  0
CIRCLE
  8
ボルト／ビス
  6
CONTINUOUS
 62
    64
 10
-56.493205
 20
-67.57756
 40
0.216668
  0
CIRCLE
  8
ボルト／ビス
  6
CONTINUOUS
 10
-64.983625
 20
-60.427535
 40
0.250185
  0
CIRCLE
  8
ボルト／ビス
  6
CONTINUOUS
 10
-64.983625
 20
-60.427535
 40
0.301025
  0
LINE
  8
ボルト／ビス
  6
CONTINUOUS
 62
    64
 10
-65.068778
 20
-60.192285
 11
-64.822468
 21
-60.23617
  0
LINE
  8
ボルト／ビス
  6
CONTINUOUS
 62
    64
 10
-64.737315
 20
-60.471418
 11
-64.822468
 21
-60.23617
  0
LINE
  8
ボルト／ビス
  6
CONTINUOUS
 62
    64
 10
-65.22993
 20
-60.383652
 11
-65.14478
 21
-60.6189
  0
LINE
  8
ボルト／ビス
  6
CONTINUOUS
 62
    64
 10
-64.89847
 20
-60.662785
 11
-65.14478
 21
-60.6189
  0
LINE
  8
ボルト／ビス
  6
CONTINUOUS
 62
    64
 10
-65.068778
 20
-60.192285
 11
-65.22993
 21
-60.383652
  0
LINE
  8
ボルト／ビス
  6
CONTINUOUS
 62
    64
 10
-64.737315
 20
-60.471418
 11
-64.89847
 21
-60.662785
  0
CIRCLE
  8
ボルト／ビス
  6
CONTINUOUS
 62
    64
 10
-64.983625
 20
-60.427535
 40
0.216668
  0
ENDBLK
  0
BLOCK
  2
*GRP_0018
 70
    65
 10
0.0
 20
0.0
  0
LINE
  8
補助線
  6
BYBLOCK
 62
    64
 10
28.28597
 20
-74.673905
 11
28.413455
 21
-74.781265
  0
LINE
  8
補助線
  6
BYBLOCK
 62
    64
 10
28.403392
 20
-74.66384
 11
28.296033
 21
-74.791327
  0
LINE
  8
補助線
  6
BYBLOCK
 62
    64
 10
19.795552
 20
-67.523883
 11
19.923037
 21
-67.631238
  0
LINE
  8
補助線
  6
BYBLOCK
 62
    64
 10
19.912975
 20
-67.513818
 11
19.805615
 21
-67.6413
  0
LINE
  8
補助線
  6
BYBLOCK
 62
    64
 10
11.432618
 20
-60.481213
 11
11.305135
 21
-60.373855
  0
LINE
  8
補助線
  6
BYBLOCK
 62
    64
 10
11.422558
 20
-60.36379
 11
11.315198
 21
-60.491277
  0
LINE
  8
型材断面
  6
CONTINUOUS
 10
29.141467
 20
-74.304882
 11
29.201845
 21
-75.009407
  0
LINE
  8
型材断面
  6
CONTINUOUS
 10
29.201845
 20
-75.009407
 11
28.772413
 21
-75.519343
  0
LINE
  8
型材断面
  6
CONTINUOUS
 10
28.772413
 20
-75.519343
 11
28.067887
 21
-75.57972
  0
LINE
  8
型材断面
  6
CONTINUOUS
 10
11.6507
 20
-59.575403
 11
10.946175
 21
-59.63578
  0
LINE
  8
型材断面
  6
CONTINUOUS
 10
10.946175
 20
-59.63578
 11
10.516742
 21
-60.145715
  0
LINE
  8
型材断面
  6
CONTINUOUS
 10
10.516742
 20
-60.145715
 11
10.57712
 21
-60.85024
  0
LINE
  8
型材断面
  6
CONTINUOUS
 10
29.141467
 20
-74.304882
 11
11.6507
 21
-59.575403
  0
LINE
  8
型材断面
  6
CONTINUOUS
 10
28.067887
 20
-75.57972
 11
10.57712
 21
-60.85024
  0
CIRCLE
  8
ボルト／ビス
  6
CONTINUOUS
 10
28.349712
 20
-74.727585
 40
0.250185
  0
CIRCLE
  8
ボルト／ビス
  6
CONTINUOUS
 10
28.349712
 20
-74.727585
 40
0.301025
  0
LINE
  8
ボルト／ビス
  6
CONTINUOUS
 62
    64
 10
28.59602
 20
-74.771468
 11
28.510867
 21
-74.53622
  0
LINE
  8
ボルト／ビス
  6
CONTINUOUS
 62
    64
 10
28.26456
 20
-74.492335
 11
28.510867
 21
-74.53622
  0
LINE
  8
ボルト／ビス
  6
CONTINUOUS
 62
    64
 10
28.434865
 20
-74.962835
 11
28.188558
 21
-74.91895
  0
LINE
  8
ボルト／ビス
  6
CONTINUOUS
 62
    64
 10
28.103405
 20
-74.683702
 11
28.188558
 21
-74.91895
  0
LINE
  8
ボルト／ビス
  6
CONTINUOUS
 62
    64
 10
28.59602
 20
-74.771468
 11
28.434865
 21
-74.962835
  0
LINE
  8
ボルト／ビス
  6
CONTINUOUS
 62
    64
 10
28.26456
 20
-74.492335
 11
28.103405
 21
-74.683702
  0
CIRCLE
  8
ボルト／ビス
  6
CONTINUOUS
 62
    64
 10
28.349712
 20
-74.727585
 40
0.216668
  0
CIRCLE
  8
ボルト／ビス
  6
CONTINUOUS
 10
19.859295
 20
-67.57756
 40
0.250185
  0
CIRCLE
  8
ボルト／ビス
  6
CONTINUOUS
 10
19.859295
 20
-67.57756
 40
0.301025
  0
LINE
  8
ボルト／ビス
  6
CONTINUOUS
 62
    64
 10
20.105602
 20
-67.621443
 11
20.02045
 21
-67.386193
  0
LINE
  8
ボルト／ビス
  6
CONTINUOUS
 62
    64
 10
19.774143
 20
-67.34231
 11
20.02045
 21
-67.386193
  0
LINE
  8
ボルト／ビス
  6
CONTINUOUS
 62
    64
 10
19.944448
 20
-67.81281
 11
19.698137
 21
-67.768927
  0
LINE
  8
ボルト／ビス
  6
CONTINUOUS
 62
    64
 10
19.612988
 20
-67.53368
 11
19.698137
 21
-67.768927
  0
LINE
  8
ボルト／ビス
  6
CONTINUOUS
 62
    64
 10
20.105602
 20
-67.621443
 11
19.944448
 21
-67.81281
  0
LINE
  8
ボルト／ビス
  6
CONTINUOUS
 62
    64
 10
19.774143
 20
-67.34231
 11
19.612988
 21
-67.53368
  0
CIRCLE
  8
ボルト／ビス
  6
CONTINUOUS
 62
    64
 10
19.859295
 20
-67.57756
 40
0.216668
  0
CIRCLE
  8
ボルト／ビス
  6
CONTINUOUS
 10
11.368875
 20
-60.427535
 40
0.250185
  0
CIRCLE
  8
ボルト／ビス
  6
CONTINUOUS
 10
11.368875
 20
-60.427535
 40
0.301025
  0
LINE
  8
ボルト／ビス
  6
CONTINUOUS
 62
    64
 10
11.283722
 20
-60.192285
 11
11.530033
 21
-60.23617
  0
LINE
  8
ボルト／ビス
  6
CONTINUOUS
 62
    64
 10
11.615185
 20
-60.471418
 11
11.530033
 21
-60.23617
  0
LINE
  8
ボルト／ビス
  6
CONTINUOUS
 62
    64
 10
11.12257
 20
-60.383652
 11
11.20772
 21
-60.6189
  0
LINE
  8
ボルト／ビス
  6
CONTINUOUS
 62
    64
 10
11.45403
 20
-60.662785
 11
11.20772
 21
-60.6189
  0
LINE
  8
ボルト／ビス
  6
CONTINUOUS
 62
    64
 10
11.283722
 20
-60.192285
 11
11.12257
 21
-60.383652
  0
LINE
  8
ボルト／ビス
  6
CONTINUOUS
 62
    64
 10
11.615185
 20
-60.471418
 11
11.45403
 21
-60.662785
  0
CIRCLE
  8
ボルト／ビス
  6
CONTINUOUS
 62
    64
 10
11.368875
 20
-60.427535
 40
0.216668
  0
ENDBLK
  0
BLOCK
  2
*GRP_0019
 70
    65
 10
0.0
 20
0.0
  0
LINE
  8
補助線
  6
BYBLOCK
 62
    64
 10
11.43262
 20
-74.673905
 11
11.305135
 21
-74.781265
  0
LINE
  8
補助線
  6
BYBLOCK
 62
    64
 10
11.315198
 20
-74.66384
 11
11.422558
 21
-74.791327
  0
LINE
  8
補助線
  6
BYBLOCK
 62
    64
 10
19.923037
 20
-67.523883
 11
19.795552
 21
-67.631238
  0
LINE
  8
補助線
  6
BYBLOCK
 62
    64
 10
19.805615
 20
-67.513818
 11
19.912975
 21
-67.6413
  0
LINE
  8
補助線
  6
BYBLOCK
 62
    64
 10
28.285973
 20
-60.481213
 11
28.413455
 21
-60.373855
  0
LINE
  8
補助線
  6
BYBLOCK
 62
    64
 10
28.296033
 20
-60.36379
 11
28.403392
 21
-60.491277
  0
LINE
  8
型材断面
  6
CONTINUOUS
 10
10.577123
 20
-74.304882
 11
10.516745
 21
-75.009407
  0
LINE
  8
型材断面
  6
CONTINUOUS
 10
10.516745
 20
-75.009407
 11
10.946177
 21
-75.519343
  0
LINE
  8
型材断面
  6
CONTINUOUS
 10
10.946177
 20
-75.519343
 11
11.650703
 21
-75.57972
  0
LINE
  8
型材断面
  6
CONTINUOUS
 10
28.06789
 20
-59.575403
 11
28.772415
 21
-59.63578
  0
LINE
  8
型材断面
  6
CONTINUOUS
 10
28.772415
 20
-59.63578
 11
29.201848
 21
-60.145715
  0
LINE
  8
型材断面
  6
CONTINUOUS
 10
29.201848
 20
-60.145715
 11
29.14147
 21
-60.85024
  0
LINE
  8
型材断面
  6
CONTINUOUS
 10
10.577123
 20
-74.304882
 11
28.06789
 21
-59.575403
  0
LINE
  8
型材断面
  6
CONTINUOUS
 10
11.650703
 20
-75.57972
 11
29.14147
 21
-60.85024
  0
CIRCLE
  8
ボルト／ビス
  6
CONTINUOUS
 10
11.368878
 20
-74.727585
 40
0.250185
  0
CIRCLE
  8
ボルト／ビス
  6
CONTINUOUS
 10
11.368878
 20
-74.727585
 40
0.301025
  0
LINE
  8
ボルト／ビス
  6
CONTINUOUS
 62
    64
 10
11.12257
 20
-74.771468
 11
11.207723
 21
-74.53622
  0
LINE
  8
ボルト／ビス
  6
CONTINUOUS
 62
    64
 10
11.45403
 20
-74.492335
 11
11.207723
 21
-74.53622
  0
LINE
  8
ボルト／ビス
  6
CONTINUOUS
 62
    64
 10
11.283725
 20
-74.962835
 11
11.530033
 21
-74.91895
  0
LINE
  8
ボルト／ビス
  6
CONTINUOUS
 62
    64
 10
11.615185
 20
-74.683702
 11
11.530033
 21
-74.91895
  0
LINE
  8
ボルト／ビス
  6
CONTINUOUS
 62
    64
 10
11.12257
 20
-74.771468
 11
11.283725
 21
-74.962835
  0
LINE
  8
ボルト／ビス
  6
CONTINUOUS
 62
    64
 10
11.45403
 20
-74.492335
 11
11.615185
 21
-74.683702
  0
CIRCLE
  8
ボルト／ビス
  6
CONTINUOUS
 62
    64
 10
11.368878
 20
-74.727585
 40
0.216668
  0
CIRCLE
  8
ボルト／ビス
  6
CONTINUOUS
 10
19.859295
 20
-67.57756
 40
0.250185
  0
CIRCLE
  8
ボルト／ビス
  6
CONTINUOUS
 10
19.859295
 20
-67.57756
 40
0.301025
  0
LINE
  8
ボルト／ビス
  6
CONTINUOUS
 62
    64
 10
19.612988
 20
-67.621443
 11
19.69814
 21
-67.386193
  0
LINE
  8
ボルト／ビス
  6
CONTINUOUS
 62
    64
 10
19.944448
 20
-67.34231
 11
19.69814
 21
-67.386193
  0
LINE
  8
ボルト／ビス
  6
CONTINUOUS
 62
    64
 10
19.774143
 20
-67.81281
 11
20.020452
 21
-67.768927
  0
LINE
  8
ボルト／ビス
  6
CONTINUOUS
 62
    64
 10
20.105602
 20
-67.53368
 11
20.020452
 21
-67.768927
  0
LINE
  8
ボルト／ビス
  6
CONTINUOUS
 62
    64
 10
19.612988
 20
-67.621443
 11
19.774143
 21
-67.81281
  0
LINE
  8
ボルト／ビス
  6
CONTINUOUS
 62
    64
 10
19.944448
 20
-67.34231
 11
20.105602
 21
-67.53368
  0
CIRCLE
  8
ボルト／ビス
  6
CONTINUOUS
 62
    64
 10
19.859295
 20
-67.57756
 40
0.216668
  0
CIRCLE
  8
ボルト／ビス
  6
CONTINUOUS
 10
28.349715
 20
-60.427535
 40
0.250185
  0
CIRCLE
  8
ボルト／ビス
  6
CONTINUOUS
 10
28.349715
 20
-60.427535
 40
0.301025
  0
LINE
  8
ボルト／ビス
  6
CONTINUOUS
 62
    64
 10
28.434867
 20
-60.192285
 11
28.188558
 21
-60.23617
  0
LINE
  8
ボルト／ビス
  6
CONTINUOUS
 62
    64
 10
28.103405
 20
-60.471418
 11
28.188558
 21
-60.23617
  0
LINE
  8
ボルト／ビス
  6
CONTINUOUS
 62
    64
 10
28.59602
 20
-60.383652
 11
28.51087
 21
-60.6189
  0
LINE
  8
ボルト／ビス
  6
CONTINUOUS
 62
    64
 10
28.26456
 20
-60.662785
 11
28.51087
 21
-60.6189
  0
LINE
  8
ボルト／ビス
  6
CONTINUOUS
 62
    64
 10
28.434867
 20
-60.192285
 11
28.59602
 21
-60.383652
  0
LINE
  8
ボルト／ビス
  6
CONTINUOUS
 62
    64
 10
28.103405
 20
-60.471418
 11
28.26456
 21
-60.662785
  0
CIRCLE
  8
ボルト／ビス
  6
CONTINUOUS
 62
    64
 10
28.349715
 20
-60.427535
 40
0.216668
  0
ENDBLK
  0
BLOCK
  2
*DIM_0020
 70
    65
 10
0.0
 20
0.0
  0
LINE
  8
寸法
  6
CONTINUOUS
 10
135.10293
 20
-44.482233
 11
97.00293
 21
-44.482233
  0
POINT
  8
寸法
 10
135.10293
 20
-44.482233
  0
POINT
  8
寸法
 10
97.00293
 20
-44.482233
  0
TEXT
  7
TextStyle03
  8
寸法
  6
CONTINUOUS
 10
112.76875
 20
-44.125
  1
1143
 40
3.0
 72
     5
 11
119.33125
 21
-44.125
  0
ENDBLK
  0
BLOCK
  2
*DIM_0021
 70
    65
 10
0.0
 20
0.0
  0
LINE
  8
寸法
  6
BYBLOCK
 62
     0
 10
59.193197
 20
-69.076395
 11
59.193197
 21
-59.076395
  0
POINT
  8
寸法
 62
     0
 10
59.193197
 20
-69.076395
  0
POINT
  8
寸法
 62
     0
 10
59.193197
 20
-59.076395
  0
TEXT
  7
TextStyle03
  8
寸法
  6
CONTINUOUS
 62
     0
 10
59.15
 20
-56.31875
  1
上昇294以上
 40
3.0
 50
90.0
 72
     5
 11
59.15
 21
-38.13125
  0
ENDBLK
  0
BLOCK
  2
*DIM_0022
 70
    65
 10
0.0
 20
0.0
  0
LINE
  8
寸法
  6
BYBLOCK
 62
     0
 10
128.93309
 20
61.81515
 11
118.93309
 21
61.81515
  0
POINT
  8
寸法
 62
     0
 10
128.93309
 20
61.81515
  0
POINT
  8
寸法
 62
     0
 10
118.93309
 20
61.81515
  0
TEXT
  7
TextStyle03
  8
寸法
  6
CONTINUOUS
 62
     0
 10
97.43125
 20
60.825
  1
上昇294以上
 40
3.0
 72
     5
 11
115.61875
 21
60.825
  0
ENDBLK
  0
BLOCK
  2
*DIM_0023
 70
    65
 10
0.0
 20
0.0
  0
LINE
  8
寸法
  6
CONTINUOUS
 10
140.10293
 20
-53.785395
 11
148.660888
 21
-53.785395
  0
LINE
  8
寸法
  6
CONTINUOUS
 10
140.10293
 20
-83.785395
 11
148.660888
 21
-83.785395
  0
LINE
  8
寸法
  6
CONTINUOUS
 10
148.660888
 20
-53.785395
 11
148.660888
 21
-83.785395
  0
POINT
  8
寸法
 10
148.660888
 20
-53.785395
  0
POINT
  8
寸法
 10
148.660888
 20
-83.785395
  0
TEXT
  7
TextStyle03
  8
寸法
  6
CONTINUOUS
 10
148.275
 20
-71.2375
  1
900
 40
3.0
 50
90.0
 72
     5
 11
148.275
 21
-66.3625
  0
ENDBLK
  0
BLOCK
  2
*DIM_0024
 70
    65
 10
0.0
 20
0.0
  0
LINE
  8
寸法
  6
CONTINUOUS
 10
46.691887
 20
-69.076395
 11
59.193197
 21
-69.076395
  0
LINE
  8
寸法
  6
CONTINUOUS
 10
47.779712
 20
-77.192947
 11
59.193197
 21
-77.192947
  0
LINE
  8
寸法
  6
CONTINUOUS
 10
59.193197
 20
-69.076395
 11
59.193197
 21
-77.192947
  0
POINT
  8
寸法
 10
59.193197
 20
-69.076395
  0
POINT
  8
寸法
 10
59.193197
 20
-77.192947
  0
TEXT
  7
TextStyle03
  8
寸法
  6
CONTINUOUS
 10
62.2
 20
-77.275
  1
243.5
 40
3.0
 50
90.0
 72
     5
 11
62.2
 21
-69.025
  0
ENDBLK
  0
BLOCK
  2
*DIM_0025
 70
    65
 10
0.0
 20
0.0
  0
LINE
  8
寸法
  6
CONTINUOUS
 10
128.93309
 20
57.814033
 11
128.93309
 21
61.81515
  0
LINE
  8
寸法
  6
CONTINUOUS
 10
137.049642
 20
57.814033
 11
137.049642
 21
61.81515
  0
LINE
  8
寸法
  6
CONTINUOUS
 10
128.93309
 20
61.81515
 11
137.049642
 21
61.81515
  0
POINT
  8
寸法
 10
128.93309
 20
61.81515
  0
POINT
  8
寸法
 10
137.049642
 20
61.81515
  0
TEXT
  7
TextStyle03
  8
寸法
  6
CONTINUOUS
 10
128.85
 20
62.175
  1
243.5
 40
3.0
 72
     5
 11
137.1
 21
62.175
  0
ENDBLK
  0
ENDSEC
  0
SECTION
  2
ENTITIES
  0
POLYLINE
  8
通り芯
  6
CONTINUOUS
 66
     1
 70
     1
  0
VERTEX
  8
通り芯
 10
-210.0
 20
-148.5
  0
VERTEX
  8
通り芯
 10
210.0
 20
-148.5
  0
VERTEX
  8
通り芯
 10
210.0
 20
148.5
  0
VERTEX
  8
通り芯
 10
-210.0
 20
148.5
  0
SEQEND
  0
INSERT
  2
*GRP_0001
  8
型材断面
  6
CONTINUOUS
 10
0.0
 20
0.0
  0
LINE
  8
型材断面
  6
DASHDOT
 10
40.016375
 20
-77.836442
 11
40.016375
 21
52.814033
  0
LINE
  8
型材断面
  6
DASHDOT
 10
-18.316957
 20
-77.836442
 11
-18.316957
 21
52.814033
  0
LINE
  8
型材断面
  6
DASHDOT
 10
-76.650292
 20
-77.836442
 11
-76.650292
 21
52.814033
  0
LINE
  8
型材断面
  6
DASHDOT
 10
137.693138
 20
22.814033
 11
-76.650292
 21
22.814033
  0
LINE
  8
型材断面
  6
DASHDOT
 10
137.693138
 20
37.814033
 11
-76.650292
 21
37.814033
  0
LINE
  8
型材断面
  6
DASHDOT
 10
137.693138
 20
52.814033
 11
-76.650292
 21
52.814033
  0
POLYLINE
  8
型材断面
  6
CONTINUOUS
 66
     1
 70
     1
  0
VERTEX
  8
型材断面
 10
-8.770652
 20
13.03811
  0
VERTEX
  8
型材断面
 10
-27.542583
 20
13.03811
  0
VERTEX
  8
型材断面
 10
-27.542583
 20
8.301267
  0
VERTEX
  8
型材断面
 10
-8.770652
 20
8.301267
  0
SEQEND
  0
POLYLINE
  8
型材断面
  6
CONTINUOUS
 66
     1
 70
     1
  0
VERTEX
  8
型材断面
 10
-8.770652
 20
62.589955
  0
VERTEX
  8
型材断面
 10
-27.542583
 20
62.589955
  0
VERTEX
  8
型材断面
 10
-27.542583
 20
67.326798
  0
VERTEX
  8
型材断面
 10
-8.770652
 20
67.326798
  0
SEQEND
  0
LINE
  8
型材断面
  6
CONTINUOUS
 10
-130.528815
 20
90.791505
 11
-129.93276
 21
88.200998
  0
LINE
  8
型材断面
  6
CONTINUOUS
 10
-130.528815
 20
90.791505
 11
-131.124873
 21
88.200998
  0
LINE
  8
型材断面
  6
CONTINUOUS
 10
-131.124873
 20
88.200998
 11
-129.93276
 21
88.200998
  0
LINE
  8
型材断面
  6
CONTINUOUS
 10
-136.551403
 20
84.922105
 11
-90.309625
 21
84.922105
  0
LINE
  8
型材断面
  6
CONTINUOUS
 10
-130.528815
 20
97.32138
 11
-132.024445
 21
94.730873
  0
LINE
  8
型材断面
  6
CONTINUOUS
 10
-130.528815
 20
97.32138
 11
-129.033185
 21
94.730873
  0
LINE
  8
型材断面
  6
CONTINUOUS
 10
-129.033185
 20
94.730873
 11
-132.024445
 21
94.730873
  0
LINE
  8
型材断面
  6
CONTINUOUS
 10
-136.551403
 20
93.792277
 11
-90.309625
 21
93.792277
  0
LINE
  8
型材断面
  6
CONTINUOUS
 10
-136.551403
 20
79.134073
 11
-90.309625
 21
79.134073
  0
LINE
  8
型材断面
  6
CONTINUOUS
 10
-136.551403
 20
73.34604
 11
-90.309625
 21
73.34604
  0
INSERT
  2
*GRP_0016
  8
型材断面
  6
CONTINUOUS
 10
0.0
 20
0.0
  0
INSERT
  2
*GRP_0017
  8
型材断面
  6
CONTINUOUS
 10
0.0
 20
0.0
  0
INSERT
  2
*GRP_0018
  8
型材断面
  6
CONTINUOUS
 10
0.0
 20
0.0
  0
INSERT
  2
*GRP_0019
  8
型材断面
  6
CONTINUOUS
 10
0.0
 20
0.0
  0
LINE
  8
型材断面
  6
CONTINUOUS
 10
-79.413627
 20
20.050845
 11
42.77971
 21
20.050845
  0
LINE
  8
型材断面
  6
CONTINUOUS
 10
-79.413627
 20
55.577218
 11
42.77971
 21
55.577218
  0
LINE
  8
型材断面
  6
CONTINUOUS
 10
-79.413627
 20
37.81403
 11
-82.004135
 21
39.30966
  0
LINE
  8
型材断面
  6
CONTINUOUS
 10
-79.413627
 20
37.81403
 11
-82.004135
 21
36.3184
  0
LINE
  8
型材断面
  6
CONTINUOUS
 10
-82.004135
 20
36.3184
 11
-82.004135
 21
39.30966
  0
LINE
  8
型材断面
  6
CONTINUOUS
 10
-79.413625
 20
49.114033
 11
-82.004135
 21
48.51798
  0
LINE
  8
型材断面
  6
CONTINUOUS
 10
-79.413625
 20
49.114033
 11
-82.004133
 21
49.710093
  0
LINE
  8
型材断面
  6
CONTINUOUS
 10
-82.004133
 20
49.710093
 11
-82.004135
 21
48.51798
  0
LINE
  8
型材断面
  6
CONTINUOUS
 10
-79.413625
 20
26.514027
 11
-82.004135
 21
27.11008
  0
LINE
  8
型材断面
  6
CONTINUOUS
 10
-79.413625
 20
26.514027
 11
-82.004133
 21
25.917967
  0
LINE
  8
型材断面
  6
CONTINUOUS
 10
-82.004133
 20
25.917967
 11
-82.004135
 21
27.11008
  0
LINE
  8
型材断面
  6
CONTINUOUS
 10
-59.983625
 20
55.577218
 11
-61.479255
 21
58.167725
  0
LINE
  8
型材断面
  6
CONTINUOUS
 10
-59.983625
 20
55.577218
 11
-58.487995
 21
58.167725
  0
LINE
  8
型材断面
  6
CONTINUOUS
 10
-58.487995
 20
58.167725
 11
-61.479255
 21
58.167725
  0
LINE
  8
型材断面
  6
CONTINUOUS
 10
23.34971
 20
55.577218
 11
24.84534
 21
58.167725
  0
LINE
  8
型材断面
  6
CONTINUOUS
 10
23.34971
 20
55.577218
 11
21.85408
 21
58.167725
  0
LINE
  8
型材断面
  6
CONTINUOUS
 10
21.85408
 20
58.167725
 11
24.84534
 21
58.167725
  0
LINE
  8
型材断面
  6
CONTINUOUS
 10
42.77971
 20
37.814033
 11
45.370218
 21
39.309663
  0
LINE
  8
型材断面
  6
CONTINUOUS
 10
42.77971
 20
37.814033
 11
45.370218
 21
36.318403
  0
LINE
  8
型材断面
  6
CONTINUOUS
 10
45.370218
 20
36.318403
 11
45.370218
 21
39.309663
  0
LINE
  8
型材断面
  6
CONTINUOUS
 10
42.779708
 20
49.114035
 11
45.370218
 21
48.517982
  0
LINE
  8
型材断面
  6
CONTINUOUS
 10
42.779708
 20
49.114035
 11
45.370215
 21
49.710095
  0
LINE
  8
型材断面
  6
CONTINUOUS
 10
45.370215
 20
49.710095
 11
45.370218
 21
48.517982
  0
LINE
  8
型材断面
  6
CONTINUOUS
 10
42.779708
 20
26.51403
 11
45.370218
 21
27.110082
  0
LINE
  8
型材断面
  6
CONTINUOUS
 10
42.779708
 20
26.51403
 11
45.370215
 21
25.91797
  0
LINE
  8
型材断面
  6
CONTINUOUS
 10
45.370215
 20
25.91797
 11
45.370218
 21
27.110082
  0
LINE
  8
型材断面
  6
CONTINUOUS
 10
-59.983625
 20
20.050845
 11
-61.479255
 21
17.460338
  0
LINE
  8
型材断面
  6
CONTINUOUS
 10
-59.983625
 20
20.050845
 11
-58.487995
 21
17.460338
  0
LINE
  8
型材断面
  6
CONTINUOUS
 10
-58.487995
 20
17.460338
 11
-61.479255
 21
17.460338
  0
LINE
  8
型材断面
  6
CONTINUOUS
 10
23.34971
 20
20.050845
 11
24.84534
 21
17.460338
  0
LINE
  8
型材断面
  6
CONTINUOUS
 10
23.34971
 20
20.050845
 11
21.85408
 21
17.460338
  0
LINE
  8
型材断面
  6
CONTINUOUS
 10
21.85408
 20
17.460338
 11
24.84534
 21
17.460338
  0
LINE
  8
型材断面
  6
DASHDOT
 10
1.323045
 20
22.814033
 11
1.323045
 21
52.814033
  0
LINE
  8
型材断面
  6
CONTINUOUS
 10
2.573045
 20
24.314038
 11
2.573045
 21
51.314027
  0
LINE
  8
型材断面
  6
CONTINUOUS
 10
0.073045
 20
24.31404
 11
0.073045
 21
51.314025
  0
LINE
  8
型材断面
  6
CONTINUOUS
 10
20.253043
 20
23.480693
 11
-17.90029
 21
23.48072
  0
LINE
  8
型材断面
  6
CONTINUOUS
 10
20.253043
 20
52.147372
 11
-17.90029
 21
52.147345
  0
LINE
  8
型材断面
  6
CONTINUOUS
 10
42.779712
 20
20.050845
 11
42.779712
 21
55.577218
  0
LINE
  8
型材断面
  6
CONTINUOUS
 10
41.614033
 20
20.980677
 11
41.849733
 21
21.216378
  0
LINE
  8
型材断面
  6
CONTINUOUS
 10
39.11403
 20
23.480677
 11
39.34973
 21
23.716378
  0
LINE
  8
型材断面
  6
CONTINUOUS
 10
39.34973
 20
23.716378
 11
41.849733
 21
21.216378
  0
LINE
  8
型材断面
  6
CONTINUOUS
 10
39.11403
 20
23.480677
 11
41.614033
 21
20.980677
  0
LINE
  8
型材断面
  6
CONTINUOUS
 10
42.779565
 20
20.050845
 11
41.73188
 21
21.098525
  0
LINE
  8
型材断面
  6
CONTINUOUS
 10
41.84971
 20
37.814033
 11
41.849733
 21
21.216378
  0
LINE
  8
型材断面
  6
CONTINUOUS
 10
41.614033
 20
54.647387
 11
41.849733
 21
54.411687
  0
LINE
  8
型材断面
  6
CONTINUOUS
 10
39.34973
 20
51.911687
 11
41.849733
 21
54.411687
  0
LINE
  8
型材断面
  6
CONTINUOUS
 10
42.779565
 20
55.57722
 11
41.73188
 21
54.52954
  0
LINE
  8
型材断面
  6
CONTINUOUS
 10
39.11403
 20
52.147387
 11
39.34973
 21
51.911687
  0
LINE
  8
型材断面
  6
CONTINUOUS
 10
41.84971
 20
37.814033
 11
41.849733
 21
54.411687
  0
LINE
  8
型材断面
  6
CONTINUOUS
 10
39.11403
 20
52.147387
 11
41.614033
 21
54.647387
  0
LINE
  8
型材断面
  6
CONTINUOUS
 10
39.34971
 20
38.2307
 11
41.84971
 21
38.2307
  0
LINE
  8
型材断面
  6
CONTINUOUS
 10
39.34971
 20
37.397365
 11
41.84971
 21
37.397365
  0
LINE
  8
型材断面
  6
CONTINUOUS
 10
39.34971
 20
37.397365
 11
39.34973
 21
23.716378
  0
LINE
  8
型材断面
  6
CONTINUOUS
 10
39.34971
 20
38.2307
 11
39.34973
 21
51.911687
  0
LINE
  8
型材断面
  6
CONTINUOUS
 10
-18.316957
 20
54.647343
 11
41.614033
 21
54.647387
  0
LINE
  8
型材断面
  6
CONTINUOUS
 10
21.086377
 20
52.147375
 11
39.11403
 21
52.147387
  0
LINE
  8
型材断面
  6
CONTINUOUS
 10
21.086377
 20
23.48069
 11
39.11403
 21
23.480677
  0
LINE
  8
型材断面
  6
CONTINUOUS
 10
-18.316957
 20
20.980723
 11
41.614033
 21
20.980677
  0
LINE
  8
型材断面
  6
DASHDOT
 10
-37.95696
 20
22.814033
 11
-37.95696
 21
52.814033
  0
LINE
  8
型材断面
  6
CONTINUOUS
 10
-39.20696
 20
24.314038
 11
-39.20696
 21
51.314027
  0
LINE
  8
型材断面
  6
CONTINUOUS
 10
-36.70696
 20
24.31404
 11
-36.70696
 21
51.314025
  0
LINE
  8
型材断面
  6
CONTINUOUS
 10
-79.413627
 20
20.050845
 11
-79.413627
 21
55.577218
  0
LINE
  8
型材断面
  6
CONTINUOUS
 10
-78.247948
 20
20.980677
 11
-78.483648
 21
21.216378
  0
LINE
  8
型材断面
  6
CONTINUOUS
 10
-75.747945
 20
23.480677
 11
-75.983645
 21
23.716378
  0
LINE
  8
型材断面
  6
CONTINUOUS
 10
-75.983645
 20
23.716378
 11
-78.483648
 21
21.216378
  0
LINE
  8
型材断面
  6
CONTINUOUS
 10
-75.747945
 20
23.480677
 11
-78.247948
 21
20.980677
  0
LINE
  8
型材断面
  6
CONTINUOUS
 10
-79.41348
 20
20.050845
 11
-78.365795
 21
21.098525
  0
LINE
  8
型材断面
  6
CONTINUOUS
 10
-78.483625
 20
37.814033
 11
-78.483648
 21
21.216378
  0
LINE
  8
型材断面
  6
CONTINUOUS
 10
-78.247948
 20
54.647387
 11
-78.483648
 21
54.411687
  0
LINE
  8
型材断面
  6
CONTINUOUS
 10
-75.983645
 20
51.911687
 11
-78.483648
 21
54.411687
  0
LINE
  8
型材断面
  6
CONTINUOUS
 10
-79.41348
 20
55.57722
 11
-78.365795
 21
54.52954
  0
LINE
  8
型材断面
  6
CONTINUOUS
 10
-75.747945
 20
52.147387
 11
-75.983645
 21
51.911687
  0
LINE
  8
型材断面
  6
CONTINUOUS
 10
-78.483625
 20
37.814033
 11
-78.483648
 21
54.411687
  0
LINE
  8
型材断面
  6
CONTINUOUS
 10
-75.747945
 20
52.147387
 11
-78.247948
 21
54.647387
  0
LINE
  8
型材断面
  6
CONTINUOUS
 10
-75.983625
 20
38.2307
 11
-78.483625
 21
38.2307
  0
LINE
  8
型材断面
  6
CONTINUOUS
 10
-75.983625
 20
37.397365
 11
-78.483625
 21
37.397365
  0
LINE
  8
型材断面
  6
CONTINUOUS
 10
-75.983625
 20
37.397365
 11
-75.983645
 21
23.716378
  0
LINE
  8
型材断面
  6
CONTINUOUS
 10
-75.983625
 20
38.2307
 11
-75.983645
 21
51.911687
  0
LINE
  8
型材断面
  6
CONTINUOUS
 10
-57.720292
 20
52.147375
 11
-75.747945
 21
52.147387
  0
LINE
  8
型材断面
  6
CONTINUOUS
 10
-57.720292
 20
23.48069
 11
-75.747945
 21
23.480677
  0
LINE
  8
型材断面
  6
CONTINUOUS
 10
-18.733625
 20
52.147345
 11
-56.886957
 21
52.147372
  0
LINE
  8
型材断面
  6
CONTINUOUS
 10
-18.733625
 20
23.48072
 11
-56.886957
 21
23.480693
  0
LINE
  8
型材断面
  6
CONTINUOUS
 10
-18.316957
 20
54.647343
 11
-78.247948
 21
54.647387
  0
LINE
  8
型材断面
  6
CONTINUOUS
 10
-18.316957
 20
20.980723
 11
-78.247948
 21
20.980677
  0
LINE
  8
型材断面
  6
CONTINUOUS
 10
42.279712
 20
-77.192947
 11
42.279712
 21
-77.529612
  0
LINE
  8
型材断面
  6
CONTINUOUS
 10
42.583045
 20
-73.096397
 11
42.779712
 21
-73.293065
  0
LINE
  8
型材断面
  6
CONTINUOUS
 10
42.779712
 20
-73.293065
 11
42.779712
 21
-77.192947
  0
LINE
  8
型材断面
  6
CONTINUOUS
 10
137.049642
 20
55.07722
 11
137.386307
 21
55.07722
  0
LINE
  8
型材断面
  6
CONTINUOUS
 10
132.953092
 20
55.380552
 11
133.14976
 21
55.57722
  0
LINE
  8
型材断面
  6
CONTINUOUS
 10
133.14976
 20
55.57722
 11
137.049642
 21
55.57722
  0
LINE
  8
型材断面
  6
CONTINUOUS
 10
137.386307
 20
55.07722
 11
137.386307
 21
37.814033
  0
LINE
  8
型材断面
  6
CONTINUOUS
 10
137.049642
 20
55.57722
 11
137.049642
 21
37.814033
  0
LINE
  8
型材断面
  6
CONTINUOUS
 62
    47
 10
132.953138
 20
55.380595
 11
132.953138
 21
37.814033
  0
LINE
  8
型材断面
  6
CONTINUOUS
 10
133.14976
 20
55.57722
 11
133.14976
 21
37.814033
  0
LINE
  8
型材断面
  6
CONTINUOUS
 10
137.049642
 20
20.550845
 11
137.386307
 21
20.550845
  0
LINE
  8
型材断面
  6
CONTINUOUS
 10
132.953092
 20
20.247513
 11
133.14976
 21
20.050845
  0
LINE
  8
型材断面
  6
CONTINUOUS
 10
133.14976
 20
20.050845
 11
137.049642
 21
20.050845
  0
LINE
  8
型材断面
  6
CONTINUOUS
 10
137.386307
 20
20.550845
 11
137.386307
 21
37.814033
  0
LINE
  8
型材断面
  6
CONTINUOUS
 10
137.049642
 20
20.050845
 11
137.049642
 21
37.814033
  0
LINE
  8
型材断面
  6
CONTINUOUS
 62
    47
 10
132.953138
 20
20.24747
 11
132.953138
 21
37.814033
  0
LINE
  8
型材断面
  6
CONTINUOUS
 10
133.14976
 20
20.050845
 11
133.14976
 21
37.814033
  0
LINE
  8
型材断面
  6
CONTINUOUS
 10
42.279712
 20
-77.529612
 11
-18.316957
 21
-77.529612
  0
LINE
  8
型材断面
  6
CONTINUOUS
 10
42.779712
 20
-77.192947
 11
-18.316957
 21
-77.192947
  0
LINE
  8
型材断面
  6
CONTINUOUS
 62
    47
 10
42.583087
 20
-73.096443
 11
-18.316957
 21
-73.096443
  0
LINE
  8
型材断面
  6
CONTINUOUS
 10
42.779712
 20
-73.293065
 11
-18.316957
 21
-73.293065
  0
LINE
  8
型材断面
  6
CONTINUOUS
 10
-78.913627
 20
-77.192947
 11
-78.913627
 21
-77.529612
  0
LINE
  8
型材断面
  6
CONTINUOUS
 10
-79.21696
 20
-73.096397
 11
-79.413627
 21
-73.293065
  0
LINE
  8
型材断面
  6
CONTINUOUS
 10
-79.413627
 20
-73.293065
 11
-79.413627
 21
-77.192947
  0
LINE
  8
型材断面
  6
CONTINUOUS
 10
-78.913627
 20
-77.529612
 11
-18.316957
 21
-77.529612
  0
LINE
  8
型材断面
  6
CONTINUOUS
 10
-79.413627
 20
-77.192947
 11
-18.316957
 21
-77.192947
  0
LINE
  8
型材断面
  6
CONTINUOUS
 62
    47
 10
-79.217003
 20
-73.096443
 11
-18.316957
 21
-73.096443
  0
LINE
  8
型材断面
  6
CONTINUOUS
 10
-79.413627
 20
-73.293065
 11
-18.316957
 21
-73.293065
  0
TEXT
  7
TextStyle03
  8
文字
  6
CONTINUOUS
 10
-26.45
 20
9.325
  1
可動装置側
 40
3.0
 72
     5
 11
-9.95
 21
9.325
  0
TEXT
  7
TextStyle03
  8
文字
  6
CONTINUOUS
 10
-26.45
 20
63.275
  1
可動装置側
 40
3.0
 72
     5
 11
-9.95
 21
63.275
  0
TEXT
  7
TextStyle03
  8
文字
  6
CONTINUOUS
 10
-127.75
 20
89.4
  1
はケーシング位置を示す
 40
3.0
 72
     5
 11
-91.0
 21
89.4
  0
TEXT
  7
TextStyle03
  8
文字
  6
CONTINUOUS
 10
-127.75
 20
86.025
  1
４ヶ所中1ヶ所に設定
 40
3.0
 72
     5
 11
-96.0625
 21
86.025
  0
TEXT
  7
TextStyle03
  8
文字
  6
CONTINUOUS
 10
-127.75
 20
94.925
  1
は排水穴位置を示す
 40
3.0
 72
     5
 11
-97.75
 21
94.925
  0
TEXT
  7
TextStyle03
  8
文字
  6
CONTINUOUS
 10
-97.65
 20
16.275
  1
アンカーピッチ
 40
3.0
 50
90.0
 72
     5
 11
-97.65
 21
39.525
  0
TEXT
  7
TextStyle03
  8
文字
  6
CONTINUOUS
 10
-65.5
 20
89.75
  1
アンカーピッチ
 40
3.0
 72
     5
 11
-42.25
 21
89.75
  0
TEXT
  7
TextStyle03
  8
文字
  6
CONTINUOUS
 10
-131.475
 20
80.05
  1
アンカー数量　１４ヶ所
 40
3.0
 72
     5
 11
-94.725
 21
80.05
  0
TEXT
  7
TextStyle03
  8
文字
  6
CONTINUOUS
 10
-131.525
 20
74.3
  1
アームユニット数　４ヶ所
 40
3.0
 72
     5
 11
-91.4
 21
74.3
  0
LINE
  8
文字
  6
CONTINUOUS
 10
-79.413627
 20
-70.743062
 11
-79.413627
 21
-12.609317
  0
LINE
  8
文字
  6
CONTINUOUS
 10
42.77971
 20
-70.743062
 11
42.77971
 21
-12.609317
  0
LINE
  8
文字
  6
CONTINUOUS
 10
131.145402
 20
55.577218
 11
74.036025
 21
55.577218
  0
LINE
  8
文字
  6
CONTINUOUS
 10
131.145402
 20
20.050845
 11
74.036025
 21
20.050845
  0
LINE
  8
文字
  6
CONTINUOUS
 10
118.93309
 20
61.81515
 11
118.93309
 21
56.902377
  0
LINE
  8
文字
  6
CONTINUOUS
 10
59.193197
 20
-59.076395
 11
45.589517
 21
-59.076395
  0
LINE
  8
文字
  6
CONTINUOUS
 10
135.10293
 20
-44.482233
 11
135.10293
 21
-52.68012
  0
LINE
  8
文字
  6
CONTINUOUS
 10
97.00293
 20
-44.482233
 11
97.00293
 21
-52.68012
  0
TEXT
  7
TextStyle03
  8
文字
  6
CONTINUOUS
 10
116.575
 20
-77.375
  1
網入り6.8t
 40
3.0
 72
     5
 11
133.2625
 21
-77.375
  0
TEXT
  7
TextStyle03
  8
文字
  6
CONTINUOUS
 10
123.25
 20
-82.05
  1
×３枚
 40
3.0
 72
     5
 11
133.0
 21
-82.05
  0
LINE
  8
文字
  6
CONTINUOUS
 10
2.573045
 20
24.314038
 11
0.073045
 21
24.31404
  0
LINE
  8
文字
  6
CONTINUOUS
 10
2.573045
 20
51.314027
 11
0.073045
 21
51.314025
  0
LINE
  8
文字
  6
CONTINUOUS
 10
21.086377
 20
23.48069
 11
21.086377
 21
20.980693
  0
LINE
  8
文字
  6
CONTINUOUS
 10
20.253043
 20
23.480693
 11
20.253043
 21
20.980693
  0
LINE
  8
文字
  6
CONTINUOUS
 10
-17.90029
 20
23.48069
 11
-17.90029
 21
20.980693
  0
LINE
  8
文字
  6
CONTINUOUS
 10
-18.733625
 20
23.480693
 11
-18.733625
 21
20.980693
  0
LINE
  8
文字
  6
CONTINUOUS
 10
21.086377
 20
52.147375
 11
21.086377
 21
54.647372
  0
LINE
  8
文字
  6
CONTINUOUS
 10
20.253043
 20
52.147372
 11
20.253043
 21
54.647372
  0
LINE
  8
文字
  6
CONTINUOUS
 10
-17.90029
 20
52.147375
 11
-17.90029
 21
54.647372
  0
LINE
  8
文字
  6
CONTINUOUS
 10
-18.733625
 20
52.147372
 11
-18.733625
 21
54.647372
  0
LINE
  8
文字
  6
CONTINUOUS
 10
-39.20696
 20
24.314038
 11
-36.70696
 21
24.31404
  0
LINE
  8
文字
  6
CONTINUOUS
 10
-39.20696
 20
51.314027
 11
-36.70696
 21
51.314025
  0
LINE
  8
文字
  6
CONTINUOUS
 10
-57.720292
 20
23.48069
 11
-57.720292
 21
20.980693
  0
LINE
  8
文字
  6
CONTINUOUS
 10
-56.886957
 20
23.480693
 11
-56.886957
 21
20.980693
  0
LINE
  8
文字
  6
CONTINUOUS
 10
-57.720292
 20
52.147375
 11
-57.720292
 21
54.647372
  0
LINE
  8
文字
  6
CONTINUOUS
 10
-56.886957
 20
52.147372
 11
-56.886957
 21
54.647372
  0
TEXT
  7
TextStyle03
  8
文字
  6
CONTINUOUS
 10
63.175
 20
125.25
  1
シリーズ：ＴＦＦＬ
 40
5.0
 72
     5
 11
113.175
 21
125.25
  0
TEXT
  7
TextStyle03
  8
文字
  6
CONTINUOUS
 10
63.175
 20
119.625
  1
　　　　　（上下可動）900×3500タイプ
 40
5.0
 72
     5
 11
166.6125
 21
119.625
  0
TEXT
  7
TextStyle03
  8
文字
  6
CONTINUOUS
 10
63.175
 20
114.0
  1
図面名　：外観姿図
 40
5.0
 72
     5
 11
113.175
 21
114.0
  0
TEXT
  7
TextStyle03
  8
文字
  6
CONTINUOUS
 10
63.175
 20
108.375
  1
　　　　　　
 40
5.0
 72
     5
 11
96.3
 21
108.375
  0
TEXT
  7
TextStyle03
  8
文字
  6
CONTINUOUS
 10
63.325
 20
104.525
  1
ＮＳコード：ＮＳＦＬ
 40
5.0
 72
     5
 11
118.95
 21
104.525
  0
INSERT
  2
*DIM_0002
  8
寸法
  6
CONTINUOUS
 10
0.0
 20
0.0
  0
INSERT
  2
*DIM_0003
  8
寸法
  6
CONTINUOUS
 10
0.0
 20
0.0
  0
INSERT
  2
*DIM_0004
  8
寸法
  6
CONTINUOUS
 10
0.0
 20
0.0
  0
INSERT
  2
*DIM_0005
  8
寸法
  6
CONTINUOUS
 10
0.0
 20
0.0
  0
INSERT
  2
*DIM_0006
  8
寸法
  6
CONTINUOUS
 10
0.0
 20
0.0
  0
INSERT
  2
*DIM_0007
  8
寸法
  6
CONTINUOUS
 10
0.0
 20
0.0
  0
INSERT
  2
*DIM_0008
  8
寸法
  6
CONTINUOUS
 10
0.0
 20
0.0
  0
INSERT
  2
*DIM_0009
  8
寸法
  6
CONTINUOUS
 10
0.0
 20
0.0
  0
INSERT
  2
*DIM_0010
  8
寸法
  6
CONTINUOUS
 10
0.0
 20
0.0
  0
INSERT
  2
*DIM_0011
  8
寸法
  6
CONTINUOUS
 10
0.0
 20
0.0
  0
INSERT
  2
*DIM_0012
  8
寸法
  6
CONTINUOUS
 10
0.0
 20
0.0
  0
INSERT
  2
*DIM_0013
  8
寸法
  6
CONTINUOUS
 10
0.0
 20
0.0
  0
INSERT
  2
*DIM_0014
  8
寸法
  6
CONTINUOUS
 10
0.0
 20
0.0
  0
INSERT
  2
*DIM_0015
  8
寸法
  6
CONTINUOUS
 10
0.0
 20
0.0
  0
INSERT
  2
*DIM_0020
  8
寸法
  6
CONTINUOUS
 10
0.0
 20
0.0
  0
INSERT
  2
*DIM_0021
  8
寸法
  6
CONTINUOUS
 10
0.0
 20
0.0
  0
INSERT
  2
*DIM_0022
  8
寸法
  6
CONTINUOUS
 10
0.0
 20
0.0
  0
INSERT
  2
*DIM_0023
  8
寸法
  6
CONTINUOUS
 10
0.0
 20
0.0
  0
INSERT
  2
*DIM_0024
  8
寸法
  6
CONTINUOUS
 10
0.0
 20
0.0
  0
INSERT
  2
*DIM_0025
  8
寸法
  6
CONTINUOUS
 10
0.0
 20
0.0
  0
LINE
  8
別途部材
  6
CONTINUOUS
 62
    47
 10
-78.48363
 20
-69.176395
 11
-78.48363
 21
-69.243062
  0
ARC
  8
別途部材
  6
CONTINUOUS
 62
    47
 10
-78.383628
 20
-69.176397
 40
0.1
 50
90.0
 51
180.0
  0
LINE
  8
別途部材
  6
CONTINUOUS
 62
    47
 10
-78.327107
 20
-69.243062
 11
-78.327107
 21
-70.743062
  0
LINE
  8
別途部材
  6
CONTINUOUS
 62
    47
 10
41.849712
 20
-69.176395
 11
41.849712
 21
-69.243062
  0
ARC
  8
別途部材
  6
CONTINUOUS
 62
    47
 10
41.749708
 20
-69.176397
 40
0.1
 50
0.0
 51
90.0
  0
LINE
  8
別途部材
  6
CONTINUOUS
 62
    47
 10
41.69319
 20
-69.243062
 11
41.69319
 21
-70.743062
  0
LINE
  8
別途部材
  6
CONTINUOUS
 62
    47
 10
-78.38363
 20
-69.076395
 11
-18.316957
 21
-69.076395
  0
LINE
  8
別途部材
  6
CONTINUOUS
 62
    47
 10
-78.48363
 20
-69.243062
 11
-18.316957
 21
-69.243062
  0
LINE
  8
別途部材
  6
CONTINUOUS
 62
    47
 10
-78.327107
 20
-70.743062
 11
-18.316957
 21
-70.743062
  0
LINE
  8
別途部材
  6
CONTINUOUS
 62
    47
 10
-79.413627
 20
-71.893065
 11
-18.316957
 21
-71.893065
  0
LINE
  8
別途部材
  6
CONTINUOUS
 62
    47
 10
-79.413627
 20
-73.05973
 11
-18.316957
 21
-73.05973
  0
LINE
  8
別途部材
  6
CONTINUOUS
 62
    47
 10
42.77971
 20
-73.05973
 11
-18.316957
 21
-73.05973
  0
LINE
  8
別途部材
  6
CONTINUOUS
 62
    47
 10
42.77971
 20
-71.893065
 11
-18.316957
 21
-71.893065
  0
LINE
  8
別途部材
  6
CONTINUOUS
 62
    47
 10
41.69319
 20
-70.743062
 11
-18.316957
 21
-70.743062
  0
LINE
  8
別途部材
  6
CONTINUOUS
 62
    47
 10
41.849712
 20
-69.243062
 11
-18.316957
 21
-69.243062
  0
LINE
  8
別途部材
  6
CONTINUOUS
 62
    47
 10
41.749712
 20
-69.076395
 11
-18.316957
 21
-69.076395
  0
LINE
  8
別途部材
  6
CONTINUOUS
 62
    47
 10
129.03309
 20
54.64722
 11
129.099757
 21
54.64722
  0
ARC
  8
別途部材
  6
CONTINUOUS
 62
    47
 10
129.033094
 20
54.547219
 40
0.1
 50
90.0
 51
180.0
  0
LINE
  8
別途部材
  6
CONTINUOUS
 62
    47
 10
129.099757
 20
54.490697
 11
130.599757
 21
54.490697
  0
LINE
  8
別途部材
  6
CONTINUOUS
 62
    47
 10
129.03309
 20
20.980842
 11
129.099757
 21
20.980842
  0
ARC
  8
別途部材
  6
CONTINUOUS
 62
    47
 10
129.033094
 20
21.080843
 40
0.1
 50
180.0
 51
270.0
  0
LINE
  8
別途部材
  6
CONTINUOUS
 62
    47
 10
129.099757
 20
21.137365
 11
130.599757
 21
21.137365
  0
LINE
  8
別途部材
  6
CONTINUOUS
 62
    47
 10
132.916425
 20
55.577218
 11
132.916425
 21
37.814033
  0
LINE
  8
別途部材
  6
CONTINUOUS
 62
    47
 10
131.74976
 20
55.577218
 11
131.74976
 21
37.814033
  0
LINE
  8
別途部材
  6
CONTINUOUS
 62
    47
 10
130.599757
 20
54.490697
 11
130.599757
 21
37.814033
  0
LINE
  8
別途部材
  6
CONTINUOUS
 62
    47
 10
129.099757
 20
54.64722
 11
129.099757
 21
37.814033
  0
LINE
  8
別途部材
  6
CONTINUOUS
 62
    47
 10
128.93309
 20
54.54722
 11
128.93309
 21
37.814033
  0
LINE
  8
別途部材
  6
CONTINUOUS
 62
    47
 10
132.916425
 20
20.050845
 11
132.916425
 21
37.814033
  0
LINE
  8
別途部材
  6
CONTINUOUS
 62
    47
 10
131.74976
 20
20.050845
 11
131.74976
 21
37.814033
  0
LINE
  8
別途部材
  6
CONTINUOUS
 62
    47
 10
129.099757
 20
20.980842
 11
129.099757
 21
37.814033
  0
LINE
  8
別途部材
  6
CONTINUOUS
 62
    47
 10
128.93309
 20
21.080842
 11
128.93309
 21
37.814033
  0
LINE
  8
別途部材
  6
CONTINUOUS
 62
    47
 10
130.599757
 20
21.137365
 11
130.599757
 21
37.814033
  0
LINE
  8
別途部材
  6
DOT
 62
    47
 10
119.03309
 20
54.64722
 11
119.099757
 21
54.64722
  0
ARC
  8
別途部材
  6
DOT
 62
    47
 10
119.033093
 20
54.547219
 40
0.1
 50
90.0
 51
180.0
  0
LINE
  8
別途部材
  6
DOT
 62
    47
 10
119.099757
 20
54.490697
 11
120.599757
 21
54.490697
  0
LINE
  8
別途部材
  6
DOT
 62
    47
 10
119.03309
 20
20.980842
 11
119.099757
 21
20.980842
  0
ARC
  8
別途部材
  6
DOT
 62
    47
 10
119.033093
 20
21.080843
 40
0.1
 50
180.0
 51
270.0
  0
LINE
  8
別途部材
  6
DOT
 62
    47
 10
119.099757
 20
21.137365
 11
120.599757
 21
21.137365
  0
LINE
  8
別途部材
  6
DOT
 62
    47
 10
122.916425
 20
55.577218
 11
122.916425
 21
37.814033
  0
LINE
  8
別途部材
  6
DOT
 62
    47
 10
121.74976
 20
55.577218
 11
121.74976
 21
37.814033
  0
LINE
  8
別途部材
  6
DOT
 62
    47
 10
120.599757
 20
54.490697
 11
120.599757
 21
37.814033
  0
LINE
  8
別途部材
  6
DOT
 62
    47
 10
119.099757
 20
54.64722
 11
119.099757
 21
37.814033
  0
LINE
  8
別途部材
  6
DOT
 62
    47
 10
118.93309
 20
54.54722
 11
118.93309
 21
37.814033
  0
LINE
  8
別途部材
  6
DOT
 62
    47
 10
121.74976
 20
20.050845
 11
121.74976
 21
37.814033
  0
LINE
  8
別途部材
  6
DOT
 62
    47
 10
122.916425
 20
20.050845
 11
122.916425
 21
37.814033
  0
LINE
  8
別途部材
  6
DOT
 62
    47
 10
119.099757
 20
20.980842
 11
119.099757
 21
37.814033
  0
LINE
  8
別途部材
  6
DOT
 62
    47
 10
118.93309
 20
21.080842
 11
118.93309
 21
37.814033
  0
LINE
  8
別途部材
  6
DOT
 62
    47
 10
120.599757
 20
21.137365
 11
120.599757
 21
37.814033
  0
LINE
  8
別途部材
  6
DOT
 62
    47
 10
-78.48363
 20
-59.176395
 11
-78.48363
 21
-59.243062
  0
ARC
  8
別途部材
  6
DOT
 62
    47
 10
-78.383628
 20
-59.176396
 40
0.1
 50
90.0
 51
180.0
  0
LINE
  8
別途部材
  6
DOT
 62
    47
 10
-78.327107
 20
-59.243062
 11
-78.327107
 21
-60.743062
  0
LINE
  8
別途部材
  6
DOT
 62
    47
 10
41.849712
 20
-59.176395
 11
41.849712
 21
-59.243062
  0
ARC
  8
別途部材
  6
DOT
 62
    47
 10
41.749708
 20
-59.176396
 40
0.1
 50
0.0
 51
90.0
  0
LINE
  8
別途部材
  6
DOT
 62
    47
 10
41.69319
 20
-59.243062
 11
41.69319
 21
-60.743062
  0
LINE
  8
別途部材
  6
DOT
 62
    47
 10
-78.327107
 20
-60.743062
 11
-18.316957
 21
-60.743062
  0
LINE
  8
別途部材
  6
DOT
 62
    47
 10
-78.48363
 20
-59.243062
 11
-18.316957
 21
-59.243062
  0
LINE
  8
別途部材
  6
DOT
 62
    47
 10
-78.38363
 20
-59.076395
 11
-18.316957
 21
-59.076395
  0
LINE
  8
別途部材
  6
DOT
 62
    47
 10
-79.413627
 20
-61.893065
 11
-18.316957
 21
-61.893065
  0
LINE
  8
別途部材
  6
DOT
 62
    47
 10
-79.413627
 20
-63.05973
 11
-18.316957
 21
-63.05973
  0
LINE
  8
別途部材
  6
DOT
 62
    47
 10
42.77971
 20
-63.05973
 11
-18.316957
 21
-63.05973
  0
LINE
  8
別途部材
  6
DOT
 62
    47
 10
42.77971
 20
-61.893065
 11
-18.316957
 21
-61.893065
  0
LINE
  8
別途部材
  6
DOT
 62
    47
 10
41.69319
 20
-60.743062
 11
-18.316957
 21
-60.743062
  0
LINE
  8
別途部材
  6
DOT
 62
    47
 10
41.749712
 20
-59.076395
 11
-18.316957
 21
-59.076395
  0
LINE
  8
別途部材
  6
DOT
 62
    47
 10
41.849712
 20
-59.243062
 11
-18.316957
 21
-59.243062
  0
LINE
  8
別途部材
  6
CONTINUOUS
 10
97.00293
 20
-53.785395
 11
97.00293
 21
-83.785395
  0
LINE
  8
曲げ物
  6
CONTINUOUS
 10
23.03029
 20
39.693362
 11
19.334978
 21
35.99805
  0
LINE
  8
曲げ物
  6
CONTINUOUS
 10
22.32682
 20
38.157252
 11
20.87109
 21
36.701522
  0
LINE
  8
曲げ物
  6
CONTINUOUS
 10
21.49418
 20
38.989892
 11
20.03845
 21
37.534162
  0
LINE
  8
曲げ物
  6
CONTINUOUS
 10
-16.08599
 20
39.693362
 11
-19.781303
 21
35.99805
  0
LINE
  8
曲げ物
  6
CONTINUOUS
 10
-16.78946
 20
38.157252
 11
-18.24519
 21
36.701522
  0
LINE
  8
曲げ物
  6
CONTINUOUS
 10
-17.6221
 20
38.989892
 11
-19.07783
 21
37.534162
  0
LINE
  8
曲げ物
  6
CONTINUOUS
 10
-54.872012
 20
39.693362
 11
-58.567325
 21
35.99805
  0
LINE
  8
曲げ物
  6
CONTINUOUS
 10
-55.575483
 20
38.157252
 11
-57.031213
 21
36.701522
  0
LINE
  8
曲げ物
  6
CONTINUOUS
 10
-56.408122
 20
38.989892
 11
-57.863853
 21
37.534162
  0
LINE
  8
曲げ物
  6
CONTINUOUS
 10
135.10293
 20
-53.785395
 11
97.00293
 21
-53.785395
  0
LINE
  8
曲げ物
  6
CONTINUOUS
 10
135.10293
 20
-83.785395
 11
97.00293
 21
-83.785395
  0
LINE
  8
曲げ物
  6
CONTINUOUS
 10
135.10293
 20
-53.785395
 11
135.10293
 21
-83.785395
  0
LINE
  8
鉄骨等
  6
CONTINUOUS
 62
    47
 10
-79.413627
 20
-73.05973
 11
-79.413627
 21
-71.893065
  0
LINE
  8
鉄骨等
  6
CONTINUOUS
 62
    47
 10
-79.413627
 20
-71.893065
 11
-78.010443
 21
-70.743065
  0
LINE
  8
鉄骨等
  6
CONTINUOUS
 62
    47
 10
42.77971
 20
-73.05973
 11
42.77971
 21
-71.893065
  0
LINE
  8
鉄骨等
  6
CONTINUOUS
 62
    47
 10
42.77971
 20
-71.893065
 11
41.376525
 21
-70.743065
  0
LINE
  8
鉄骨等
  6
CONTINUOUS
 62
    47
 10
132.916425
 20
55.577218
 11
131.74976
 21
55.577218
  0
LINE
  8
鉄骨等
  6
CONTINUOUS
 62
    47
 10
131.74976
 20
55.577218
 11
130.59976
 21
54.17403
  0
LINE
  8
鉄骨等
  6
CONTINUOUS
 62
    47
 10
132.916425
 20
20.050845
 11
131.74976
 21
20.050845
  0
LINE
  8
鉄骨等
  6
CONTINUOUS
 62
    47
 10
131.74976
 20
20.050845
 11
130.59976
 21
21.45403
  0
LINE
  8
鉄骨等
  6
DOT
 62
    47
 10
122.916425
 20
55.577218
 11
121.74976
 21
55.577218
  0
LINE
  8
鉄骨等
  6
DOT
 62
    47
 10
121.74976
 20
55.577218
 11
120.59976
 21
54.17403
  0
LINE
  8
鉄骨等
  6
DOT
 62
    47
 10
122.916425
 20
20.050845
 11
121.74976
 21
20.050845
  0
LINE
  8
鉄骨等
  6
DOT
 62
    47
 10
121.74976
 20
20.050845
 11
120.59976
 21
21.45403
  0
LINE
  8
鉄骨等
  6
DOT
 62
    47
 10
-79.413627
 20
-63.05973
 11
-79.413627
 21
-61.893065
  0
LINE
  8
鉄骨等
  6
DOT
 62
    47
 10
-79.413627
 20
-61.893065
 11
-78.010443
 21
-60.743065
  0
LINE
  8
鉄骨等
  6
DOT
 62
    47
 10
42.77971
 20
-63.05973
 11
42.77971
 21
-61.893065
  0
LINE
  8
鉄骨等
  6
DOT
 62
    47
 10
42.77971
 20
-61.893065
 11
41.376525
 21
-60.743065
  0
ENDSEC
  0
EOF
