  0
SECTION
  2
HEADER
  9
$EXTMIN
 10
-210.0
 20
-148.5
  9
$EXTMAX
 10
210.0
 20
148.5
  9
$PDMODE
 70
    32
  9
$PDSIZE
 40
1.5
  9
$LTSCALE
 40
10.0
  0
ENDSEC
  0
SECTION
  2
TABLES
  0
TABLE
  2
LTYPE
 70
    15
  0
LTYPE
  2
CONTINUOUS
 70
    64
  3
実線
 72
    65
 73
     0
 40
0.0
  0
LTYPE
  2
DASHED
 70
    64
  3
破線A
 72
    65
 73
     2
 40
0.6
 49
0.4
 49
-0.2
  0
LTYPE
  2
DASHEDX2
 70
    64
  3
破線B
 72
    65
 73
     2
 40
1.3
 49
0.9
 49
-0.4
  0
LTYPE
  2
DASHDOT
 70
    64
  3
１点鎖線A
 72
    65
 73
     4
 40
0.5375
 49
0.375
 49
-0.05
 49
0.0625
 49
-0.05
  0
LTYPE
  2
DASHDOTX2
 70
    64
  3
１点鎖線B
 72
    65
 73
     4
 40
1.075
 49
0.75
 49
-0.1
 49
0.125
 49
-0.1
  0
LTYPE
  2
DIVIDE2
 70
    64
  3
２点鎖線A
 72
    65
 73
     6
 40
0.5125
 49
0.3
 49
-0.0375
 49
0.05
 49
-0.0375
 49
0.05
 49
-0.0375
  0
LTYPE
  2
DIVIDE
 70
    64
  3
２点鎖線B
 72
    65
 73
     6
 40
1.05
 49
0.55
 49
-0.1
 49
0.1
 49
-0.1
 49
0.1
 49
-0.1
  0
LTYPE
  2
DOT
 70
    64
  3
点線A
 72
    65
 73
     2
 40
0.1125
 49
0.0625
 49
-0.05
  0
LTYPE
  2
DOTX2
 70
    64
  3
点線B
 72
    65
 73
     2
 40
0.275
 49
0.15
 49
-0.125
  0
LTYPE
  2
CONTINUOUS
 70
    64
  3
実線
 72
    65
 73
     0
 40
0.0
  0
LTYPE
  2
CONTINUOUS
 70
    64
  3
実線
 72
    65
 73
     0
 40
0.0
  0
LTYPE
  2
CONTINUOUS
 70
    64
  3
実線
 72
    65
 73
     0
 40
0.0
  0
LTYPE
  2
CONTINUOUS
 70
    64
  3
実線
 72
    65
 73
     0
 40
0.0
  0
LTYPE
  2
CONTINUOUS
 70
    64
  3
実線
 72
    65
 73
     0
 40
0.0
  0
LTYPE
  2
CONTINUOUS
 70
    64
  3
実線
 72
    65
 73
     0
 40
0.0
  0
ENDTAB
  0
TABLE
  2
LAYER
 70
    34
  0
LAYER
  2
通り芯
 70
     0
 62
    15
  6
CONTINUOUS
  0
LAYER
  2
補助線
 70
     0
 62
    16
  6
DOT
  0
LAYER
  2
躯体
 70
     0
 62
    31
  6
CONTINUOUS
  0
LAYER
  2
型材
 70
     0
 62
    32
  6
CONTINUOUS
  0
LAYER
  2
型材断面
 70
     0
 62
    47
  6
CONTINUOUS
  0
LAYER
  2
ガラス
 70
     0
 62
    48
  6
CONTINUOUS
  0
LAYER
  2
ゴム等
 70
     0
 62
    63
  6
CONTINUOUS
  0
LAYER
  2
ボルト／ビス
 70
     0
 62
    64
  6
CONTINUOUS
  0
LAYER
  2
文字
 70
     0
 62
    79
  6
CONTINUOUS
  0
LAYER
  2
寸法
 70
     0
 62
    80
  6
CONTINUOUS
  0
LAYER
  2
ﾊｯﾁﾝｸﾞ
 70
     0
 62
    95
  6
CONTINUOUS
  0
LAYER
  2
別途部材
 70
     0
 62
    96
  6
CONTINUOUS
  0
LAYER
  2
曲げ物
 70
     0
 62
   111
  6
CONTINUOUS
  0
LAYER
  2
鉄骨等
 70
     0
 62
   112
  6
CONTINUOUS
  0
LAYER
  2
St
 70
     0
 62
   127
  6
CONTINUOUS
  0
LAYER
  2
その他部品等
 70
     0
 62
   128
  6
CONTINUOUS
  0
LAYER
  2
ｶﾞｽｹｯﾄ
 70
     0
 62
   143
  6
CONTINUOUS
  0
LAYER
  2
ｽｹｯﾁ
 70
     0
 62
    14
  6
CONTINUOUS
  0
LAYER
  2
0
 70
     0
 62
    17
  6
CONTINUOUS
  0
LAYER
  2
1
 70
     0
 62
    30
  6
CONTINUOUS
  0
LAYER
  2
4
 70
     0
 62
    33
  6
CONTINUOUS
  0
LAYER
  2
ﾚｲﾔ3
 70
     0
 62
    46
  6
CONTINUOUS
  0
LAYER
  2
外形線
 70
     0
 62
    49
  6
CONTINUOUS
  0
LAYER
  2
部品
 70
     0
 62
    14
  6
CONTINUOUS
  0
LAYER
  2
サッシ芯
 70
     0
 62
    17
  6
DASHDOTX2
  0
LAYER
  2
寸法線
 70
     0
 62
    62
  6
CONTINUOUS
  0
LAYER
  2
姿図外形線
 70
     0
 62
    65
  6
CONTINUOUS
  0
LAYER
  2
姿補助線
 70
     0
 62
    30
  6
CONTINUOUS
  0
LAYER
  2
透視線
 70
     0
 62
    78
  6
DOT
  0
LAYER
  2
用紙
 70
     0
 62
    81
  6
CONTINUOUS
  0
LAYER
  2
実線図枠
 70
     0
 62
    94
  6
CONTINUOUS
  0
LAYER
  2
補助図枠
 70
     0
 62
    97
  6
CONTINUOUS
  0
LAYER
  2
建具記号
 70
     0
 62
   110
  6
CONTINUOUS
  0
LAYER
  2
補助文字
 70
     0
 62
   113
  6
CONTINUOUS
  0
ENDTAB
  0
TABLE
  2
STYLE
 70
    10
  0
STYLE
  2
STANDARD
 70
     0
 40
1.0
 41
1.0
 42
1.0
 50
0.0
 71
     0
  3
TXT
  4
BIGFONT
  0
STYLE
  2
TATE
 70
     4
 40
1.0
 41
1.0
 42
1.0
 50
0.0
 71
     0
  3
TXT
  4
BIGFONT
  0
STYLE
  2
TextStyle03
 70
     0
 40
1.0
 41
1.0
 42
1.0
 50
0.0
 71
     0
  3
MONOTXT
  4
BIGFONT
  0
STYLE
  2
TextStyle04
 70
     0
 40
1.0
 41
1.0
 42
1.0
 50
0.0
 71
     0
  3
MONOTXT
  4
BIGFONT
  0
STYLE
  2
TextStyle05
 70
     0
 40
1.0
 41
1.0
 42
1.0
 50
0.0
 71
     0
  3
MONOTXT
  4
BIGFONT
  0
STYLE
  2
TextStyle06
 70
     0
 40
1.0
 41
1.0
 42
1.0
 50
0.0
 71
     0
  3
MONOTXT
  4
BIGFONT
  0
STYLE
  2
TextStyle07
 70
     0
 40
1.0
 41
1.0
 42
1.0
 50
0.0
 71
     0
  3
MONOTXT
  4
BIGFONT
  0
STYLE
  2
TextStyle08
 70
     0
 40
1.0
 41
1.0
 42
1.0
 50
0.0
 71
     0
  3
MONOTXT
  4
BIGFONT
  0
STYLE
  2
TextStyle09
 70
     0
 40
1.0
 41
1.0
 42
1.0
 50
0.0
 71
     0
  3
MONOTXT
  4
BIGFONT
  0
STYLE
  2
TextStyle10
 70
     0
 40
1.0
 41
1.0
 42
1.0
 50
0.0
 71
     0
  3
MONOTXT
  4
BIGFONT
  0
ENDTAB
  0
ENDSEC
  0
SECTION
  2
BLOCKS
  0
BLOCK
  2
*GRP_0001
 70
    65
 10
0.0
 20
0.0
  0
LINE
  8
型材断面
  6
CONTINUOUS
 10
195.0
 20
133.5
 11
195.0
 21
-133.5
  0
LINE
  8
型材断面
  6
CONTINUOUS
 10
195.0
 20
-133.5
 11
-185.0
 21
-133.5
  0
LINE
  8
型材断面
  6
CONTINUOUS
 10
-185.0
 20
-133.5
 11
-185.0
 21
133.5
  0
LINE
  8
型材断面
  6
CONTINUOUS
 10
195.0
 20
133.5
 11
-185.0
 21
133.5
  0
LINE
  8
型材断面
  6
CONTINUOUS
 10
145.0
 20
-133.5
 11
145.0
 21
-118.5
  0
LINE
  8
型材断面
  6
CONTINUOUS
 10
195.0
 20
-118.5
 11
145.0
 21
-118.5
  0
ENDBLK
  0
BLOCK
  2
*DIM_0002
 70
    65
 10
0.0
 20
0.0
  0
LINE
  8
寸法
  6
BYBLOCK
 62
     0
 10
-75.342895
 20
19.183902
 11
-75.342895
 21
13.91212
  0
LINE
  8
寸法
  6
BYBLOCK
 62
     0
 10
-17.009562
 20
19.183905
 11
-17.009562
 21
13.91212
  0
LINE
  8
寸法
  6
BYBLOCK
 62
     0
 10
-75.342895
 20
13.91212
 11
-17.009562
 21
13.91212
  0
POINT
  8
寸法
 62
     0
 10
-75.342895
 20
13.91212
  0
POINT
  8
寸法
 62
     0
 10
-17.009562
 20
13.91212
  0
TEXT
  7
TextStyle03
  8
寸法
  6
CONTINUOUS
 62
     0
 10
-49.48125
 20
14.275
  1
1750
 40
3.0
 72
     5
 11
-42.91875
 21
14.275
  0
ENDBLK
  0
BLOCK
  2
*DIM_0003
 70
    65
 10
0.0
 20
0.0
  0
LINE
  8
寸法
  6
BYBLOCK
 62
     0
 10
41.32377
 20
19.183902
 11
41.32377
 21
13.91212
  0
LINE
  8
寸法
  6
BYBLOCK
 62
     0
 10
-17.009562
 20
13.91212
 11
41.32377
 21
13.91212
  0
POINT
  8
寸法
 62
     0
 10
41.32377
 20
13.91212
  0
TEXT
  7
TextStyle03
  8
寸法
  6
CONTINUOUS
 62
     0
 10
8.86875
 20
14.275
  1
1750
 40
3.0
 72
     5
 11
15.43125
 21
14.275
  0
ENDBLK
  0
BLOCK
  2
*DIM_0004
 70
    65
 10
0.0
 20
0.0
  0
LINE
  8
寸法
  6
BYBLOCK
 62
     0
 10
58.990438
 20
52.814035
 11
68.71472
 21
52.814035
  0
LINE
  8
寸法
  6
BYBLOCK
 62
     0
 10
61.620567
 20
49.114035
 11
68.71472
 21
49.114035
  0
LINE
  8
寸法
  6
BYBLOCK
 62
     0
 10
68.71472
 20
52.814035
 11
68.71472
 21
49.114035
  0
POINT
  8
寸法
 62
     0
 10
68.71472
 20
52.814035
  0
POINT
  8
寸法
 62
     0
 10
68.71472
 20
49.114035
  0
TEXT
  7
TextStyle03
  8
寸法
  6
CONTINUOUS
 62
     0
 10
68.375
 20
53.8125
  1
111
 40
3.0
 50
90.0
 72
     5
 11
68.375
 21
58.6875
  0
ENDBLK
  0
BLOCK
  2
*DIM_0005
 70
    65
 10
0.0
 20
0.0
  0
LINE
  8
寸法
  6
BYBLOCK
 62
     0
 10
58.990438
 20
22.81403
 11
68.71472
 21
22.814027
  0
LINE
  8
寸法
  6
BYBLOCK
 62
     0
 10
61.620567
 20
26.51403
 11
68.71472
 21
26.514027
  0
LINE
  8
寸法
  6
BYBLOCK
 62
     0
 10
68.71472
 20
22.814027
 11
68.71472
 21
26.514027
  0
POINT
  8
寸法
 62
     0
 10
68.71472
 20
22.814027
  0
POINT
  8
寸法
 62
     0
 10
68.71472
 20
26.514027
  0
TEXT
  7
TextStyle03
  8
寸法
  6
CONTINUOUS
 62
     0
 10
68.375
 20
16.9375
  1
111
 40
3.0
 50
90.0
 72
     5
 11
68.375
 21
21.8125
  0
ENDBLK
  0
BLOCK
  2
*DIM_0006
 70
    65
 10
0.0
 20
0.0
  0
LINE
  8
寸法
  6
BYBLOCK
 62
     0
 10
-95.009562
 20
47.814033
 11
-108.3024
 21
47.814033
  0
LINE
  8
寸法
  6
BYBLOCK
 62
     0
 10
-95.009562
 20
27.814033
 11
-108.3024
 21
27.814033
  0
LINE
  8
寸法
  6
BYBLOCK
 62
     0
 10
-108.3024
 20
47.814033
 11
-108.3024
 21
27.814033
  0
POINT
  8
寸法
 62
     0
 10
-108.3024
 20
47.814033
  0
POINT
  8
寸法
 62
     0
 10
-108.3024
 20
27.814033
  0
TEXT
  7
TextStyle03
  8
寸法
  6
CONTINUOUS
 62
     0
 10
-108.675
 20
35.3625
  1
600
 40
3.0
 50
90.0
 72
     5
 11
-108.675
 21
40.2375
  0
ENDBLK
  0
BLOCK
  2
*DIM_0007
 70
    65
 10
0.0
 20
0.0
  0
LINE
  8
寸法
  6
BYBLOCK
 62
     0
 10
-83.67623
 20
55.814033
 11
-83.67623
 21
84.922105
  0
LINE
  8
寸法
  6
BYBLOCK
 62
     0
 10
-57.009562
 20
55.814033
 11
-57.009562
 21
84.922105
  0
LINE
  8
寸法
  6
BYBLOCK
 62
     0
 10
-83.67623
 20
84.922105
 11
-57.009562
 21
84.922105
  0
POINT
  8
寸法
 62
     0
 10
-83.67623
 20
84.922105
  0
POINT
  8
寸法
 62
     0
 10
-57.009562
 20
84.922105
  0
TEXT
  7
TextStyle03
  8
寸法
  6
CONTINUOUS
 62
     0
 10
-72.8125
 20
85.275
  1
800
 40
3.0
 72
     5
 11
-67.9375
 21
85.275
  0
ENDBLK
  0
BLOCK
  2
*DIM_0008
 70
    65
 10
0.0
 20
0.0
  0
LINE
  8
寸法
  6
BYBLOCK
 62
     0
 10
-30.342895
 20
55.814033
 11
-30.342895
 21
84.922105
  0
LINE
  8
寸法
  6
BYBLOCK
 62
     0
 10
-57.009562
 20
84.922105
 11
-30.342895
 21
84.922105
  0
POINT
  8
寸法
 62
     0
 10
-30.342895
 20
84.922105
  0
TEXT
  7
TextStyle03
  8
寸法
  6
CONTINUOUS
 62
     0
 10
-46.1375
 20
85.275
  1
800
 40
3.0
 72
     5
 11
-41.2625
 21
85.275
  0
ENDBLK
  0
BLOCK
  2
*DIM_0009
 70
    65
 10
0.0
 20
0.0
  0
LINE
  8
寸法
  6
BYBLOCK
 62
     0
 10
-3.67623
 20
55.814033
 11
-3.67623
 21
84.922105
  0
LINE
  8
寸法
  6
BYBLOCK
 62
     0
 10
-30.342895
 20
84.922105
 11
-3.67623
 21
84.922105
  0
POINT
  8
寸法
 62
     0
 10
-3.67623
 20
84.922105
  0
TEXT
  7
TextStyle03
  8
寸法
  6
CONTINUOUS
 62
     0
 10
-19.4625
 20
85.275
  1
800
 40
3.0
 72
     5
 11
-14.5875
 21
85.275
  0
ENDBLK
  0
BLOCK
  2
*DIM_0010
 70
    65
 10
0.0
 20
0.0
  0
LINE
  8
寸法
  6
BYBLOCK
 62
     0
 10
22.990438
 20
55.814033
 11
22.990438
 21
84.922105
  0
LINE
  8
寸法
  6
BYBLOCK
 62
     0
 10
-3.67623
 20
84.922105
 11
22.990438
 21
84.922105
  0
POINT
  8
寸法
 62
     0
 10
22.990438
 20
84.922105
  0
TEXT
  7
TextStyle03
  8
寸法
  6
CONTINUOUS
 62
     0
 10
7.1875
 20
85.275
  1
800
 40
3.0
 72
     5
 11
12.0625
 21
85.275
  0
ENDBLK
  0
BLOCK
  2
*DIM_0011
 70
    65
 10
0.0
 20
0.0
  0
LINE
  8
寸法
  6
BYBLOCK
 62
     0
 10
49.657105
 20
55.814033
 11
49.657105
 21
84.922105
  0
LINE
  8
寸法
  6
BYBLOCK
 62
     0
 10
22.990438
 20
84.922105
 11
49.657105
 21
84.922105
  0
POINT
  8
寸法
 62
     0
 10
49.657105
 20
84.922105
  0
TEXT
  7
TextStyle03
  8
寸法
  6
CONTINUOUS
 62
     0
 10
33.8625
 20
85.275
  1
800
 40
3.0
 72
     5
 11
38.7375
 21
85.275
  0
ENDBLK
  0
BLOCK
  2
*DIM_0012
 70
    65
 10
0.0
 20
0.0
  0
LINE
  8
寸法
  6
CONTINUOUS
 10
92.010088
 20
55.577218
 11
92.010088
 21
52.814033
  0
POINT
  8
寸法
 10
92.010088
 20
55.577218
  0
POINT
  8
寸法
 10
92.010088
 20
52.814033
  0
TEXT
  7
TextStyle03
  8
寸法
  6
CONTINUOUS
 10
93.35
 20
56.64375
  1
82.9
 40
3.0
 50
90.0
 72
     5
 11
93.35
 21
63.20625
  0
ENDBLK
  0
BLOCK
  2
*DIM_0013
 70
    65
 10
0.0
 20
0.0
  0
LINE
  8
寸法
  6
CONTINUOUS
 10
92.010088
 20
22.814033
 11
92.010088
 21
20.050845
  0
POINT
  8
寸法
 10
92.010088
 20
22.814033
  0
POINT
  8
寸法
 10
92.010088
 20
20.050845
  0
TEXT
  7
TextStyle03
  8
寸法
  6
CONTINUOUS
 10
93.35
 20
12.41875
  1
82.9
 40
3.0
 50
90.0
 72
     5
 11
93.35
 21
18.98125
  0
ENDBLK
  0
BLOCK
  2
*DIM_0014
 70
    65
 10
0.0
 20
0.0
  0
LINE
  8
寸法
  6
CONTINUOUS
 10
92.010088
 20
52.814033
 11
92.010088
 21
22.814033
  0
POINT
  8
寸法
 10
92.010088
 20
52.814033
  0
POINT
  8
寸法
 10
92.010088
 20
22.814033
  0
TEXT
  7
TextStyle03
  8
寸法
  6
CONTINUOUS
 10
91.55
 20
26.925
  1
呼称寸法　900
 40
3.0
 50
90.0
 72
     5
 11
91.55
 21
48.675
  0
ENDBLK
  0
BLOCK
  2
*DIM_0015
 70
    65
 10
0.0
 20
0.0
  0
LINE
  8
寸法
  6
CONTINUOUS
 10
-92.009567
 20
-12.609317
 11
-94.7729
 21
-12.609317
  0
POINT
  8
寸法
 10
-92.009567
 20
-12.609317
  0
POINT
  8
寸法
 10
-94.7729
 20
-12.609317
  0
TEXT
  7
TextStyle03
  8
寸法
  6
CONTINUOUS
 10
-99.35625
 20
-11.675
  1
82.9
 40
3.0
 72
     5
 11
-92.79375
 21
-11.675
  0
ENDBLK
  0
BLOCK
  2
*DIM_0016
 70
    65
 10
0.0
 20
0.0
  0
LINE
  8
寸法
  6
CONTINUOUS
 10
60.753773
 20
-12.609317
 11
57.990438
 21
-12.609317
  0
POINT
  8
寸法
 10
60.753773
 20
-12.609317
  0
POINT
  8
寸法
 10
57.990438
 20
-12.609317
  0
TEXT
  7
TextStyle03
  8
寸法
  6
CONTINUOUS
 10
59.01875
 20
-11.725
  1
82.9
 40
3.0
 72
     5
 11
65.58125
 21
-11.725
  0
ENDBLK
  0
BLOCK
  2
*DIM_0017
 70
    65
 10
0.0
 20
0.0
  0
LINE
  8
寸法
  6
CONTINUOUS
 10
-92.009567
 20
-12.609317
 11
57.990432
 21
-12.609317
  0
POINT
  8
寸法
 10
-92.009567
 20
-12.609317
  0
POINT
  8
寸法
 10
57.990432
 20
-12.609317
  0
TEXT
  7
TextStyle03
  8
寸法
  6
CONTINUOUS
 10
-28.74375
 20
-12.25
  1
呼称寸法　4500
 40
3.0
 72
     5
 11
-5.30625
 21
-12.25
  0
ENDBLK
  0
BLOCK
  2
*DIM_0018
 70
    65
 10
0.0
 20
0.0
  0
LINE
  8
寸法
  6
CONTINUOUS
 10
153.076993
 20
-45.311875
 11
116.476993
 21
-45.311875
  0
POINT
  8
寸法
 10
153.076993
 20
-45.311875
  0
POINT
  8
寸法
 10
116.476993
 20
-45.311875
  0
TEXT
  7
TextStyle03
  8
寸法
  6
CONTINUOUS
 10
131.49375
 20
-44.975
  1
1098
 40
3.0
 72
     5
 11
138.05625
 21
-44.975
  0
ENDBLK
  0
BLOCK
  2
*GRP_0019
 70
    65
 10
0.0
 20
0.0
  0
LINE
  8
補助線
  6
BYBLOCK
 62
    64
 10
-71.94582
 20
-74.673905
 11
-72.073305
 21
-74.781265
  0
LINE
  8
補助線
  6
BYBLOCK
 62
    64
 10
-72.063242
 20
-74.66384
 11
-71.955883
 21
-74.791327
  0
LINE
  8
補助線
  6
BYBLOCK
 62
    64
 10
-63.455403
 20
-67.523883
 11
-63.582888
 21
-67.631238
  0
LINE
  8
補助線
  6
BYBLOCK
 62
    64
 10
-63.572825
 20
-67.513818
 11
-63.465465
 21
-67.6413
  0
LINE
  8
補助線
  6
BYBLOCK
 62
    64
 10
-55.092468
 20
-60.481213
 11
-54.964985
 21
-60.373855
  0
LINE
  8
補助線
  6
BYBLOCK
 62
    64
 10
-55.082408
 20
-60.36379
 11
-54.975047
 21
-60.491277
  0
LINE
  8
型材断面
  6
CONTINUOUS
 10
-72.801318
 20
-74.304882
 11
-72.861695
 21
-75.009407
  0
LINE
  8
型材断面
  6
CONTINUOUS
 10
-72.861695
 20
-75.009407
 11
-72.432262
 21
-75.519343
  0
LINE
  8
型材断面
  6
CONTINUOUS
 10
-72.432262
 20
-75.519343
 11
-71.727737
 21
-75.57972
  0
LINE
  8
型材断面
  6
CONTINUOUS
 10
-55.31055
 20
-59.575403
 11
-54.606025
 21
-59.63578
  0
LINE
  8
型材断面
  6
CONTINUOUS
 10
-54.606025
 20
-59.63578
 11
-54.176592
 21
-60.145715
  0
LINE
  8
型材断面
  6
CONTINUOUS
 10
-54.176592
 20
-60.145715
 11
-54.23697
 21
-60.85024
  0
LINE
  8
型材断面
  6
CONTINUOUS
 10
-72.801318
 20
-74.304882
 11
-55.31055
 21
-59.575403
  0
LINE
  8
型材断面
  6
CONTINUOUS
 10
-71.727737
 20
-75.57972
 11
-54.23697
 21
-60.85024
  0
CIRCLE
  8
ボルト／ビス
  6
CONTINUOUS
 10
-72.009562
 20
-74.727585
 40
0.250185
  0
CIRCLE
  8
ボルト／ビス
  6
CONTINUOUS
 10
-72.009562
 20
-74.727585
 40
0.301025
  0
LINE
  8
ボルト／ビス
  6
CONTINUOUS
 62
    64
 10
-72.25587
 20
-74.771468
 11
-72.170717
 21
-74.53622
  0
LINE
  8
ボルト／ビス
  6
CONTINUOUS
 62
    64
 10
-71.92441
 20
-74.492335
 11
-72.170717
 21
-74.53622
  0
LINE
  8
ボルト／ビス
  6
CONTINUOUS
 62
    64
 10
-72.094715
 20
-74.962835
 11
-71.848408
 21
-74.91895
  0
LINE
  8
ボルト／ビス
  6
CONTINUOUS
 62
    64
 10
-71.763255
 20
-74.683702
 11
-71.848408
 21
-74.91895
  0
LINE
  8
ボルト／ビス
  6
CONTINUOUS
 62
    64
 10
-72.25587
 20
-74.771468
 11
-72.094715
 21
-74.962835
  0
LINE
  8
ボルト／ビス
  6
CONTINUOUS
 62
    64
 10
-71.92441
 20
-74.492335
 11
-71.763255
 21
-74.683702
  0
CIRCLE
  8
ボルト／ビス
  6
CONTINUOUS
 62
    64
 10
-72.009562
 20
-74.727585
 40
0.216668
  0
CIRCLE
  8
ボルト／ビス
  6
CONTINUOUS
 10
-63.519145
 20
-67.57756
 40
0.250185
  0
CIRCLE
  8
ボルト／ビス
  6
CONTINUOUS
 10
-63.519145
 20
-67.57756
 40
0.301025
  0
LINE
  8
ボルト／ビス
  6
CONTINUOUS
 62
    64
 10
-63.765452
 20
-67.621443
 11
-63.6803
 21
-67.386193
  0
LINE
  8
ボルト／ビス
  6
CONTINUOUS
 62
    64
 10
-63.433993
 20
-67.34231
 11
-63.6803
 21
-67.386193
  0
LINE
  8
ボルト／ビス
  6
CONTINUOUS
 62
    64
 10
-63.604298
 20
-67.81281
 11
-63.357988
 21
-67.768927
  0
LINE
  8
ボルト／ビス
  6
CONTINUOUS
 62
    64
 10
-63.272837
 20
-67.53368
 11
-63.357988
 21
-67.768927
  0
LINE
  8
ボルト／ビス
  6
CONTINUOUS
 62
    64
 10
-63.765452
 20
-67.621443
 11
-63.604298
 21
-67.81281
  0
LINE
  8
ボルト／ビス
  6
CONTINUOUS
 62
    64
 10
-63.433993
 20
-67.34231
 11
-63.272837
 21
-67.53368
  0
CIRCLE
  8
ボルト／ビス
  6
CONTINUOUS
 62
    64
 10
-63.519145
 20
-67.57756
 40
0.216668
  0
CIRCLE
  8
ボルト／ビス
  6
CONTINUOUS
 10
-55.028725
 20
-60.427535
 40
0.250185
  0
CIRCLE
  8
ボルト／ビス
  6
CONTINUOUS
 10
-55.028725
 20
-60.427535
 40
0.301025
  0
LINE
  8
ボルト／ビス
  6
CONTINUOUS
 62
    64
 10
-54.943573
 20
-60.192285
 11
-55.189883
 21
-60.23617
  0
LINE
  8
ボルト／ビス
  6
CONTINUOUS
 62
    64
 10
-55.275035
 20
-60.471418
 11
-55.189883
 21
-60.23617
  0
LINE
  8
ボルト／ビス
  6
CONTINUOUS
 62
    64
 10
-54.78242
 20
-60.383652
 11
-54.86757
 21
-60.6189
  0
LINE
  8
ボルト／ビス
  6
CONTINUOUS
 62
    64
 10
-55.11388
 20
-60.662785
 11
-54.86757
 21
-60.6189
  0
LINE
  8
ボルト／ビス
  6
CONTINUOUS
 62
    64
 10
-54.943573
 20
-60.192285
 11
-54.78242
 21
-60.383652
  0
LINE
  8
ボルト／ビス
  6
CONTINUOUS
 62
    64
 10
-55.275035
 20
-60.471418
 11
-55.11388
 21
-60.662785
  0
CIRCLE
  8
ボルト／ビス
  6
CONTINUOUS
 62
    64
 10
-55.028725
 20
-60.427535
 40
0.216668
  0
ENDBLK
  0
BLOCK
  2
*GRP_0020
 70
    65
 10
0.0
 20
0.0
  0
LINE
  8
補助線
  6
BYBLOCK
 62
    64
 10
-55.09247
 20
-74.673905
 11
-54.964985
 21
-74.781265
  0
LINE
  8
補助線
  6
BYBLOCK
 62
    64
 10
-54.975047
 20
-74.66384
 11
-55.082408
 21
-74.791327
  0
LINE
  8
補助線
  6
BYBLOCK
 62
    64
 10
-63.582888
 20
-67.523883
 11
-63.455403
 21
-67.631238
  0
LINE
  8
補助線
  6
BYBLOCK
 62
    64
 10
-63.465465
 20
-67.513818
 11
-63.572825
 21
-67.6413
  0
LINE
  8
補助線
  6
BYBLOCK
 62
    64
 10
-71.945823
 20
-60.481213
 11
-72.073305
 21
-60.373855
  0
LINE
  8
補助線
  6
BYBLOCK
 62
    64
 10
-71.955883
 20
-60.36379
 11
-72.063242
 21
-60.491277
  0
LINE
  8
型材断面
  6
CONTINUOUS
 10
-54.236972
 20
-74.304882
 11
-54.176595
 21
-75.009407
  0
LINE
  8
型材断面
  6
CONTINUOUS
 10
-54.176595
 20
-75.009407
 11
-54.606027
 21
-75.519343
  0
LINE
  8
型材断面
  6
CONTINUOUS
 10
-54.606027
 20
-75.519343
 11
-55.310552
 21
-75.57972
  0
LINE
  8
型材断面
  6
CONTINUOUS
 10
-71.72774
 20
-59.575403
 11
-72.432265
 21
-59.63578
  0
LINE
  8
型材断面
  6
CONTINUOUS
 10
-72.432265
 20
-59.63578
 11
-72.861697
 21
-60.145715
  0
LINE
  8
型材断面
  6
CONTINUOUS
 10
-72.861697
 20
-60.145715
 11
-72.80132
 21
-60.85024
  0
LINE
  8
型材断面
  6
CONTINUOUS
 10
-54.236972
 20
-74.304882
 11
-71.72774
 21
-59.575403
  0
LINE
  8
型材断面
  6
CONTINUOUS
 10
-55.310552
 20
-75.57972
 11
-72.80132
 21
-60.85024
  0
CIRCLE
  8
ボルト／ビス
  6
CONTINUOUS
 10
-55.028727
 20
-74.727585
 40
0.250185
  0
CIRCLE
  8
ボルト／ビス
  6
CONTINUOUS
 10
-55.028727
 20
-74.727585
 40
0.301025
  0
LINE
  8
ボルト／ビス
  6
CONTINUOUS
 62
    64
 10
-54.78242
 20
-74.771468
 11
-54.867573
 21
-74.53622
  0
LINE
  8
ボルト／ビス
  6
CONTINUOUS
 62
    64
 10
-55.11388
 20
-74.492335
 11
-54.867573
 21
-74.53622
  0
LINE
  8
ボルト／ビス
  6
CONTINUOUS
 62
    64
 10
-54.943575
 20
-74.962835
 11
-55.189883
 21
-74.91895
  0
LINE
  8
ボルト／ビス
  6
CONTINUOUS
 62
    64
 10
-55.275035
 20
-74.683702
 11
-55.189883
 21
-74.91895
  0
LINE
  8
ボルト／ビス
  6
CONTINUOUS
 62
    64
 10
-54.78242
 20
-74.771468
 11
-54.943575
 21
-74.962835
  0
LINE
  8
ボルト／ビス
  6
CONTINUOUS
 62
    64
 10
-55.11388
 20
-74.492335
 11
-55.275035
 21
-74.683702
  0
CIRCLE
  8
ボルト／ビス
  6
CONTINUOUS
 62
    64
 10
-55.028727
 20
-74.727585
 40
0.216668
  0
CIRCLE
  8
ボルト／ビス
  6
CONTINUOUS
 10
-63.519145
 20
-67.57756
 40
0.250185
  0
CIRCLE
  8
ボルト／ビス
  6
CONTINUOUS
 10
-63.519145
 20
-67.57756
 40
0.301025
  0
LINE
  8
ボルト／ビス
  6
CONTINUOUS
 62
    64
 10
-63.272837
 20
-67.621443
 11
-63.35799
 21
-67.386193
  0
LINE
  8
ボルト／ビス
  6
CONTINUOUS
 62
    64
 10
-63.604298
 20
-67.34231
 11
-63.35799
 21
-67.386193
  0
LINE
  8
ボルト／ビス
  6
CONTINUOUS
 62
    64
 10
-63.433993
 20
-67.81281
 11
-63.680303
 21
-67.768927
  0
LINE
  8
ボルト／ビス
  6
CONTINUOUS
 62
    64
 10
-63.765452
 20
-67.53368
 11
-63.680303
 21
-67.768927
  0
LINE
  8
ボルト／ビス
  6
CONTINUOUS
 62
    64
 10
-63.272837
 20
-67.621443
 11
-63.433993
 21
-67.81281
  0
LINE
  8
ボルト／ビス
  6
CONTINUOUS
 62
    64
 10
-63.604298
 20
-67.34231
 11
-63.765452
 21
-67.53368
  0
CIRCLE
  8
ボルト／ビス
  6
CONTINUOUS
 62
    64
 10
-63.519145
 20
-67.57756
 40
0.216668
  0
CIRCLE
  8
ボルト／ビス
  6
CONTINUOUS
 10
-72.009565
 20
-60.427535
 40
0.250185
  0
CIRCLE
  8
ボルト／ビス
  6
CONTINUOUS
 10
-72.009565
 20
-60.427535
 40
0.301025
  0
LINE
  8
ボルト／ビス
  6
CONTINUOUS
 62
    64
 10
-72.094718
 20
-60.192285
 11
-71.848408
 21
-60.23617
  0
LINE
  8
ボルト／ビス
  6
CONTINUOUS
 62
    64
 10
-71.763255
 20
-60.471418
 11
-71.848408
 21
-60.23617
  0
LINE
  8
ボルト／ビス
  6
CONTINUOUS
 62
    64
 10
-72.25587
 20
-60.383652
 11
-72.17072
 21
-60.6189
  0
LINE
  8
ボルト／ビス
  6
CONTINUOUS
 62
    64
 10
-71.92441
 20
-60.662785
 11
-72.17072
 21
-60.6189
  0
LINE
  8
ボルト／ビス
  6
CONTINUOUS
 62
    64
 10
-72.094718
 20
-60.192285
 11
-72.25587
 21
-60.383652
  0
LINE
  8
ボルト／ビス
  6
CONTINUOUS
 62
    64
 10
-71.763255
 20
-60.471418
 11
-71.92441
 21
-60.662785
  0
CIRCLE
  8
ボルト／ビス
  6
CONTINUOUS
 62
    64
 10
-72.009565
 20
-60.427535
 40
0.216668
  0
ENDBLK
  0
BLOCK
  2
*GRP_0021
 70
    65
 10
0.0
 20
0.0
  0
LINE
  8
補助線
  6
BYBLOCK
 62
    64
 10
37.9267
 20
-74.673905
 11
38.054185
 21
-74.781265
  0
LINE
  8
補助線
  6
BYBLOCK
 62
    64
 10
38.044123
 20
-74.66384
 11
37.936763
 21
-74.791327
  0
LINE
  8
補助線
  6
BYBLOCK
 62
    64
 10
29.436283
 20
-67.523883
 11
29.563767
 21
-67.631238
  0
LINE
  8
補助線
  6
BYBLOCK
 62
    64
 10
29.553705
 20
-67.513818
 11
29.446345
 21
-67.6413
  0
LINE
  8
補助線
  6
BYBLOCK
 62
    64
 10
21.073348
 20
-60.481213
 11
20.945865
 21
-60.373855
  0
LINE
  8
補助線
  6
BYBLOCK
 62
    64
 10
21.063287
 20
-60.36379
 11
20.955927
 21
-60.491277
  0
LINE
  8
型材断面
  6
CONTINUOUS
 10
38.782198
 20
-74.304882
 11
38.842575
 21
-75.009407
  0
LINE
  8
型材断面
  6
CONTINUOUS
 10
38.842575
 20
-75.009407
 11
38.413142
 21
-75.519343
  0
LINE
  8
型材断面
  6
CONTINUOUS
 10
38.413142
 20
-75.519343
 11
37.708618
 21
-75.57972
  0
LINE
  8
型材断面
  6
CONTINUOUS
 10
21.29143
 20
-59.575403
 11
20.586905
 21
-59.63578
  0
LINE
  8
型材断面
  6
CONTINUOUS
 10
20.586905
 20
-59.63578
 11
20.157473
 21
-60.145715
  0
LINE
  8
型材断面
  6
CONTINUOUS
 10
20.157473
 20
-60.145715
 11
20.21785
 21
-60.85024
  0
LINE
  8
型材断面
  6
CONTINUOUS
 10
38.782198
 20
-74.304882
 11
21.29143
 21
-59.575403
  0
LINE
  8
型材断面
  6
CONTINUOUS
 10
37.708618
 20
-75.57972
 11
20.21785
 21
-60.85024
  0
CIRCLE
  8
ボルト／ビス
  6
CONTINUOUS
 10
37.990443
 20
-74.727585
 40
0.250185
  0
CIRCLE
  8
ボルト／ビス
  6
CONTINUOUS
 10
37.990443
 20
-74.727585
 40
0.301025
  0
LINE
  8
ボルト／ビス
  6
CONTINUOUS
 62
    64
 10
38.23675
 20
-74.771468
 11
38.151598
 21
-74.53622
  0
LINE
  8
ボルト／ビス
  6
CONTINUOUS
 62
    64
 10
37.90529
 20
-74.492335
 11
38.151598
 21
-74.53622
  0
LINE
  8
ボルト／ビス
  6
CONTINUOUS
 62
    64
 10
38.075595
 20
-74.962835
 11
37.829287
 21
-74.91895
  0
LINE
  8
ボルト／ビス
  6
CONTINUOUS
 62
    64
 10
37.744135
 20
-74.683702
 11
37.829287
 21
-74.91895
  0
LINE
  8
ボルト／ビス
  6
CONTINUOUS
 62
    64
 10
38.23675
 20
-74.771468
 11
38.075595
 21
-74.962835
  0
LINE
  8
ボルト／ビス
  6
CONTINUOUS
 62
    64
 10
37.90529
 20
-74.492335
 11
37.744135
 21
-74.683702
  0
CIRCLE
  8
ボルト／ビス
  6
CONTINUOUS
 62
    64
 10
37.990443
 20
-74.727585
 40
0.216668
  0
CIRCLE
  8
ボルト／ビス
  6
CONTINUOUS
 10
29.500025
 20
-67.57756
 40
0.250185
  0
CIRCLE
  8
ボルト／ビス
  6
CONTINUOUS
 10
29.500025
 20
-67.57756
 40
0.301025
  0
LINE
  8
ボルト／ビス
  6
CONTINUOUS
 62
    64
 10
29.746333
 20
-67.621443
 11
29.66118
 21
-67.386193
  0
LINE
  8
ボルト／ビス
  6
CONTINUOUS
 62
    64
 10
29.414872
 20
-67.34231
 11
29.66118
 21
-67.386193
  0
LINE
  8
ボルト／ビス
  6
CONTINUOUS
 62
    64
 10
29.585177
 20
-67.81281
 11
29.338868
 21
-67.768927
  0
LINE
  8
ボルト／ビス
  6
CONTINUOUS
 62
    64
 10
29.253717
 20
-67.53368
 11
29.338868
 21
-67.768927
  0
LINE
  8
ボルト／ビス
  6
CONTINUOUS
 62
    64
 10
29.746333
 20
-67.621443
 11
29.585177
 21
-67.81281
  0
LINE
  8
ボルト／ビス
  6
CONTINUOUS
 62
    64
 10
29.414872
 20
-67.34231
 11
29.253717
 21
-67.53368
  0
CIRCLE
  8
ボルト／ビス
  6
CONTINUOUS
 62
    64
 10
29.500025
 20
-67.57756
 40
0.216668
  0
CIRCLE
  8
ボルト／ビス
  6
CONTINUOUS
 10
21.009605
 20
-60.427535
 40
0.250185
  0
CIRCLE
  8
ボルト／ビス
  6
CONTINUOUS
 10
21.009605
 20
-60.427535
 40
0.301025
  0
LINE
  8
ボルト／ビス
  6
CONTINUOUS
 62
    64
 10
20.924453
 20
-60.192285
 11
21.170762
 21
-60.23617
  0
LINE
  8
ボルト／ビス
  6
CONTINUOUS
 62
    64
 10
21.255915
 20
-60.471418
 11
21.170762
 21
-60.23617
  0
LINE
  8
ボルト／ビス
  6
CONTINUOUS
 62
    64
 10
20.7633
 20
-60.383652
 11
20.84845
 21
-60.6189
  0
LINE
  8
ボルト／ビス
  6
CONTINUOUS
 62
    64
 10
21.09476
 20
-60.662785
 11
20.84845
 21
-60.6189
  0
LINE
  8
ボルト／ビス
  6
CONTINUOUS
 62
    64
 10
20.924453
 20
-60.192285
 11
20.7633
 21
-60.383652
  0
LINE
  8
ボルト／ビス
  6
CONTINUOUS
 62
    64
 10
21.255915
 20
-60.471418
 11
21.09476
 21
-60.662785
  0
CIRCLE
  8
ボルト／ビス
  6
CONTINUOUS
 62
    64
 10
21.009605
 20
-60.427535
 40
0.216668
  0
ENDBLK
  0
BLOCK
  2
*GRP_0022
 70
    65
 10
0.0
 20
0.0
  0
LINE
  8
補助線
  6
BYBLOCK
 62
    64
 10
21.07335
 20
-74.673905
 11
20.945865
 21
-74.781265
  0
LINE
  8
補助線
  6
BYBLOCK
 62
    64
 10
20.955927
 20
-74.66384
 11
21.063287
 21
-74.791327
  0
LINE
  8
補助線
  6
BYBLOCK
 62
    64
 10
29.563767
 20
-67.523883
 11
29.436283
 21
-67.631238
  0
LINE
  8
補助線
  6
BYBLOCK
 62
    64
 10
29.446345
 20
-67.513818
 11
29.553705
 21
-67.6413
  0
LINE
  8
補助線
  6
BYBLOCK
 62
    64
 10
37.926702
 20
-60.481213
 11
38.054185
 21
-60.373855
  0
LINE
  8
補助線
  6
BYBLOCK
 62
    64
 10
37.936763
 20
-60.36379
 11
38.044123
 21
-60.491277
  0
LINE
  8
型材断面
  6
CONTINUOUS
 10
20.217852
 20
-74.304882
 11
20.157475
 21
-75.009407
  0
LINE
  8
型材断面
  6
CONTINUOUS
 10
20.157475
 20
-75.009407
 11
20.586908
 21
-75.519343
  0
LINE
  8
型材断面
  6
CONTINUOUS
 10
20.586908
 20
-75.519343
 11
21.291432
 21
-75.57972
  0
LINE
  8
型材断面
  6
CONTINUOUS
 10
37.70862
 20
-59.575403
 11
38.413145
 21
-59.63578
  0
LINE
  8
型材断面
  6
CONTINUOUS
 10
38.413145
 20
-59.63578
 11
38.842577
 21
-60.145715
  0
LINE
  8
型材断面
  6
CONTINUOUS
 10
38.842577
 20
-60.145715
 11
38.7822
 21
-60.85024
  0
LINE
  8
型材断面
  6
CONTINUOUS
 10
20.217852
 20
-74.304882
 11
37.70862
 21
-59.575403
  0
LINE
  8
型材断面
  6
CONTINUOUS
 10
21.291432
 20
-75.57972
 11
38.7822
 21
-60.85024
  0
CIRCLE
  8
ボルト／ビス
  6
CONTINUOUS
 10
21.009607
 20
-74.727585
 40
0.250185
  0
CIRCLE
  8
ボルト／ビス
  6
CONTINUOUS
 10
21.009607
 20
-74.727585
 40
0.301025
  0
LINE
  8
ボルト／ビス
  6
CONTINUOUS
 62
    64
 10
20.7633
 20
-74.771468
 11
20.848452
 21
-74.53622
  0
LINE
  8
ボルト／ビス
  6
CONTINUOUS
 62
    64
 10
21.09476
 20
-74.492335
 11
20.848452
 21
-74.53622
  0
LINE
  8
ボルト／ビス
  6
CONTINUOUS
 62
    64
 10
20.924455
 20
-74.962835
 11
21.170762
 21
-74.91895
  0
LINE
  8
ボルト／ビス
  6
CONTINUOUS
 62
    64
 10
21.255915
 20
-74.683702
 11
21.170762
 21
-74.91895
  0
LINE
  8
ボルト／ビス
  6
CONTINUOUS
 62
    64
 10
20.7633
 20
-74.771468
 11
20.924455
 21
-74.962835
  0
LINE
  8
ボルト／ビス
  6
CONTINUOUS
 62
    64
 10
21.09476
 20
-74.492335
 11
21.255915
 21
-74.683702
  0
CIRCLE
  8
ボルト／ビス
  6
CONTINUOUS
 62
    64
 10
21.009607
 20
-74.727585
 40
0.216668
  0
CIRCLE
  8
ボルト／ビス
  6
CONTINUOUS
 10
29.500025
 20
-67.57756
 40
0.250185
  0
CIRCLE
  8
ボルト／ビス
  6
CONTINUOUS
 10
29.500025
 20
-67.57756
 40
0.301025
  0
LINE
  8
ボルト／ビス
  6
CONTINUOUS
 62
    64
 10
29.253717
 20
-67.621443
 11
29.33887
 21
-67.386193
  0
LINE
  8
ボルト／ビス
  6
CONTINUOUS
 62
    64
 10
29.585177
 20
-67.34231
 11
29.33887
 21
-67.386193
  0
LINE
  8
ボルト／ビス
  6
CONTINUOUS
 62
    64
 10
29.414872
 20
-67.81281
 11
29.661182
 21
-67.768927
  0
LINE
  8
ボルト／ビス
  6
CONTINUOUS
 62
    64
 10
29.746333
 20
-67.53368
 11
29.661182
 21
-67.768927
  0
LINE
  8
ボルト／ビス
  6
CONTINUOUS
 62
    64
 10
29.253717
 20
-67.621443
 11
29.414872
 21
-67.81281
  0
LINE
  8
ボルト／ビス
  6
CONTINUOUS
 62
    64
 10
29.585177
 20
-67.34231
 11
29.746333
 21
-67.53368
  0
CIRCLE
  8
ボルト／ビス
  6
CONTINUOUS
 62
    64
 10
29.500025
 20
-67.57756
 40
0.216668
  0
CIRCLE
  8
ボルト／ビス
  6
CONTINUOUS
 10
37.990445
 20
-60.427535
 40
0.250185
  0
CIRCLE
  8
ボルト／ビス
  6
CONTINUOUS
 10
37.990445
 20
-60.427535
 40
0.301025
  0
LINE
  8
ボルト／ビス
  6
CONTINUOUS
 62
    64
 10
38.075598
 20
-60.192285
 11
37.829287
 21
-60.23617
  0
LINE
  8
ボルト／ビス
  6
CONTINUOUS
 62
    64
 10
37.744135
 20
-60.471418
 11
37.829287
 21
-60.23617
  0
LINE
  8
ボルト／ビス
  6
CONTINUOUS
 62
    64
 10
38.23675
 20
-60.383652
 11
38.1516
 21
-60.6189
  0
LINE
  8
ボルト／ビス
  6
CONTINUOUS
 62
    64
 10
37.90529
 20
-60.662785
 11
38.1516
 21
-60.6189
  0
LINE
  8
ボルト／ビス
  6
CONTINUOUS
 62
    64
 10
38.075598
 20
-60.192285
 11
38.23675
 21
-60.383652
  0
LINE
  8
ボルト／ビス
  6
CONTINUOUS
 62
    64
 10
37.744135
 20
-60.471418
 11
37.90529
 21
-60.662785
  0
CIRCLE
  8
ボルト／ビス
  6
CONTINUOUS
 62
    64
 10
37.990445
 20
-60.427535
 40
0.216668
  0
ENDBLK
  0
BLOCK
  2
*DIM_0023
 70
    65
 10
0.0
 20
0.0
  0
LINE
  8
寸法
  6
BYBLOCK
 62
     0
 10
77.16726
 20
-69.076395
 11
77.16726
 21
-57.409728
  0
POINT
  8
寸法
 62
     0
 10
77.16726
 20
-69.076395
  0
POINT
  8
寸法
 62
     0
 10
77.16726
 20
-57.409728
  0
TEXT
  7
TextStyle03
  8
寸法
  6
CONTINUOUS
 62
     0
 10
76.075
 20
-54.59375
  1
上昇312以上
 40
3.0
 50
90.0
 72
     5
 11
76.075
 21
-36.40625
  0
ENDBLK
  0
BLOCK
  2
*DIM_0024
 70
    65
 10
0.0
 20
0.0
  0
LINE
  8
寸法
  6
BYBLOCK
 62
     0
 10
146.907152
 20
61.81515
 11
135.240485
 21
61.81515
  0
POINT
  8
寸法
 62
     0
 10
146.907152
 20
61.81515
  0
POINT
  8
寸法
 62
     0
 10
135.240485
 20
61.81515
  0
TEXT
  7
TextStyle03
  8
寸法
  6
CONTINUOUS
 62
     0
 10
114.30625
 20
60.75
  1
上昇312以上
 40
3.0
 72
     5
 11
132.49375
 21
60.75
  0
ENDBLK
  0
BLOCK
  2
*DIM_0025
 70
    65
 10
0.0
 20
0.0
  0
LINE
  8
寸法
  6
CONTINUOUS
 10
158.076993
 20
-83.785395
 11
163.264517
 21
-83.785395
  0
LINE
  8
寸法
  6
CONTINUOUS
 10
158.076993
 20
-53.785395
 11
163.264517
 21
-53.785395
  0
LINE
  8
寸法
  6
CONTINUOUS
 10
163.264517
 20
-83.785395
 11
163.264517
 21
-53.785395
  0
POINT
  8
寸法
 10
163.264517
 20
-83.785395
  0
POINT
  8
寸法
 10
163.264517
 20
-53.785395
  0
TEXT
  7
TextStyle03
  8
寸法
  6
CONTINUOUS
 10
162.875
 20
-71.2375
  1
900
 40
3.0
 50
90.0
 72
     5
 11
162.875
 21
-66.3625
  0
ENDBLK
  0
BLOCK
  2
*DIM_0026
 70
    65
 10
0.0
 20
0.0
  0
LINE
  8
寸法
  6
CONTINUOUS
 10
64.66595
 20
-69.076395
 11
77.16726
 21
-69.076395
  0
LINE
  8
寸法
  6
CONTINUOUS
 10
65.753775
 20
-77.192947
 11
77.16726
 21
-77.192947
  0
LINE
  8
寸法
  6
CONTINUOUS
 10
77.16726
 20
-69.076395
 11
77.16726
 21
-77.192947
  0
POINT
  8
寸法
 10
77.16726
 20
-69.076395
  0
POINT
  8
寸法
 10
77.16726
 20
-77.192947
  0
TEXT
  7
TextStyle03
  8
寸法
  6
CONTINUOUS
 10
80.15
 20
-77.275
  1
243.5
 40
3.0
 50
90.0
 72
     5
 11
80.15
 21
-69.025
  0
ENDBLK
  0
BLOCK
  2
*DIM_0027
 70
    65
 10
0.0
 20
0.0
  0
LINE
  8
寸法
  6
CONTINUOUS
 10
146.907152
 20
57.814033
 11
146.907152
 21
61.81515
  0
LINE
  8
寸法
  6
CONTINUOUS
 10
155.023705
 20
57.814033
 11
155.023705
 21
61.81515
  0
LINE
  8
寸法
  6
CONTINUOUS
 10
146.907152
 20
61.81515
 11
155.023705
 21
61.81515
  0
POINT
  8
寸法
 10
146.907152
 20
61.81515
  0
POINT
  8
寸法
 10
155.023705
 20
61.81515
  0
TEXT
  7
TextStyle03
  8
寸法
  6
CONTINUOUS
 10
146.8
 20
62.175
  1
243.5
 40
3.0
 72
     5
 11
155.05
 21
62.175
  0
ENDBLK
  0
ENDSEC
  0
SECTION
  2
ENTITIES
  0
POLYLINE
  8
通り芯
  6
CONTINUOUS
 66
     1
 70
     1
  0
VERTEX
  8
通り芯
 10
-210.0
 20
-148.5
  0
VERTEX
  8
通り芯
 10
210.0
 20
-148.5
  0
VERTEX
  8
通り芯
 10
210.0
 20
148.5
  0
VERTEX
  8
通り芯
 10
-210.0
 20
148.5
  0
SEQEND
  0
INSERT
  2
*GRP_0001
  8
型材断面
  6
CONTINUOUS
 10
0.0
 20
0.0
  0
LINE
  8
型材断面
  6
DASHDOT
 10
57.990438
 20
-77.836442
 11
57.990438
 21
52.814033
  0
LINE
  8
型材断面
  6
DASHDOT
 10
-17.009562
 20
-77.836442
 11
-17.009562
 21
52.814033
  0
LINE
  8
型材断面
  6
DASHDOT
 10
-92.009562
 20
-77.836442
 11
-92.009562
 21
52.814033
  0
POLYLINE
  8
型材断面
  6
CONTINUOUS
 66
     1
 70
     1
  0
VERTEX
  8
型材断面
 10
-7.508612
 20
13.03811
  0
VERTEX
  8
型材断面
 10
-26.280542
 20
13.03811
  0
VERTEX
  8
型材断面
 10
-26.280542
 20
8.301267
  0
VERTEX
  8
型材断面
 10
-7.508612
 20
8.301267
  0
SEQEND
  0
POLYLINE
  8
型材断面
  6
CONTINUOUS
 66
     1
 70
     1
  0
VERTEX
  8
型材断面
 10
-7.508612
 20
62.589955
  0
VERTEX
  8
型材断面
 10
-26.280542
 20
62.589955
  0
VERTEX
  8
型材断面
 10
-26.280542
 20
67.326798
  0
VERTEX
  8
型材断面
 10
-7.508612
 20
67.326798
  0
SEQEND
  0
LINE
  8
型材断面
  6
DASHDOT
 10
155.6672
 20
52.814033
 11
-92.009562
 21
52.814033
  0
LINE
  8
型材断面
  6
DASHDOT
 10
155.6672
 20
37.814033
 11
-92.009562
 21
37.814033
  0
LINE
  8
型材断面
  6
DASHDOT
 10
155.6672
 20
22.814033
 11
-92.009562
 21
22.814033
  0
LINE
  8
型材断面
  6
DASHDOT
 10
-17.009562
 20
22.814033
 11
-17.009562
 21
52.814033
  0
LINE
  8
型材断面
  6
CONTINUOUS
 10
-132.86177
 20
90.791505
 11
-132.265715
 21
88.200998
  0
LINE
  8
型材断面
  6
CONTINUOUS
 10
-132.86177
 20
90.791505
 11
-133.457827
 21
88.200998
  0
LINE
  8
型材断面
  6
CONTINUOUS
 10
-133.457827
 20
88.200998
 11
-132.265715
 21
88.200998
  0
LINE
  8
型材断面
  6
CONTINUOUS
 10
-138.884357
 20
84.922105
 11
-92.64258
 21
84.922105
  0
LINE
  8
型材断面
  6
CONTINUOUS
 10
-132.86177
 20
97.32138
 11
-134.3574
 21
94.730873
  0
LINE
  8
型材断面
  6
CONTINUOUS
 10
-132.86177
 20
97.32138
 11
-131.36614
 21
94.730873
  0
LINE
  8
型材断面
  6
CONTINUOUS
 10
-131.36614
 20
94.730873
 11
-134.3574
 21
94.730873
  0
LINE
  8
型材断面
  6
CONTINUOUS
 10
-138.884357
 20
93.792277
 11
-92.64258
 21
93.792277
  0
LINE
  8
型材断面
  6
CONTINUOUS
 10
-138.884357
 20
79.134073
 11
-92.64258
 21
79.134073
  0
LINE
  8
型材断面
  6
CONTINUOUS
 10
-138.884357
 20
73.34604
 11
-92.64258
 21
73.34604
  0
LINE
  8
型材断面
  6
CONTINUOUS
 10
-94.7729
 20
20.050845
 11
60.753773
 21
20.050845
  0
LINE
  8
型材断面
  6
CONTINUOUS
 10
-94.7729
 20
55.577218
 11
60.753773
 21
55.577218
  0
LINE
  8
型材断面
  6
CONTINUOUS
 10
60.753773
 20
37.814033
 11
63.34428
 21
39.309663
  0
LINE
  8
型材断面
  6
CONTINUOUS
 10
60.753773
 20
37.814033
 11
63.34428
 21
36.318403
  0
LINE
  8
型材断面
  6
CONTINUOUS
 10
63.34428
 20
36.318403
 11
63.34428
 21
39.309663
  0
LINE
  8
型材断面
  6
CONTINUOUS
 10
60.753773
 20
49.114035
 11
63.344283
 21
48.517982
  0
LINE
  8
型材断面
  6
CONTINUOUS
 10
60.753773
 20
49.114035
 11
63.34428
 21
49.710095
  0
LINE
  8
型材断面
  6
CONTINUOUS
 10
63.34428
 20
49.710095
 11
63.344283
 21
48.517982
  0
LINE
  8
型材断面
  6
CONTINUOUS
 10
60.753773
 20
26.51403
 11
63.344283
 21
27.110082
  0
LINE
  8
型材断面
  6
CONTINUOUS
 10
60.753773
 20
26.51403
 11
63.34428
 21
25.91797
  0
LINE
  8
型材断面
  6
CONTINUOUS
 10
63.34428
 20
25.91797
 11
63.344283
 21
27.110082
  0
LINE
  8
型材断面
  6
CONTINUOUS
 10
-75.342895
 20
55.577218
 11
-76.838525
 21
58.167725
  0
LINE
  8
型材断面
  6
CONTINUOUS
 10
-75.342895
 20
55.577218
 11
-73.847265
 21
58.167725
  0
LINE
  8
型材断面
  6
CONTINUOUS
 10
-73.847265
 20
58.167725
 11
-76.838525
 21
58.167725
  0
LINE
  8
型材断面
  6
CONTINUOUS
 10
41.32377
 20
55.577218
 11
42.8194
 21
58.167725
  0
LINE
  8
型材断面
  6
CONTINUOUS
 10
41.32377
 20
55.577218
 11
39.82814
 21
58.167725
  0
LINE
  8
型材断面
  6
CONTINUOUS
 10
39.82814
 20
58.167725
 11
42.8194
 21
58.167725
  0
LINE
  8
型材断面
  6
CONTINUOUS
 10
-17.009562
 20
55.577215
 11
-15.513933
 21
58.167722
  0
LINE
  8
型材断面
  6
CONTINUOUS
 10
-17.009562
 20
55.577215
 11
-18.505192
 21
58.167722
  0
LINE
  8
型材断面
  6
CONTINUOUS
 10
-18.505192
 20
58.167722
 11
-15.513933
 21
58.167722
  0
LINE
  8
型材断面
  6
CONTINUOUS
 10
-94.7729
 20
37.81403
 11
-97.363407
 21
39.30966
  0
LINE
  8
型材断面
  6
CONTINUOUS
 10
-94.7729
 20
37.81403
 11
-97.363407
 21
36.3184
  0
LINE
  8
型材断面
  6
CONTINUOUS
 10
-97.363407
 20
36.3184
 11
-97.363407
 21
39.30966
  0
LINE
  8
型材断面
  6
CONTINUOUS
 10
-94.7729
 20
49.114033
 11
-97.36341
 21
48.51798
  0
LINE
  8
型材断面
  6
CONTINUOUS
 10
-94.7729
 20
49.114033
 11
-97.363407
 21
49.710093
  0
LINE
  8
型材断面
  6
CONTINUOUS
 10
-97.363407
 20
49.710093
 11
-97.36341
 21
48.51798
  0
LINE
  8
型材断面
  6
CONTINUOUS
 10
-94.7729
 20
26.514027
 11
-97.36341
 21
27.11008
  0
LINE
  8
型材断面
  6
CONTINUOUS
 10
-94.7729
 20
26.514027
 11
-97.363407
 21
25.917967
  0
LINE
  8
型材断面
  6
CONTINUOUS
 10
-97.363407
 20
25.917967
 11
-97.36341
 21
27.11008
  0
LINE
  8
型材断面
  6
CONTINUOUS
 10
-75.342895
 20
20.050845
 11
-76.838525
 21
17.460338
  0
LINE
  8
型材断面
  6
CONTINUOUS
 10
-75.342895
 20
20.050845
 11
-73.847265
 21
17.460338
  0
LINE
  8
型材断面
  6
CONTINUOUS
 10
-73.847265
 20
17.460338
 11
-76.838525
 21
17.460338
  0
LINE
  8
型材断面
  6
CONTINUOUS
 10
41.32377
 20
20.050845
 11
42.8194
 21
17.460338
  0
LINE
  8
型材断面
  6
CONTINUOUS
 10
41.32377
 20
20.050845
 11
39.82814
 21
17.460338
  0
LINE
  8
型材断面
  6
CONTINUOUS
 10
39.82814
 20
17.460338
 11
42.8194
 21
17.460338
  0
LINE
  8
型材断面
  6
CONTINUOUS
 10
-17.009562
 20
20.050842
 11
-15.513933
 21
17.460335
  0
LINE
  8
型材断面
  6
CONTINUOUS
 10
-17.009562
 20
20.050842
 11
-18.505192
 21
17.460335
  0
LINE
  8
型材断面
  6
CONTINUOUS
 10
-18.505192
 20
17.460335
 11
-15.513933
 21
17.460335
  0
INSERT
  2
*GRP_0019
  8
型材断面
  6
CONTINUOUS
 10
0.0
 20
0.0
  0
INSERT
  2
*GRP_0020
  8
型材断面
  6
CONTINUOUS
 10
0.0
 20
0.0
  0
INSERT
  2
*GRP_0021
  8
型材断面
  6
CONTINUOUS
 10
0.0
 20
0.0
  0
INSERT
  2
*GRP_0022
  8
型材断面
  6
CONTINUOUS
 10
0.0
 20
0.0
  0
LINE
  8
型材断面
  6
DASHDOT
 10
20.780437
 20
22.814033
 11
20.780437
 21
52.814033
  0
LINE
  8
型材断面
  6
CONTINUOUS
 10
22.030437
 20
24.314035
 11
19.530437
 21
24.314038
  0
LINE
  8
型材断面
  6
CONTINUOUS
 10
22.030437
 20
51.31403
 11
19.530437
 21
51.314027
  0
LINE
  8
型材断面
  6
CONTINUOUS
 10
22.030437
 20
24.314035
 11
22.030437
 21
51.31403
  0
LINE
  8
型材断面
  6
CONTINUOUS
 10
19.530437
 20
24.314038
 11
19.530437
 21
51.314027
  0
LINE
  8
型材断面
  6
CONTINUOUS
 10
-15.759562
 20
24.314035
 11
-18.259562
 21
24.314038
  0
LINE
  8
型材断面
  6
CONTINUOUS
 10
-15.759562
 20
51.31403
 11
-18.259562
 21
51.314027
  0
LINE
  8
型材断面
  6
CONTINUOUS
 10
-15.759562
 20
24.314035
 11
-15.759562
 21
51.31403
  0
LINE
  8
型材断面
  6
CONTINUOUS
 10
-18.259562
 20
24.314038
 11
-18.259562
 21
51.314027
  0
LINE
  8
型材断面
  6
CONTINUOUS
 10
39.802105
 20
23.48069
 11
39.802105
 21
20.980693
  0
LINE
  8
型材断面
  6
CONTINUOUS
 10
38.96877
 20
23.48069
 11
38.96877
 21
20.980693
  0
LINE
  8
型材断面
  6
CONTINUOUS
 10
2.302105
 20
23.48069
 11
2.302105
 21
20.980693
  0
LINE
  8
型材断面
  6
CONTINUOUS
 10
1.46877
 20
23.48069
 11
1.46877
 21
20.980693
  0
LINE
  8
型材断面
  6
CONTINUOUS
 10
39.802105
 20
52.147375
 11
39.802105
 21
54.647372
  0
LINE
  8
型材断面
  6
CONTINUOUS
 10
38.96877
 20
52.147375
 11
38.96877
 21
54.647372
  0
LINE
  8
型材断面
  6
CONTINUOUS
 10
2.302105
 20
52.147375
 11
2.302105
 21
54.647372
  0
LINE
  8
型材断面
  6
CONTINUOUS
 10
1.46877
 20
52.147375
 11
1.46877
 21
54.647372
  0
LINE
  8
型材断面
  6
CONTINUOUS
 10
38.96877
 20
23.48069
 11
2.302105
 21
23.480717
  0
LINE
  8
型材断面
  6
CONTINUOUS
 10
1.46877
 20
23.480717
 11
-17.009562
 21
23.480732
  0
LINE
  8
型材断面
  6
CONTINUOUS
 10
38.96877
 20
52.147375
 11
2.302105
 21
52.147348
  0
LINE
  8
型材断面
  6
CONTINUOUS
 10
1.46877
 20
52.147348
 11
-17.009562
 21
52.147333
  0
LINE
  8
型材断面
  6
CONTINUOUS
 10
60.753775
 20
20.050845
 11
60.753775
 21
55.577218
  0
LINE
  8
型材断面
  6
CONTINUOUS
 10
59.588095
 20
20.980677
 11
59.823795
 21
21.216378
  0
LINE
  8
型材断面
  6
CONTINUOUS
 10
57.088092
 20
23.480677
 11
57.323792
 21
23.716378
  0
LINE
  8
型材断面
  6
CONTINUOUS
 10
57.323792
 20
23.716378
 11
59.823795
 21
21.216378
  0
LINE
  8
型材断面
  6
CONTINUOUS
 10
57.088092
 20
23.480677
 11
59.588095
 21
20.980677
  0
LINE
  8
型材断面
  6
CONTINUOUS
 10
60.753628
 20
20.050845
 11
59.705942
 21
21.098525
  0
LINE
  8
型材断面
  6
CONTINUOUS
 10
59.823773
 20
37.814033
 11
59.823795
 21
21.216378
  0
LINE
  8
型材断面
  6
CONTINUOUS
 10
59.588095
 20
54.647387
 11
59.823795
 21
54.411687
  0
LINE
  8
型材断面
  6
CONTINUOUS
 10
57.323792
 20
51.911687
 11
59.823795
 21
54.411687
  0
LINE
  8
型材断面
  6
CONTINUOUS
 10
60.753628
 20
55.57722
 11
59.705942
 21
54.52954
  0
LINE
  8
型材断面
  6
CONTINUOUS
 10
57.088092
 20
52.147387
 11
57.323792
 21
51.911687
  0
LINE
  8
型材断面
  6
CONTINUOUS
 10
59.823773
 20
37.814033
 11
59.823795
 21
54.411687
  0
LINE
  8
型材断面
  6
CONTINUOUS
 10
57.088092
 20
52.147387
 11
59.588095
 21
54.647387
  0
LINE
  8
型材断面
  6
CONTINUOUS
 10
57.323773
 20
38.2307
 11
59.823773
 21
38.2307
  0
LINE
  8
型材断面
  6
CONTINUOUS
 10
57.323773
 20
37.397365
 11
59.823773
 21
37.397365
  0
LINE
  8
型材断面
  6
CONTINUOUS
 10
57.323773
 20
37.397365
 11
57.323792
 21
23.716378
  0
LINE
  8
型材断面
  6
CONTINUOUS
 10
57.323773
 20
38.2307
 11
57.323792
 21
51.911687
  0
LINE
  8
型材断面
  6
CONTINUOUS
 10
-17.009562
 20
54.64733
 11
59.588095
 21
54.647387
  0
LINE
  8
型材断面
  6
CONTINUOUS
 10
39.802105
 20
52.147375
 11
57.088092
 21
52.147387
  0
LINE
  8
型材断面
  6
CONTINUOUS
 10
39.802105
 20
23.48069
 11
57.088092
 21
23.480677
  0
LINE
  8
型材断面
  6
CONTINUOUS
 10
-17.009562
 20
20.980735
 11
59.588095
 21
20.980677
  0
LINE
  8
型材断面
  6
DASHDOT
 10
-54.799562
 20
22.814033
 11
-54.799562
 21
52.814033
  0
LINE
  8
型材断面
  6
CONTINUOUS
 10
-56.049562
 20
24.314035
 11
-53.549562
 21
24.314038
  0
LINE
  8
型材断面
  6
CONTINUOUS
 10
-56.049562
 20
51.31403
 11
-53.549562
 21
51.314027
  0
LINE
  8
型材断面
  6
CONTINUOUS
 10
-56.049562
 20
24.314035
 11
-56.049562
 21
51.31403
  0
LINE
  8
型材断面
  6
CONTINUOUS
 10
-53.549562
 20
24.314038
 11
-53.549562
 21
51.314027
  0
LINE
  8
型材断面
  6
CONTINUOUS
 10
-73.82123
 20
23.48069
 11
-73.82123
 21
20.980693
  0
LINE
  8
型材断面
  6
CONTINUOUS
 10
-72.987895
 20
23.48069
 11
-72.987895
 21
20.980693
  0
LINE
  8
型材断面
  6
CONTINUOUS
 10
-36.32123
 20
23.48069
 11
-36.32123
 21
20.980693
  0
LINE
  8
型材断面
  6
CONTINUOUS
 10
-35.487895
 20
23.48069
 11
-35.487895
 21
20.980693
  0
LINE
  8
型材断面
  6
CONTINUOUS
 10
-73.82123
 20
52.147375
 11
-73.82123
 21
54.647372
  0
LINE
  8
型材断面
  6
CONTINUOUS
 10
-72.987895
 20
52.147375
 11
-72.987895
 21
54.647372
  0
LINE
  8
型材断面
  6
CONTINUOUS
 10
-36.32123
 20
52.147375
 11
-36.32123
 21
54.647372
  0
LINE
  8
型材断面
  6
CONTINUOUS
 10
-35.487895
 20
52.147375
 11
-35.487895
 21
54.647372
  0
LINE
  8
型材断面
  6
CONTINUOUS
 10
-72.987895
 20
23.48069
 11
-36.32123
 21
23.480717
  0
LINE
  8
型材断面
  6
CONTINUOUS
 10
-72.987895
 20
52.147375
 11
-36.32123
 21
52.147348
  0
LINE
  8
型材断面
  6
CONTINUOUS
 10
-94.7729
 20
20.050845
 11
-94.7729
 21
55.577218
  0
LINE
  8
型材断面
  6
CONTINUOUS
 10
-93.60722
 20
20.980677
 11
-93.84292
 21
21.216378
  0
LINE
  8
型材断面
  6
CONTINUOUS
 10
-91.107218
 20
23.480677
 11
-91.342918
 21
23.716378
  0
LINE
  8
型材断面
  6
CONTINUOUS
 10
-91.342918
 20
23.716378
 11
-93.84292
 21
21.216378
  0
LINE
  8
型材断面
  6
CONTINUOUS
 10
-91.107218
 20
23.480677
 11
-93.60722
 21
20.980677
  0
LINE
  8
型材断面
  6
CONTINUOUS
 10
-94.772753
 20
20.050845
 11
-93.725068
 21
21.098525
  0
LINE
  8
型材断面
  6
CONTINUOUS
 10
-93.842897
 20
37.814033
 11
-93.84292
 21
21.216378
  0
LINE
  8
型材断面
  6
CONTINUOUS
 10
-93.60722
 20
54.647387
 11
-93.84292
 21
54.411687
  0
LINE
  8
型材断面
  6
CONTINUOUS
 10
-91.342918
 20
51.911687
 11
-93.84292
 21
54.411687
  0
LINE
  8
型材断面
  6
CONTINUOUS
 10
-94.772753
 20
55.57722
 11
-93.725068
 21
54.52954
  0
LINE
  8
型材断面
  6
CONTINUOUS
 10
-91.107218
 20
52.147387
 11
-91.342918
 21
51.911687
  0
LINE
  8
型材断面
  6
CONTINUOUS
 10
-93.842897
 20
37.814033
 11
-93.84292
 21
54.411687
  0
LINE
  8
型材断面
  6
CONTINUOUS
 10
-91.107218
 20
52.147387
 11
-93.60722
 21
54.647387
  0
LINE
  8
型材断面
  6
CONTINUOUS
 10
-91.342897
 20
38.2307
 11
-93.842897
 21
38.2307
  0
LINE
  8
型材断面
  6
CONTINUOUS
 10
-91.342897
 20
37.397365
 11
-93.842897
 21
37.397365
  0
LINE
  8
型材断面
  6
CONTINUOUS
 10
-91.342897
 20
37.397365
 11
-91.342918
 21
23.716378
  0
LINE
  8
型材断面
  6
CONTINUOUS
 10
-91.342897
 20
38.2307
 11
-91.342918
 21
51.911687
  0
LINE
  8
型材断面
  6
CONTINUOUS
 10
-73.82123
 20
52.147375
 11
-91.107218
 21
52.147387
  0
LINE
  8
型材断面
  6
CONTINUOUS
 10
-73.82123
 20
23.48069
 11
-91.107218
 21
23.480677
  0
LINE
  8
型材断面
  6
CONTINUOUS
 10
-17.009562
 20
52.147333
 11
-35.487895
 21
52.147345
  0
LINE
  8
型材断面
  6
CONTINUOUS
 10
-17.009562
 20
23.480732
 11
-35.487895
 21
23.48072
  0
LINE
  8
型材断面
  6
CONTINUOUS
 10
-17.009562
 20
54.64733
 11
-93.60722
 21
54.647387
  0
LINE
  8
型材断面
  6
CONTINUOUS
 10
-17.009562
 20
20.980735
 11
-93.60722
 21
20.980677
  0
LINE
  8
型材断面
  6
CONTINUOUS
 10
60.253775
 20
-77.192947
 11
60.253775
 21
-77.529612
  0
LINE
  8
型材断面
  6
CONTINUOUS
 10
60.557107
 20
-73.096397
 11
60.753775
 21
-73.293065
  0
LINE
  8
型材断面
  6
CONTINUOUS
 10
60.753775
 20
-73.293065
 11
60.753775
 21
-77.192947
  0
LINE
  8
型材断面
  6
CONTINUOUS
 10
155.023705
 20
55.07722
 11
155.36037
 21
55.07722
  0
LINE
  8
型材断面
  6
CONTINUOUS
 10
150.927155
 20
55.380552
 11
151.123822
 21
55.57722
  0
LINE
  8
型材断面
  6
CONTINUOUS
 10
151.123822
 20
55.57722
 11
155.023705
 21
55.57722
  0
LINE
  8
型材断面
  6
CONTINUOUS
 10
155.36037
 20
55.07722
 11
155.36037
 21
37.814033
  0
LINE
  8
型材断面
  6
CONTINUOUS
 10
155.023705
 20
55.57722
 11
155.023705
 21
37.814033
  0
LINE
  8
型材断面
  6
CONTINUOUS
 62
    47
 10
150.9272
 20
55.380595
 11
150.9272
 21
37.814033
  0
LINE
  8
型材断面
  6
CONTINUOUS
 10
151.123822
 20
55.57722
 11
151.123822
 21
37.814033
  0
LINE
  8
型材断面
  6
CONTINUOUS
 10
155.023705
 20
20.550845
 11
155.36037
 21
20.550845
  0
LINE
  8
型材断面
  6
CONTINUOUS
 10
150.927155
 20
20.247513
 11
151.123822
 21
20.050845
  0
LINE
  8
型材断面
  6
CONTINUOUS
 10
151.123822
 20
20.050845
 11
155.023705
 21
20.050845
  0
LINE
  8
型材断面
  6
CONTINUOUS
 10
155.36037
 20
20.550845
 11
155.36037
 21
37.814033
  0
LINE
  8
型材断面
  6
CONTINUOUS
 10
155.023705
 20
20.050845
 11
155.023705
 21
37.814033
  0
LINE
  8
型材断面
  6
CONTINUOUS
 62
    47
 10
150.9272
 20
20.24747
 11
150.9272
 21
37.814033
  0
LINE
  8
型材断面
  6
CONTINUOUS
 10
151.123822
 20
20.050845
 11
151.123822
 21
37.814033
  0
LINE
  8
型材断面
  6
CONTINUOUS
 62
    47
 10
60.55715
 20
-73.096443
 11
-17.009562
 21
-73.096443
  0
LINE
  8
型材断面
  6
CONTINUOUS
 10
60.753775
 20
-73.293065
 11
-17.009562
 21
-73.293065
  0
LINE
  8
型材断面
  6
CONTINUOUS
 10
60.753775
 20
-77.192947
 11
-17.009562
 21
-77.192947
  0
LINE
  8
型材断面
  6
CONTINUOUS
 10
60.253775
 20
-77.529612
 11
-17.009562
 21
-77.529612
  0
LINE
  8
型材断面
  6
CONTINUOUS
 10
-94.2729
 20
-77.192947
 11
-94.2729
 21
-77.529612
  0
LINE
  8
型材断面
  6
CONTINUOUS
 10
-94.576232
 20
-73.096397
 11
-94.7729
 21
-73.293065
  0
LINE
  8
型材断面
  6
CONTINUOUS
 10
-94.7729
 20
-73.293065
 11
-94.7729
 21
-77.192947
  0
LINE
  8
型材断面
  6
CONTINUOUS
 62
    47
 10
-94.576275
 20
-73.096443
 11
-17.009562
 21
-73.096443
  0
LINE
  8
型材断面
  6
CONTINUOUS
 10
-94.7729
 20
-73.293065
 11
-17.009562
 21
-73.293065
  0
LINE
  8
型材断面
  6
CONTINUOUS
 10
-94.7729
 20
-77.192947
 11
-17.009562
 21
-77.192947
  0
LINE
  8
型材断面
  6
CONTINUOUS
 10
-94.2729
 20
-77.529612
 11
-17.009562
 21
-77.529612
  0
TEXT
  7
TextStyle03
  8
文字
  6
CONTINUOUS
 10
-25.2
 20
9.325
  1
可動装置側
 40
3.0
 72
     5
 11
-8.7
 21
9.325
  0
TEXT
  7
TextStyle03
  8
文字
  6
CONTINUOUS
 10
-25.2
 20
63.275
  1
可動装置側
 40
3.0
 72
     5
 11
-8.7
 21
63.275
  0
TEXT
  7
TextStyle03
  8
文字
  6
CONTINUOUS
 10
-130.075
 20
89.4
  1
はケーシング位置を示す
 40
3.0
 72
     5
 11
-93.325
 21
89.4
  0
TEXT
  7
TextStyle03
  8
文字
  6
CONTINUOUS
 10
-130.075
 20
86.025
  1
４ヶ所中1ヶ所に設定
 40
3.0
 72
     5
 11
-98.3875
 21
86.025
  0
TEXT
  7
TextStyle03
  8
文字
  6
CONTINUOUS
 10
-130.075
 20
94.925
  1
は排水穴位置を示す
 40
3.0
 72
     5
 11
-100.075
 21
94.925
  0
TEXT
  7
TextStyle03
  8
文字
  6
CONTINUOUS
 10
-113.0
 20
16.275
  1
アンカーピッチ
 40
3.0
 50
90.0
 72
     5
 11
-113.0
 21
39.525
  0
TEXT
  7
TextStyle03
  8
文字
  6
CONTINUOUS
 10
-77.075
 20
89.875
  1
アンカーピッチ
 40
3.0
 72
     5
 11
-53.825
 21
89.875
  0
TEXT
  7
TextStyle03
  8
文字
  6
CONTINUOUS
 10
-133.8
 20
80.05
  1
アンカー数量　１６ヶ所
 40
3.0
 72
     5
 11
-97.05
 21
80.05
  0
TEXT
  7
TextStyle03
  8
文字
  6
CONTINUOUS
 10
-133.85
 20
74.3
  1
アームユニット数　４ヶ所
 40
3.0
 72
     5
 11
-93.725
 21
74.3
  0
LINE
  8
文字
  6
CONTINUOUS
 10
149.119465
 20
55.577218
 11
92.010088
 21
55.577218
  0
LINE
  8
文字
  6
CONTINUOUS
 10
149.119465
 20
20.050845
 11
92.010088
 21
20.050845
  0
LINE
  8
文字
  6
CONTINUOUS
 10
135.240485
 20
61.81515
 11
135.240485
 21
56.902377
  0
LINE
  8
文字
  6
CONTINUOUS
 10
-94.7729
 20
-70.743062
 11
-94.7729
 21
-12.609317
  0
LINE
  8
文字
  6
CONTINUOUS
 10
60.753773
 20
-70.743062
 11
60.753773
 21
-12.609317
  0
LINE
  8
文字
  6
CONTINUOUS
 10
77.16726
 20
-57.409728
 11
63.67908
 21
-57.409728
  0
LINE
  8
文字
  6
CONTINUOUS
 10
153.076993
 20
-45.311875
 11
153.076993
 21
-52.640352
  0
LINE
  8
文字
  6
CONTINUOUS
 10
116.476993
 20
-45.311875
 11
116.476993
 21
-52.640352
  0
TEXT
  7
TextStyle03
  8
文字
  6
CONTINUOUS
 10
134.525
 20
-77.375
  1
網入り6.8t
 40
3.0
 72
     5
 11
151.2125
 21
-77.375
  0
TEXT
  7
TextStyle03
  8
文字
  6
CONTINUOUS
 10
141.2
 20
-82.05
  1
×４枚
 40
3.0
 72
     5
 11
150.95
 21
-82.05
  0
TEXT
  7
TextStyle03
  8
文字
  6
CONTINUOUS
 10
61.075
 20
125.25
  1
シリーズ：ＴＦＦＬ
 40
5.0
 72
     5
 11
111.075
 21
125.25
  0
TEXT
  7
TextStyle03
  8
文字
  6
CONTINUOUS
 10
61.075
 20
119.625
  1
　　　　　（上下可動）900×4500タイプ
 40
5.0
 72
     5
 11
164.5125
 21
119.625
  0
TEXT
  7
TextStyle03
  8
文字
  6
CONTINUOUS
 10
61.075
 20
114.0
  1
図面名　：外観姿図
 40
5.0
 72
     5
 11
111.075
 21
114.0
  0
TEXT
  7
TextStyle03
  8
文字
  6
CONTINUOUS
 10
61.075
 20
108.375
  1
　　　　　　
 40
5.0
 72
     5
 11
94.2
 21
108.375
  0
TEXT
  7
TextStyle03
  8
文字
  6
CONTINUOUS
 10
61.225
 20
104.525
  1
ＮＳコード：ＮＳＦＬ
 40
5.0
 72
     5
 11
116.85
 21
104.525
  0
INSERT
  2
*DIM_0002
  8
寸法
  6
CONTINUOUS
 10
0.0
 20
0.0
  0
INSERT
  2
*DIM_0003
  8
寸法
  6
CONTINUOUS
 10
0.0
 20
0.0
  0
INSERT
  2
*DIM_0004
  8
寸法
  6
CONTINUOUS
 10
0.0
 20
0.0
  0
INSERT
  2
*DIM_0005
  8
寸法
  6
CONTINUOUS
 10
0.0
 20
0.0
  0
INSERT
  2
*DIM_0006
  8
寸法
  6
CONTINUOUS
 10
0.0
 20
0.0
  0
INSERT
  2
*DIM_0007
  8
寸法
  6
CONTINUOUS
 10
0.0
 20
0.0
  0
INSERT
  2
*DIM_0008
  8
寸法
  6
CONTINUOUS
 10
0.0
 20
0.0
  0
INSERT
  2
*DIM_0009
  8
寸法
  6
CONTINUOUS
 10
0.0
 20
0.0
  0
INSERT
  2
*DIM_0010
  8
寸法
  6
CONTINUOUS
 10
0.0
 20
0.0
  0
INSERT
  2
*DIM_0011
  8
寸法
  6
CONTINUOUS
 10
0.0
 20
0.0
  0
INSERT
  2
*DIM_0012
  8
寸法
  6
CONTINUOUS
 10
0.0
 20
0.0
  0
INSERT
  2
*DIM_0013
  8
寸法
  6
CONTINUOUS
 10
0.0
 20
0.0
  0
INSERT
  2
*DIM_0014
  8
寸法
  6
CONTINUOUS
 10
0.0
 20
0.0
  0
INSERT
  2
*DIM_0015
  8
寸法
  6
CONTINUOUS
 10
0.0
 20
0.0
  0
INSERT
  2
*DIM_0016
  8
寸法
  6
CONTINUOUS
 10
0.0
 20
0.0
  0
INSERT
  2
*DIM_0017
  8
寸法
  6
CONTINUOUS
 10
0.0
 20
0.0
  0
INSERT
  2
*DIM_0018
  8
寸法
  6
CONTINUOUS
 10
0.0
 20
0.0
  0
INSERT
  2
*DIM_0023
  8
寸法
  6
CONTINUOUS
 10
0.0
 20
0.0
  0
INSERT
  2
*DIM_0024
  8
寸法
  6
CONTINUOUS
 10
0.0
 20
0.0
  0
INSERT
  2
*DIM_0025
  8
寸法
  6
CONTINUOUS
 10
0.0
 20
0.0
  0
INSERT
  2
*DIM_0026
  8
寸法
  6
CONTINUOUS
 10
0.0
 20
0.0
  0
INSERT
  2
*DIM_0027
  8
寸法
  6
CONTINUOUS
 10
0.0
 20
0.0
  0
LINE
  8
別途部材
  6
CONTINUOUS
 62
    47
 10
147.007152
 20
54.64722
 11
147.07382
 21
54.64722
  0
ARC
  8
別途部材
  6
CONTINUOUS
 62
    47
 10
147.007155
 20
54.547219
 40
0.1
 50
90.0
 51
180.0
  0
LINE
  8
別途部材
  6
CONTINUOUS
 62
    47
 10
147.07382
 20
54.490697
 11
148.57382
 21
54.490697
  0
LINE
  8
別途部材
  6
CONTINUOUS
 62
    47
 10
147.007152
 20
20.980842
 11
147.07382
 21
20.980842
  0
ARC
  8
別途部材
  6
CONTINUOUS
 62
    47
 10
147.007155
 20
21.080843
 40
0.1
 50
180.0
 51
270.0
  0
LINE
  8
別途部材
  6
CONTINUOUS
 62
    47
 10
147.07382
 20
21.137365
 11
148.57382
 21
21.137365
  0
LINE
  8
別途部材
  6
CONTINUOUS
 62
    47
 10
150.890488
 20
55.577218
 11
150.890488
 21
37.814033
  0
LINE
  8
別途部材
  6
CONTINUOUS
 62
    47
 10
149.723822
 20
55.577218
 11
149.723822
 21
37.814033
  0
LINE
  8
別途部材
  6
CONTINUOUS
 62
    47
 10
148.57382
 20
54.490697
 11
148.57382
 21
37.814033
  0
LINE
  8
別途部材
  6
CONTINUOUS
 62
    47
 10
147.07382
 20
54.64722
 11
147.07382
 21
37.814033
  0
LINE
  8
別途部材
  6
CONTINUOUS
 62
    47
 10
146.907152
 20
54.54722
 11
146.907152
 21
37.814033
  0
LINE
  8
別途部材
  6
CONTINUOUS
 62
    47
 10
150.890488
 20
20.050845
 11
150.890488
 21
37.814033
  0
LINE
  8
別途部材
  6
CONTINUOUS
 62
    47
 10
149.723822
 20
20.050845
 11
149.723822
 21
37.814033
  0
LINE
  8
別途部材
  6
CONTINUOUS
 62
    47
 10
147.07382
 20
20.980842
 11
147.07382
 21
37.814033
  0
LINE
  8
別途部材
  6
CONTINUOUS
 62
    47
 10
146.907152
 20
21.080842
 11
146.907152
 21
37.814033
  0
LINE
  8
別途部材
  6
CONTINUOUS
 62
    47
 10
148.57382
 20
21.137365
 11
148.57382
 21
37.814033
  0
LINE
  8
別途部材
  6
DOT
 62
    47
 10
135.340485
 20
54.64722
 11
135.407152
 21
54.64722
  0
ARC
  8
別途部材
  6
DOT
 62
    47
 10
135.340488
 20
54.547219
 40
0.1
 50
90.0
 51
180.0
  0
LINE
  8
別途部材
  6
DOT
 62
    47
 10
135.407152
 20
54.490697
 11
136.907152
 21
54.490697
  0
LINE
  8
別途部材
  6
DOT
 62
    47
 10
135.340485
 20
20.980842
 11
135.407152
 21
20.980842
  0
ARC
  8
別途部材
  6
DOT
 62
    47
 10
135.340488
 20
21.080843
 40
0.1
 50
180.0
 51
270.0
  0
LINE
  8
別途部材
  6
DOT
 62
    47
 10
135.407152
 20
21.137365
 11
136.907152
 21
21.137365
  0
LINE
  8
別途部材
  6
DOT
 62
    47
 10
139.22382
 20
55.577218
 11
139.22382
 21
37.814033
  0
LINE
  8
別途部材
  6
DOT
 62
    47
 10
138.057155
 20
55.577218
 11
138.057155
 21
37.814033
  0
LINE
  8
別途部材
  6
DOT
 62
    47
 10
136.907152
 20
54.490697
 11
136.907152
 21
37.814033
  0
LINE
  8
別途部材
  6
DOT
 62
    47
 10
135.407152
 20
54.64722
 11
135.407152
 21
37.814033
  0
LINE
  8
別途部材
  6
DOT
 62
    47
 10
135.240485
 20
54.54722
 11
135.240485
 21
37.814033
  0
LINE
  8
別途部材
  6
DOT
 62
    47
 10
138.057155
 20
20.050845
 11
138.057155
 21
37.814033
  0
LINE
  8
別途部材
  6
DOT
 62
    47
 10
139.22382
 20
20.050845
 11
139.22382
 21
37.814033
  0
LINE
  8
別途部材
  6
DOT
 62
    47
 10
135.407152
 20
20.980842
 11
135.407152
 21
37.814033
  0
LINE
  8
別途部材
  6
DOT
 62
    47
 10
135.240485
 20
21.080842
 11
135.240485
 21
37.814033
  0
LINE
  8
別途部材
  6
DOT
 62
    47
 10
136.907152
 20
21.137365
 11
136.907152
 21
37.814033
  0
LINE
  8
別途部材
  6
CONTINUOUS
 62
    47
 10
-93.842903
 20
-69.176395
 11
-93.842903
 21
-69.243062
  0
ARC
  8
別途部材
  6
CONTINUOUS
 62
    47
 10
-93.7429
 20
-69.1764
 40
0.1
 50
90.0
 51
180.0
  0
LINE
  8
別途部材
  6
CONTINUOUS
 62
    47
 10
-93.68638
 20
-69.243062
 11
-93.68638
 21
-70.743062
  0
LINE
  8
別途部材
  6
CONTINUOUS
 62
    47
 10
59.823775
 20
-69.176395
 11
59.823775
 21
-69.243062
  0
ARC
  8
別途部材
  6
CONTINUOUS
 62
    47
 10
59.723769
 20
-69.1764
 40
0.1
 50
0.0
 51
90.0
  0
LINE
  8
別途部材
  6
CONTINUOUS
 62
    47
 10
59.667252
 20
-69.243062
 11
59.667252
 21
-70.743062
  0
LINE
  8
別途部材
  6
CONTINUOUS
 62
    47
 10
-94.7729
 20
-71.893065
 11
-17.009562
 21
-71.893065
  0
LINE
  8
別途部材
  6
CONTINUOUS
 62
    47
 10
-93.68638
 20
-70.743062
 11
-17.009562
 21
-70.743062
  0
LINE
  8
別途部材
  6
CONTINUOUS
 62
    47
 10
-93.742903
 20
-69.076395
 11
-17.009562
 21
-69.076395
  0
LINE
  8
別途部材
  6
CONTINUOUS
 62
    47
 10
-93.842903
 20
-69.243062
 11
-17.009562
 21
-69.243062
  0
LINE
  8
別途部材
  6
CONTINUOUS
 62
    47
 10
-94.7729
 20
-73.05973
 11
-17.009562
 21
-73.05973
  0
LINE
  8
別途部材
  6
CONTINUOUS
 62
    47
 10
59.823775
 20
-69.243062
 11
-17.009562
 21
-69.243062
  0
LINE
  8
別途部材
  6
CONTINUOUS
 62
    47
 10
59.723775
 20
-69.076395
 11
-17.009562
 21
-69.076395
  0
LINE
  8
別途部材
  6
CONTINUOUS
 62
    47
 10
59.667252
 20
-70.743062
 11
-17.009562
 21
-70.743062
  0
LINE
  8
別途部材
  6
CONTINUOUS
 62
    47
 10
60.753773
 20
-71.893065
 11
-17.009562
 21
-71.893065
  0
LINE
  8
別途部材
  6
CONTINUOUS
 62
    47
 10
60.753773
 20
-73.05973
 11
-17.009562
 21
-73.05973
  0
LINE
  8
別途部材
  6
DOT
 62
    47
 10
-93.842903
 20
-57.509728
 11
-93.842903
 21
-57.576395
  0
ARC
  8
別途部材
  6
DOT
 62
    47
 10
-93.7429
 20
-57.509731
 40
0.1
 50
90.0
 51
180.0
  0
LINE
  8
別途部材
  6
DOT
 62
    47
 10
-93.68638
 20
-57.576395
 11
-93.68638
 21
-59.076395
  0
LINE
  8
別途部材
  6
DOT
 62
    47
 10
59.823775
 20
-57.509728
 11
59.823775
 21
-57.576395
  0
ARC
  8
別途部材
  6
DOT
 62
    47
 10
59.723769
 20
-57.509731
 40
0.1
 50
0.0
 51
90.0
  0
LINE
  8
別途部材
  6
DOT
 62
    47
 10
59.667252
 20
-57.576395
 11
59.667252
 21
-59.076395
  0
LINE
  8
別途部材
  6
DOT
 62
    47
 10
-93.68638
 20
-59.076395
 11
-17.009562
 21
-59.076395
  0
LINE
  8
別途部材
  6
DOT
 62
    47
 10
-94.7729
 20
-60.226397
 11
-17.009562
 21
-60.226397
  0
LINE
  8
別途部材
  6
DOT
 62
    47
 10
-94.7729
 20
-61.393062
 11
-17.009562
 21
-61.393062
  0
LINE
  8
別途部材
  6
DOT
 62
    47
 10
-93.742903
 20
-57.409728
 11
-17.009562
 21
-57.409728
  0
LINE
  8
別途部材
  6
DOT
 62
    47
 10
-93.842903
 20
-57.576395
 11
-17.009562
 21
-57.576395
  0
LINE
  8
別途部材
  6
DOT
 62
    47
 10
59.723775
 20
-57.409728
 11
-17.009562
 21
-57.409728
  0
LINE
  8
別途部材
  6
DOT
 62
    47
 10
59.823775
 20
-57.576395
 11
-17.009562
 21
-57.576395
  0
LINE
  8
別途部材
  6
DOT
 62
    47
 10
59.667252
 20
-59.076395
 11
-17.009562
 21
-59.076395
  0
LINE
  8
別途部材
  6
DOT
 62
    47
 10
60.753773
 20
-60.226397
 11
-17.009562
 21
-60.226397
  0
LINE
  8
別途部材
  6
DOT
 62
    47
 10
60.753773
 20
-61.393062
 11
-17.009562
 21
-61.393062
  0
LINE
  8
別途部材
  6
CONTINUOUS
 10
116.476993
 20
-53.785395
 11
116.476993
 21
-83.785395
  0
LINE
  8
曲げ物
  6
CONTINUOUS
 10
42.716167
 20
39.693362
 11
39.020855
 21
35.99805
  0
LINE
  8
曲げ物
  6
CONTINUOUS
 10
42.012697
 20
38.157252
 11
40.556968
 21
36.701522
  0
LINE
  8
曲げ物
  6
CONTINUOUS
 10
41.180057
 20
38.989892
 11
39.724328
 21
37.534162
  0
LINE
  8
曲げ物
  6
CONTINUOUS
 10
4.7112
 20
39.693362
 11
1.015887
 21
35.99805
  0
LINE
  8
曲げ物
  6
CONTINUOUS
 10
4.00773
 20
38.157252
 11
2.552
 21
36.701522
  0
LINE
  8
曲げ物
  6
CONTINUOUS
 10
3.17509
 20
38.989892
 11
1.71936
 21
37.534162
  0
LINE
  8
曲げ物
  6
CONTINUOUS
 10
-33.658252
 20
39.693362
 11
-37.353565
 21
35.99805
  0
LINE
  8
曲げ物
  6
CONTINUOUS
 10
-34.361722
 20
38.157252
 11
-35.817453
 21
36.701522
  0
LINE
  8
曲げ物
  6
CONTINUOUS
 10
-35.194362
 20
38.989892
 11
-36.650093
 21
37.534162
  0
LINE
  8
曲げ物
  6
CONTINUOUS
 10
-71.175543
 20
39.693362
 11
-74.870855
 21
35.99805
  0
LINE
  8
曲げ物
  6
CONTINUOUS
 10
-71.879013
 20
38.157252
 11
-73.334742
 21
36.701522
  0
LINE
  8
曲げ物
  6
CONTINUOUS
 10
-72.711653
 20
38.989892
 11
-74.167382
 21
37.534162
  0
LINE
  8
曲げ物
  6
CONTINUOUS
 10
153.076993
 20
-53.785395
 11
116.476993
 21
-53.785395
  0
LINE
  8
曲げ物
  6
CONTINUOUS
 10
153.076993
 20
-83.785395
 11
116.476993
 21
-83.785395
  0
LINE
  8
曲げ物
  6
CONTINUOUS
 10
153.076993
 20
-53.785395
 11
153.076993
 21
-83.785395
  0
LINE
  8
鉄骨等
  6
CONTINUOUS
 62
    47
 10
150.890488
 20
55.577218
 11
149.723822
 21
55.577218
  0
LINE
  8
鉄骨等
  6
CONTINUOUS
 62
    47
 10
149.723822
 20
55.577218
 11
148.573822
 21
54.17403
  0
LINE
  8
鉄骨等
  6
CONTINUOUS
 62
    47
 10
150.890488
 20
20.050845
 11
149.723822
 21
20.050845
  0
LINE
  8
鉄骨等
  6
CONTINUOUS
 62
    47
 10
149.723822
 20
20.050845
 11
148.573822
 21
21.45403
  0
LINE
  8
鉄骨等
  6
DOT
 62
    47
 10
139.22382
 20
55.577218
 11
138.057155
 21
55.577218
  0
LINE
  8
鉄骨等
  6
DOT
 62
    47
 10
138.057155
 20
55.577218
 11
136.907155
 21
54.17403
  0
LINE
  8
鉄骨等
  6
DOT
 62
    47
 10
139.22382
 20
20.050845
 11
138.057155
 21
20.050845
  0
LINE
  8
鉄骨等
  6
DOT
 62
    47
 10
138.057155
 20
20.050845
 11
136.907155
 21
21.45403
  0
LINE
  8
鉄骨等
  6
CONTINUOUS
 62
    47
 10
-94.7729
 20
-73.05973
 11
-94.7729
 21
-71.893065
  0
LINE
  8
鉄骨等
  6
CONTINUOUS
 62
    47
 10
-94.7729
 20
-71.893065
 11
-93.369715
 21
-70.743065
  0
LINE
  8
鉄骨等
  6
CONTINUOUS
 62
    47
 10
60.753773
 20
-73.05973
 11
60.753773
 21
-71.893065
  0
LINE
  8
鉄骨等
  6
CONTINUOUS
 62
    47
 10
60.753773
 20
-71.893065
 11
59.350588
 21
-70.743065
  0
LINE
  8
鉄骨等
  6
DOT
 62
    47
 10
-94.7729
 20
-61.393062
 11
-94.7729
 21
-60.226397
  0
LINE
  8
鉄骨等
  6
DOT
 62
    47
 10
-94.7729
 20
-60.226397
 11
-93.369715
 21
-59.076397
  0
LINE
  8
鉄骨等
  6
DOT
 62
    47
 10
60.753773
 20
-61.393062
 11
60.753773
 21
-60.226397
  0
LINE
  8
鉄骨等
  6
DOT
 62
    47
 10
60.753773
 20
-60.226397
 11
59.350588
 21
-59.076397
  0
ENDSEC
  0
EOF
