  0
SECTION
  2
HEADER
  9
$EXTMIN
 10
-210.0
 20
-148.5
  9
$EXTMAX
 10
210.0
 20
148.5
  9
$PDMODE
 70
    32
  9
$PDSIZE
 40
1.5
  9
$LTSCALE
 40
10.0
  0
ENDSEC
  0
SECTION
  2
TABLES
  0
TABLE
  2
LTYPE
 70
    15
  0
LTYPE
  2
CONTINUOUS
 70
    64
  3
実線
 72
    65
 73
     0
 40
0.0
  0
LTYPE
  2
DASHED
 70
    64
  3
破線A
 72
    65
 73
     2
 40
0.6
 49
0.4
 49
-0.2
  0
LTYPE
  2
DASHEDX2
 70
    64
  3
破線B
 72
    65
 73
     2
 40
1.3
 49
0.9
 49
-0.4
  0
LTYPE
  2
DASHDOT
 70
    64
  3
１点鎖線A
 72
    65
 73
     4
 40
0.5375
 49
0.375
 49
-0.05
 49
0.0625
 49
-0.05
  0
LTYPE
  2
DASHDOTX2
 70
    64
  3
１点鎖線B
 72
    65
 73
     4
 40
1.075
 49
0.75
 49
-0.1
 49
0.125
 49
-0.1
  0
LTYPE
  2
DIVIDE2
 70
    64
  3
２点鎖線A
 72
    65
 73
     6
 40
0.5125
 49
0.3
 49
-0.0375
 49
0.05
 49
-0.0375
 49
0.05
 49
-0.0375
  0
LTYPE
  2
DIVIDE
 70
    64
  3
２点鎖線B
 72
    65
 73
     6
 40
1.05
 49
0.55
 49
-0.1
 49
0.1
 49
-0.1
 49
0.1
 49
-0.1
  0
LTYPE
  2
DOT
 70
    64
  3
点線A
 72
    65
 73
     2
 40
0.1125
 49
0.0625
 49
-0.05
  0
LTYPE
  2
DOTX2
 70
    64
  3
点線B
 72
    65
 73
     2
 40
0.275
 49
0.15
 49
-0.125
  0
LTYPE
  2
CONTINUOUS
 70
    64
  3
実線
 72
    65
 73
     0
 40
0.0
  0
LTYPE
  2
CONTINUOUS
 70
    64
  3
実線
 72
    65
 73
     0
 40
0.0
  0
LTYPE
  2
CONTINUOUS
 70
    64
  3
実線
 72
    65
 73
     0
 40
0.0
  0
LTYPE
  2
CONTINUOUS
 70
    64
  3
実線
 72
    65
 73
     0
 40
0.0
  0
LTYPE
  2
CONTINUOUS
 70
    64
  3
実線
 72
    65
 73
     0
 40
0.0
  0
LTYPE
  2
CONTINUOUS
 70
    64
  3
実線
 72
    65
 73
     0
 40
0.0
  0
ENDTAB
  0
TABLE
  2
LAYER
 70
    34
  0
LAYER
  2
通り芯
 70
     0
 62
    15
  6
CONTINUOUS
  0
LAYER
  2
補助線
 70
     0
 62
    16
  6
DOT
  0
LAYER
  2
躯体
 70
     0
 62
    31
  6
CONTINUOUS
  0
LAYER
  2
型材
 70
     0
 62
    32
  6
CONTINUOUS
  0
LAYER
  2
型材断面
 70
     0
 62
    47
  6
CONTINUOUS
  0
LAYER
  2
ガラス
 70
     0
 62
    48
  6
CONTINUOUS
  0
LAYER
  2
ゴム等
 70
     0
 62
    63
  6
CONTINUOUS
  0
LAYER
  2
ボルト／ビス
 70
     0
 62
    64
  6
CONTINUOUS
  0
LAYER
  2
文字
 70
     0
 62
    79
  6
CONTINUOUS
  0
LAYER
  2
寸法
 70
     0
 62
    80
  6
CONTINUOUS
  0
LAYER
  2
ﾊｯﾁﾝｸﾞ
 70
     0
 62
    95
  6
CONTINUOUS
  0
LAYER
  2
別途部材
 70
     0
 62
    96
  6
CONTINUOUS
  0
LAYER
  2
曲げ物
 70
     0
 62
   111
  6
CONTINUOUS
  0
LAYER
  2
鉄骨等
 70
     0
 62
   112
  6
CONTINUOUS
  0
LAYER
  2
St
 70
     0
 62
   127
  6
CONTINUOUS
  0
LAYER
  2
その他部品等
 70
     0
 62
   128
  6
CONTINUOUS
  0
LAYER
  2
ｶﾞｽｹｯﾄ
 70
     0
 62
   143
  6
CONTINUOUS
  0
LAYER
  2
ｽｹｯﾁ
 70
     0
 62
    14
  6
CONTINUOUS
  0
LAYER
  2
0
 70
     0
 62
    17
  6
CONTINUOUS
  0
LAYER
  2
1
 70
     0
 62
    30
  6
CONTINUOUS
  0
LAYER
  2
4
 70
     0
 62
    33
  6
CONTINUOUS
  0
LAYER
  2
ﾚｲﾔ3
 70
     0
 62
    46
  6
CONTINUOUS
  0
LAYER
  2
外形線
 70
     0
 62
    49
  6
CONTINUOUS
  0
LAYER
  2
部品
 70
     0
 62
    14
  6
CONTINUOUS
  0
LAYER
  2
サッシ芯
 70
     0
 62
    17
  6
DASHDOTX2
  0
LAYER
  2
寸法線
 70
     0
 62
    62
  6
CONTINUOUS
  0
LAYER
  2
姿図外形線
 70
     0
 62
    65
  6
CONTINUOUS
  0
LAYER
  2
姿補助線
 70
     0
 62
    30
  6
CONTINUOUS
  0
LAYER
  2
透視線
 70
     0
 62
    78
  6
DOT
  0
LAYER
  2
用紙
 70
     0
 62
    81
  6
CONTINUOUS
  0
LAYER
  2
実線図枠
 70
     0
 62
    94
  6
CONTINUOUS
  0
LAYER
  2
補助図枠
 70
     0
 62
    97
  6
CONTINUOUS
  0
LAYER
  2
建具記号
 70
     0
 62
   110
  6
CONTINUOUS
  0
LAYER
  2
補助文字
 70
     0
 62
   113
  6
CONTINUOUS
  0
ENDTAB
  0
TABLE
  2
STYLE
 70
    10
  0
STYLE
  2
STANDARD
 70
     0
 40
1.0
 41
1.0
 42
1.0
 50
0.0
 71
     0
  3
TXT
  4
BIGFONT
  0
STYLE
  2
TATE
 70
     4
 40
1.0
 41
1.0
 42
1.0
 50
0.0
 71
     0
  3
TXT
  4
BIGFONT
  0
STYLE
  2
TextStyle03
 70
     0
 40
1.0
 41
1.0
 42
1.0
 50
0.0
 71
     0
  3
MONOTXT
  4
BIGFONT
  0
STYLE
  2
TextStyle04
 70
     0
 40
1.0
 41
1.0
 42
1.0
 50
0.0
 71
     0
  3
MONOTXT
  4
BIGFONT
  0
STYLE
  2
TextStyle05
 70
     0
 40
1.0
 41
1.0
 42
1.0
 50
0.0
 71
     0
  3
MONOTXT
  4
BIGFONT
  0
STYLE
  2
TextStyle06
 70
     0
 40
1.0
 41
1.0
 42
1.0
 50
0.0
 71
     0
  3
MONOTXT
  4
BIGFONT
  0
STYLE
  2
TextStyle07
 70
     0
 40
1.0
 41
1.0
 42
1.0
 50
0.0
 71
     0
  3
MONOTXT
  4
BIGFONT
  0
STYLE
  2
TextStyle08
 70
     0
 40
1.0
 41
1.0
 42
1.0
 50
0.0
 71
     0
  3
MONOTXT
  4
BIGFONT
  0
STYLE
  2
TextStyle09
 70
     0
 40
1.0
 41
1.0
 42
1.0
 50
0.0
 71
     0
  3
MONOTXT
  4
BIGFONT
  0
STYLE
  2
TextStyle10
 70
     0
 40
1.0
 41
1.0
 42
1.0
 50
0.0
 71
     0
  3
MONOTXT
  4
BIGFONT
  0
ENDTAB
  0
ENDSEC
  0
SECTION
  2
BLOCKS
  0
BLOCK
  2
*GRP_0001
 70
    65
 10
0.0
 20
0.0
  0
LINE
  8
型材断面
  6
CONTINUOUS
 10
195.0
 20
133.5
 11
195.0
 21
-133.5
  0
LINE
  8
型材断面
  6
CONTINUOUS
 10
195.0
 20
-133.5
 11
-185.0
 21
-133.5
  0
LINE
  8
型材断面
  6
CONTINUOUS
 10
-185.0
 20
-133.5
 11
-185.0
 21
133.5
  0
LINE
  8
型材断面
  6
CONTINUOUS
 10
195.0
 20
133.5
 11
-185.0
 21
133.5
  0
LINE
  8
型材断面
  6
CONTINUOUS
 10
145.0
 20
-133.5
 11
145.0
 21
-118.5
  0
LINE
  8
型材断面
  6
CONTINUOUS
 10
195.0
 20
-118.5
 11
145.0
 21
-118.5
  0
ENDBLK
  0
BLOCK
  2
*DIM_0002
 70
    65
 10
0.0
 20
0.0
  0
LINE
  8
寸法
  6
BYBLOCK
 62
     0
 10
-92.00956
 20
19.183902
 11
-92.00956
 21
13.88158
  0
LINE
  8
寸法
  6
BYBLOCK
 62
     0
 10
-25.342895
 20
19.183905
 11
-25.342895
 21
13.88158
  0
LINE
  8
寸法
  6
BYBLOCK
 62
     0
 10
-92.00956
 20
13.88158
 11
-25.342895
 21
13.88158
  0
POINT
  8
寸法
 62
     0
 10
-92.00956
 20
13.88158
  0
POINT
  8
寸法
 62
     0
 10
-25.342895
 20
13.88158
  0
TEXT
  7
TextStyle03
  8
寸法
  6
CONTINUOUS
 62
     0
 10
-61.98125
 20
14.25
  1
2000
 40
3.0
 72
     5
 11
-55.41875
 21
14.25
  0
ENDBLK
  0
BLOCK
  2
*DIM_0003
 70
    65
 10
0.0
 20
0.0
  0
LINE
  8
寸法
  6
BYBLOCK
 62
     0
 10
41.32377
 20
19.183902
 11
41.32377
 21
13.88158
  0
LINE
  8
寸法
  6
BYBLOCK
 62
     0
 10
-25.342895
 20
13.88158
 11
41.32377
 21
13.88158
  0
POINT
  8
寸法
 62
     0
 10
41.32377
 20
13.88158
  0
TEXT
  7
TextStyle03
  8
寸法
  6
CONTINUOUS
 62
     0
 10
4.69375
 20
14.25
  1
2000
 40
3.0
 72
     5
 11
11.25625
 21
14.25
  0
ENDBLK
  0
BLOCK
  2
*DIM_0004
 70
    65
 10
0.0
 20
0.0
  0
LINE
  8
寸法
  6
BYBLOCK
 62
     0
 10
58.990438
 20
52.814035
 11
68.71472
 21
52.814035
  0
LINE
  8
寸法
  6
BYBLOCK
 62
     0
 10
61.620567
 20
49.114035
 11
68.71472
 21
49.114035
  0
LINE
  8
寸法
  6
BYBLOCK
 62
     0
 10
68.71472
 20
52.814035
 11
68.71472
 21
49.114035
  0
POINT
  8
寸法
 62
     0
 10
68.71472
 20
52.814035
  0
POINT
  8
寸法
 62
     0
 10
68.71472
 20
49.114035
  0
TEXT
  7
TextStyle03
  8
寸法
  6
CONTINUOUS
 62
     0
 10
68.375
 20
53.8125
  1
111
 40
3.0
 50
90.0
 72
     5
 11
68.375
 21
58.6875
  0
ENDBLK
  0
BLOCK
  2
*DIM_0005
 70
    65
 10
0.0
 20
0.0
  0
LINE
  8
寸法
  6
BYBLOCK
 62
     0
 10
58.990438
 20
22.81403
 11
68.71472
 21
22.814027
  0
LINE
  8
寸法
  6
BYBLOCK
 62
     0
 10
61.620567
 20
26.51403
 11
68.71472
 21
26.514027
  0
LINE
  8
寸法
  6
BYBLOCK
 62
     0
 10
68.71472
 20
22.814027
 11
68.71472
 21
26.514027
  0
POINT
  8
寸法
 62
     0
 10
68.71472
 20
22.814027
  0
POINT
  8
寸法
 62
     0
 10
68.71472
 20
26.514027
  0
TEXT
  7
TextStyle03
  8
寸法
  6
CONTINUOUS
 62
     0
 10
68.375
 20
16.9375
  1
111
 40
3.0
 50
90.0
 72
     5
 11
68.375
 21
21.8125
  0
ENDBLK
  0
BLOCK
  2
*DIM_0006
 70
    65
 10
0.0
 20
0.0
  0
LINE
  8
寸法
  6
BYBLOCK
 62
     0
 10
-111.676228
 20
47.814033
 11
-124.969065
 21
47.814033
  0
LINE
  8
寸法
  6
BYBLOCK
 62
     0
 10
-111.676228
 20
27.814033
 11
-124.969065
 21
27.814033
  0
LINE
  8
寸法
  6
BYBLOCK
 62
     0
 10
-124.969065
 20
47.814033
 11
-124.969065
 21
27.814033
  0
POINT
  8
寸法
 62
     0
 10
-124.969065
 20
47.814033
  0
POINT
  8
寸法
 62
     0
 10
-124.969065
 20
27.814033
  0
TEXT
  7
TextStyle03
  8
寸法
  6
CONTINUOUS
 62
     0
 10
-125.325
 20
35.3625
  1
600
 40
3.0
 50
90.0
 72
     5
 11
-125.325
 21
40.2375
  0
ENDBLK
  0
BLOCK
  2
*DIM_0007
 70
    65
 10
0.0
 20
0.0
  0
LINE
  8
寸法
  6
BYBLOCK
 62
     0
 10
-100.342893
 20
55.814033
 11
-100.342893
 21
84.922105
  0
LINE
  8
寸法
  6
BYBLOCK
 62
     0
 10
-75.342893
 20
55.814033
 11
-75.342893
 21
84.922105
  0
LINE
  8
寸法
  6
BYBLOCK
 62
     0
 10
-100.342893
 20
84.922105
 11
-75.342893
 21
84.922105
  0
POINT
  8
寸法
 62
     0
 10
-100.342893
 20
84.922105
  0
POINT
  8
寸法
 62
     0
 10
-75.342893
 20
84.922105
  0
TEXT
  7
TextStyle03
  8
寸法
  6
CONTINUOUS
 62
     0
 10
-90.3125
 20
85.275
  1
750
 40
3.0
 72
     5
 11
-85.4375
 21
85.275
  0
ENDBLK
  0
BLOCK
  2
*DIM_0008
 70
    65
 10
0.0
 20
0.0
  0
LINE
  8
寸法
  6
BYBLOCK
 62
     0
 10
-50.342893
 20
55.814033
 11
-50.342893
 21
84.922105
  0
LINE
  8
寸法
  6
BYBLOCK
 62
     0
 10
-75.342893
 20
84.922105
 11
-50.342893
 21
84.922105
  0
POINT
  8
寸法
 62
     0
 10
-50.342893
 20
84.922105
  0
TEXT
  7
TextStyle03
  8
寸法
  6
CONTINUOUS
 62
     0
 10
-65.3125
 20
85.275
  1
750
 40
3.0
 72
     5
 11
-60.4375
 21
85.275
  0
ENDBLK
  0
BLOCK
  2
*DIM_0009
 70
    65
 10
0.0
 20
0.0
  0
LINE
  8
寸法
  6
BYBLOCK
 62
     0
 10
-25.342893
 20
55.814033
 11
-25.342893
 21
84.922105
  0
LINE
  8
寸法
  6
BYBLOCK
 62
     0
 10
-50.342893
 20
84.922105
 11
-25.342893
 21
84.922105
  0
POINT
  8
寸法
 62
     0
 10
-25.342893
 20
84.922105
  0
TEXT
  7
TextStyle03
  8
寸法
  6
CONTINUOUS
 62
     0
 10
-40.3125
 20
85.275
  1
750
 40
3.0
 72
     5
 11
-35.4375
 21
85.275
  0
ENDBLK
  0
BLOCK
  2
*DIM_0010
 70
    65
 10
0.0
 20
0.0
  0
LINE
  8
寸法
  6
BYBLOCK
 62
     0
 10
-0.342893
 20
55.814033
 11
-0.342893
 21
84.922105
  0
LINE
  8
寸法
  6
BYBLOCK
 62
     0
 10
-25.342893
 20
84.922105
 11
-0.342893
 21
84.922105
  0
POINT
  8
寸法
 62
     0
 10
-0.342893
 20
84.922105
  0
TEXT
  7
TextStyle03
  8
寸法
  6
CONTINUOUS
 62
     0
 10
-15.3125
 20
85.275
  1
750
 40
3.0
 72
     5
 11
-10.4375
 21
85.275
  0
ENDBLK
  0
BLOCK
  2
*DIM_0011
 70
    65
 10
0.0
 20
0.0
  0
LINE
  8
寸法
  6
BYBLOCK
 62
     0
 10
24.657107
 20
55.814033
 11
24.657107
 21
84.922105
  0
LINE
  8
寸法
  6
BYBLOCK
 62
     0
 10
-0.342893
 20
84.922105
 11
24.657107
 21
84.922105
  0
POINT
  8
寸法
 62
     0
 10
24.657107
 20
84.922105
  0
TEXT
  7
TextStyle03
  8
寸法
  6
CONTINUOUS
 62
     0
 10
9.6875
 20
85.275
  1
750
 40
3.0
 72
     5
 11
14.5625
 21
85.275
  0
ENDBLK
  0
BLOCK
  2
*DIM_0012
 70
    65
 10
0.0
 20
0.0
  0
LINE
  8
寸法
  6
BYBLOCK
 62
     0
 10
49.657107
 20
55.814033
 11
49.657107
 21
84.922105
  0
LINE
  8
寸法
  6
BYBLOCK
 62
     0
 10
24.657107
 20
84.922105
 11
49.657107
 21
84.922105
  0
POINT
  8
寸法
 62
     0
 10
49.657107
 20
84.922105
  0
TEXT
  7
TextStyle03
  8
寸法
  6
CONTINUOUS
 62
     0
 10
34.6875
 20
85.275
  1
750
 40
3.0
 72
     5
 11
39.5625
 21
85.275
  0
ENDBLK
  0
BLOCK
  2
*DIM_0013
 70
    65
 10
0.0
 20
0.0
  0
LINE
  8
寸法
  6
CONTINUOUS
 10
92.010088
 20
55.577218
 11
92.010088
 21
52.814033
  0
POINT
  8
寸法
 10
92.010088
 20
55.577218
  0
POINT
  8
寸法
 10
92.010088
 20
52.814033
  0
TEXT
  7
TextStyle03
  8
寸法
  6
CONTINUOUS
 10
93.375
 20
56.64375
  1
82.9
 40
3.0
 50
90.0
 72
     5
 11
93.375
 21
63.20625
  0
ENDBLK
  0
BLOCK
  2
*DIM_0014
 70
    65
 10
0.0
 20
0.0
  0
LINE
  8
寸法
  6
CONTINUOUS
 10
92.010088
 20
22.814033
 11
92.010088
 21
20.050845
  0
POINT
  8
寸法
 10
92.010088
 20
22.814033
  0
POINT
  8
寸法
 10
92.010088
 20
20.050845
  0
TEXT
  7
TextStyle03
  8
寸法
  6
CONTINUOUS
 10
93.375
 20
12.41875
  1
82.9
 40
3.0
 50
90.0
 72
     5
 11
93.375
 21
18.98125
  0
ENDBLK
  0
BLOCK
  2
*DIM_0015
 70
    65
 10
0.0
 20
0.0
  0
LINE
  8
寸法
  6
CONTINUOUS
 10
92.010088
 20
52.814033
 11
92.010088
 21
22.814033
  0
POINT
  8
寸法
 10
92.010088
 20
52.814033
  0
POINT
  8
寸法
 10
92.010088
 20
22.814033
  0
TEXT
  7
TextStyle03
  8
寸法
  6
CONTINUOUS
 10
91.575
 20
26.925
  1
呼称寸法　900
 40
3.0
 50
90.0
 72
     5
 11
91.575
 21
48.675
  0
ENDBLK
  0
BLOCK
  2
*DIM_0016
 70
    65
 10
0.0
 20
0.0
  0
LINE
  8
寸法
  6
CONTINUOUS
 10
-108.676232
 20
-12.609317
 11
-111.439565
 21
-12.609317
  0
POINT
  8
寸法
 10
-108.676232
 20
-12.609317
  0
POINT
  8
寸法
 10
-111.439565
 20
-12.609317
  0
TEXT
  7
TextStyle03
  8
寸法
  6
CONTINUOUS
 10
-116.03125
 20
-11.675
  1
82.9
 40
3.0
 72
     5
 11
-109.46875
 21
-11.675
  0
ENDBLK
  0
BLOCK
  2
*DIM_0017
 70
    65
 10
0.0
 20
0.0
  0
LINE
  8
寸法
  6
CONTINUOUS
 10
60.753775
 20
-12.609317
 11
57.99044
 21
-12.609317
  0
POINT
  8
寸法
 10
60.753775
 20
-12.609317
  0
POINT
  8
寸法
 10
57.99044
 20
-12.609317
  0
TEXT
  7
TextStyle03
  8
寸法
  6
CONTINUOUS
 10
58.99375
 20
-11.725
  1
82.9
 40
3.0
 72
     5
 11
65.55625
 21
-11.725
  0
ENDBLK
  0
BLOCK
  2
*DIM_0018
 70
    65
 10
0.0
 20
0.0
  0
LINE
  8
寸法
  6
CONTINUOUS
 10
-108.676232
 20
-12.609317
 11
57.990432
 21
-12.609317
  0
POINT
  8
寸法
 10
-108.676232
 20
-12.609317
  0
POINT
  8
寸法
 10
57.990432
 20
-12.609317
  0
TEXT
  7
TextStyle03
  8
寸法
  6
CONTINUOUS
 10
-37.06875
 20
-12.25
  1
呼称寸法　5000
 40
3.0
 72
     5
 11
-13.63125
 21
-12.25
  0
ENDBLK
  0
BLOCK
  2
*GRP_0019
 70
    65
 10
0.0
 20
0.0
  0
LINE
  8
補助線
  6
BYBLOCK
 62
    64
 10
-105.279147
 20
-74.673905
 11
-105.406632
 21
-74.781265
  0
LINE
  8
補助線
  6
BYBLOCK
 62
    64
 10
-105.39657
 20
-74.66384
 11
-105.28921
 21
-74.791327
  0
LINE
  8
補助線
  6
BYBLOCK
 62
    64
 10
-96.78873
 20
-67.523883
 11
-96.916215
 21
-67.631238
  0
LINE
  8
補助線
  6
BYBLOCK
 62
    64
 10
-96.906153
 20
-67.513818
 11
-96.798793
 21
-67.6413
  0
LINE
  8
補助線
  6
BYBLOCK
 62
    64
 10
-88.425795
 20
-60.481213
 11
-88.298312
 21
-60.373855
  0
LINE
  8
補助線
  6
BYBLOCK
 62
    64
 10
-88.415735
 20
-60.36379
 11
-88.308375
 21
-60.491277
  0
LINE
  8
型材断面
  6
CONTINUOUS
 10
-106.134645
 20
-74.304882
 11
-106.195022
 21
-75.009407
  0
LINE
  8
型材断面
  6
CONTINUOUS
 10
-106.195022
 20
-75.009407
 11
-105.76559
 21
-75.519343
  0
LINE
  8
型材断面
  6
CONTINUOUS
 10
-105.76559
 20
-75.519343
 11
-105.061065
 21
-75.57972
  0
LINE
  8
型材断面
  6
CONTINUOUS
 10
-88.643877
 20
-59.575403
 11
-87.939353
 21
-59.63578
  0
LINE
  8
型材断面
  6
CONTINUOUS
 10
-87.939353
 20
-59.63578
 11
-87.50992
 21
-60.145715
  0
LINE
  8
型材断面
  6
CONTINUOUS
 10
-87.50992
 20
-60.145715
 11
-87.570298
 21
-60.85024
  0
LINE
  8
型材断面
  6
CONTINUOUS
 10
-106.134645
 20
-74.304882
 11
-88.643877
 21
-59.575403
  0
LINE
  8
型材断面
  6
CONTINUOUS
 10
-105.061065
 20
-75.57972
 11
-87.570298
 21
-60.85024
  0
CIRCLE
  8
ボルト／ビス
  6
CONTINUOUS
 10
-105.34289
 20
-74.727585
 40
0.250185
  0
CIRCLE
  8
ボルト／ビス
  6
CONTINUOUS
 10
-105.34289
 20
-74.727585
 40
0.301025
  0
LINE
  8
ボルト／ビス
  6
CONTINUOUS
 62
    64
 10
-105.589197
 20
-74.771468
 11
-105.504045
 21
-74.53622
  0
LINE
  8
ボルト／ビス
  6
CONTINUOUS
 62
    64
 10
-105.257737
 20
-74.492335
 11
-105.504045
 21
-74.53622
  0
LINE
  8
ボルト／ビス
  6
CONTINUOUS
 62
    64
 10
-105.428042
 20
-74.962835
 11
-105.181735
 21
-74.91895
  0
LINE
  8
ボルト／ビス
  6
CONTINUOUS
 62
    64
 10
-105.096583
 20
-74.683702
 11
-105.181735
 21
-74.91895
  0
LINE
  8
ボルト／ビス
  6
CONTINUOUS
 62
    64
 10
-105.589197
 20
-74.771468
 11
-105.428042
 21
-74.962835
  0
LINE
  8
ボルト／ビス
  6
CONTINUOUS
 62
    64
 10
-105.257737
 20
-74.492335
 11
-105.096583
 21
-74.683702
  0
CIRCLE
  8
ボルト／ビス
  6
CONTINUOUS
 62
    64
 10
-105.34289
 20
-74.727585
 40
0.216668
  0
CIRCLE
  8
ボルト／ビス
  6
CONTINUOUS
 10
-96.852473
 20
-67.57756
 40
0.250185
  0
CIRCLE
  8
ボルト／ビス
  6
CONTINUOUS
 10
-96.852473
 20
-67.57756
 40
0.301025
  0
LINE
  8
ボルト／ビス
  6
CONTINUOUS
 62
    64
 10
-97.09878
 20
-67.621443
 11
-97.013627
 21
-67.386193
  0
LINE
  8
ボルト／ビス
  6
CONTINUOUS
 62
    64
 10
-96.76732
 20
-67.34231
 11
-97.013627
 21
-67.386193
  0
LINE
  8
ボルト／ビス
  6
CONTINUOUS
 62
    64
 10
-96.937625
 20
-67.81281
 11
-96.691315
 21
-67.768927
  0
LINE
  8
ボルト／ビス
  6
CONTINUOUS
 62
    64
 10
-96.606165
 20
-67.53368
 11
-96.691315
 21
-67.768927
  0
LINE
  8
ボルト／ビス
  6
CONTINUOUS
 62
    64
 10
-97.09878
 20
-67.621443
 11
-96.937625
 21
-67.81281
  0
LINE
  8
ボルト／ビス
  6
CONTINUOUS
 62
    64
 10
-96.76732
 20
-67.34231
 11
-96.606165
 21
-67.53368
  0
CIRCLE
  8
ボルト／ビス
  6
CONTINUOUS
 62
    64
 10
-96.852473
 20
-67.57756
 40
0.216668
  0
CIRCLE
  8
ボルト／ビス
  6
CONTINUOUS
 10
-88.362053
 20
-60.427535
 40
0.250185
  0
CIRCLE
  8
ボルト／ビス
  6
CONTINUOUS
 10
-88.362053
 20
-60.427535
 40
0.301025
  0
LINE
  8
ボルト／ビス
  6
CONTINUOUS
 62
    64
 10
-88.2769
 20
-60.192285
 11
-88.52321
 21
-60.23617
  0
LINE
  8
ボルト／ビス
  6
CONTINUOUS
 62
    64
 10
-88.608363
 20
-60.471418
 11
-88.52321
 21
-60.23617
  0
LINE
  8
ボルト／ビス
  6
CONTINUOUS
 62
    64
 10
-88.115747
 20
-60.383652
 11
-88.200897
 21
-60.6189
  0
LINE
  8
ボルト／ビス
  6
CONTINUOUS
 62
    64
 10
-88.447207
 20
-60.662785
 11
-88.200897
 21
-60.6189
  0
LINE
  8
ボルト／ビス
  6
CONTINUOUS
 62
    64
 10
-88.2769
 20
-60.192285
 11
-88.115747
 21
-60.383652
  0
LINE
  8
ボルト／ビス
  6
CONTINUOUS
 62
    64
 10
-88.608363
 20
-60.471418
 11
-88.447207
 21
-60.662785
  0
CIRCLE
  8
ボルト／ビス
  6
CONTINUOUS
 62
    64
 10
-88.362053
 20
-60.427535
 40
0.216668
  0
ENDBLK
  0
BLOCK
  2
*GRP_0020
 70
    65
 10
0.0
 20
0.0
  0
LINE
  8
補助線
  6
BYBLOCK
 62
    64
 10
-88.425798
 20
-74.673905
 11
-88.298312
 21
-74.781265
  0
LINE
  8
補助線
  6
BYBLOCK
 62
    64
 10
-88.308375
 20
-74.66384
 11
-88.415735
 21
-74.791327
  0
LINE
  8
補助線
  6
BYBLOCK
 62
    64
 10
-96.916215
 20
-67.523883
 11
-96.78873
 21
-67.631238
  0
LINE
  8
補助線
  6
BYBLOCK
 62
    64
 10
-96.798793
 20
-67.513818
 11
-96.906153
 21
-67.6413
  0
LINE
  8
補助線
  6
BYBLOCK
 62
    64
 10
-105.27915
 20
-60.481213
 11
-105.406632
 21
-60.373855
  0
LINE
  8
補助線
  6
BYBLOCK
 62
    64
 10
-105.28921
 20
-60.36379
 11
-105.39657
 21
-60.491277
  0
LINE
  8
型材断面
  6
CONTINUOUS
 10
-87.5703
 20
-74.304882
 11
-87.509922
 21
-75.009407
  0
LINE
  8
型材断面
  6
CONTINUOUS
 10
-87.509922
 20
-75.009407
 11
-87.939355
 21
-75.519343
  0
LINE
  8
型材断面
  6
CONTINUOUS
 10
-87.939355
 20
-75.519343
 11
-88.64388
 21
-75.57972
  0
LINE
  8
型材断面
  6
CONTINUOUS
 10
-105.061067
 20
-59.575403
 11
-105.765593
 21
-59.63578
  0
LINE
  8
型材断面
  6
CONTINUOUS
 10
-105.765593
 20
-59.63578
 11
-106.195025
 21
-60.145715
  0
LINE
  8
型材断面
  6
CONTINUOUS
 10
-106.195025
 20
-60.145715
 11
-106.134648
 21
-60.85024
  0
LINE
  8
型材断面
  6
CONTINUOUS
 10
-87.5703
 20
-74.304882
 11
-105.061067
 21
-59.575403
  0
LINE
  8
型材断面
  6
CONTINUOUS
 10
-88.64388
 20
-75.57972
 11
-106.134648
 21
-60.85024
  0
CIRCLE
  8
ボルト／ビス
  6
CONTINUOUS
 10
-88.362055
 20
-74.727585
 40
0.250185
  0
CIRCLE
  8
ボルト／ビス
  6
CONTINUOUS
 10
-88.362055
 20
-74.727585
 40
0.301025
  0
LINE
  8
ボルト／ビス
  6
CONTINUOUS
 62
    64
 10
-88.115747
 20
-74.771468
 11
-88.2009
 21
-74.53622
  0
LINE
  8
ボルト／ビス
  6
CONTINUOUS
 62
    64
 10
-88.447207
 20
-74.492335
 11
-88.2009
 21
-74.53622
  0
LINE
  8
ボルト／ビス
  6
CONTINUOUS
 62
    64
 10
-88.276902
 20
-74.962835
 11
-88.52321
 21
-74.91895
  0
LINE
  8
ボルト／ビス
  6
CONTINUOUS
 62
    64
 10
-88.608363
 20
-74.683702
 11
-88.52321
 21
-74.91895
  0
LINE
  8
ボルト／ビス
  6
CONTINUOUS
 62
    64
 10
-88.115747
 20
-74.771468
 11
-88.276902
 21
-74.962835
  0
LINE
  8
ボルト／ビス
  6
CONTINUOUS
 62
    64
 10
-88.447207
 20
-74.492335
 11
-88.608363
 21
-74.683702
  0
CIRCLE
  8
ボルト／ビス
  6
CONTINUOUS
 62
    64
 10
-88.362055
 20
-74.727585
 40
0.216668
  0
CIRCLE
  8
ボルト／ビス
  6
CONTINUOUS
 10
-96.852473
 20
-67.57756
 40
0.250185
  0
CIRCLE
  8
ボルト／ビス
  6
CONTINUOUS
 10
-96.852473
 20
-67.57756
 40
0.301025
  0
LINE
  8
ボルト／ビス
  6
CONTINUOUS
 62
    64
 10
-96.606165
 20
-67.621443
 11
-96.691317
 21
-67.386193
  0
LINE
  8
ボルト／ビス
  6
CONTINUOUS
 62
    64
 10
-96.937625
 20
-67.34231
 11
-96.691317
 21
-67.386193
  0
LINE
  8
ボルト／ビス
  6
CONTINUOUS
 62
    64
 10
-96.76732
 20
-67.81281
 11
-97.01363
 21
-67.768927
  0
LINE
  8
ボルト／ビス
  6
CONTINUOUS
 62
    64
 10
-97.09878
 20
-67.53368
 11
-97.01363
 21
-67.768927
  0
LINE
  8
ボルト／ビス
  6
CONTINUOUS
 62
    64
 10
-96.606165
 20
-67.621443
 11
-96.76732
 21
-67.81281
  0
LINE
  8
ボルト／ビス
  6
CONTINUOUS
 62
    64
 10
-96.937625
 20
-67.34231
 11
-97.09878
 21
-67.53368
  0
CIRCLE
  8
ボルト／ビス
  6
CONTINUOUS
 62
    64
 10
-96.852473
 20
-67.57756
 40
0.216668
  0
CIRCLE
  8
ボルト／ビス
  6
CONTINUOUS
 10
-105.342893
 20
-60.427535
 40
0.250185
  0
CIRCLE
  8
ボルト／ビス
  6
CONTINUOUS
 10
-105.342893
 20
-60.427535
 40
0.301025
  0
LINE
  8
ボルト／ビス
  6
CONTINUOUS
 62
    64
 10
-105.428045
 20
-60.192285
 11
-105.181735
 21
-60.23617
  0
LINE
  8
ボルト／ビス
  6
CONTINUOUS
 62
    64
 10
-105.096583
 20
-60.471418
 11
-105.181735
 21
-60.23617
  0
LINE
  8
ボルト／ビス
  6
CONTINUOUS
 62
    64
 10
-105.589197
 20
-60.383652
 11
-105.504047
 21
-60.6189
  0
LINE
  8
ボルト／ビス
  6
CONTINUOUS
 62
    64
 10
-105.257737
 20
-60.662785
 11
-105.504047
 21
-60.6189
  0
LINE
  8
ボルト／ビス
  6
CONTINUOUS
 62
    64
 10
-105.428045
 20
-60.192285
 11
-105.589197
 21
-60.383652
  0
LINE
  8
ボルト／ビス
  6
CONTINUOUS
 62
    64
 10
-105.096583
 20
-60.471418
 11
-105.257737
 21
-60.662785
  0
CIRCLE
  8
ボルト／ビス
  6
CONTINUOUS
 62
    64
 10
-105.342893
 20
-60.427535
 40
0.216668
  0
ENDBLK
  0
BLOCK
  2
*GRP_0021
 70
    65
 10
0.0
 20
0.0
  0
LINE
  8
補助線
  6
BYBLOCK
 62
    64
 10
54.593368
 20
-74.673905
 11
54.720852
 21
-74.781265
  0
LINE
  8
補助線
  6
BYBLOCK
 62
    64
 10
54.71079
 20
-74.66384
 11
54.60343
 21
-74.791327
  0
LINE
  8
補助線
  6
BYBLOCK
 62
    64
 10
46.10295
 20
-67.523883
 11
46.230435
 21
-67.631238
  0
LINE
  8
補助線
  6
BYBLOCK
 62
    64
 10
46.220372
 20
-67.513818
 11
46.113012
 21
-67.6413
  0
LINE
  8
補助線
  6
BYBLOCK
 62
    64
 10
37.740015
 20
-60.481213
 11
37.612533
 21
-60.373855
  0
LINE
  8
補助線
  6
BYBLOCK
 62
    64
 10
37.729955
 20
-60.36379
 11
37.622595
 21
-60.491277
  0
LINE
  8
型材断面
  6
CONTINUOUS
 10
55.448865
 20
-74.304882
 11
55.509243
 21
-75.009407
  0
LINE
  8
型材断面
  6
CONTINUOUS
 10
55.509243
 20
-75.009407
 11
55.07981
 21
-75.519343
  0
LINE
  8
型材断面
  6
CONTINUOUS
 10
55.07981
 20
-75.519343
 11
54.375285
 21
-75.57972
  0
LINE
  8
型材断面
  6
CONTINUOUS
 10
37.958098
 20
-59.575403
 11
37.253572
 21
-59.63578
  0
LINE
  8
型材断面
  6
CONTINUOUS
 10
37.253572
 20
-59.63578
 11
36.82414
 21
-60.145715
  0
LINE
  8
型材断面
  6
CONTINUOUS
 10
36.82414
 20
-60.145715
 11
36.884518
 21
-60.85024
  0
LINE
  8
型材断面
  6
CONTINUOUS
 10
55.448865
 20
-74.304882
 11
37.958098
 21
-59.575403
  0
LINE
  8
型材断面
  6
CONTINUOUS
 10
54.375285
 20
-75.57972
 11
36.884518
 21
-60.85024
  0
CIRCLE
  8
ボルト／ビス
  6
CONTINUOUS
 10
54.65711
 20
-74.727585
 40
0.250185
  0
CIRCLE
  8
ボルト／ビス
  6
CONTINUOUS
 10
54.65711
 20
-74.727585
 40
0.301025
  0
LINE
  8
ボルト／ビス
  6
CONTINUOUS
 62
    64
 10
54.903418
 20
-74.771468
 11
54.818265
 21
-74.53622
  0
LINE
  8
ボルト／ビス
  6
CONTINUOUS
 62
    64
 10
54.571957
 20
-74.492335
 11
54.818265
 21
-74.53622
  0
LINE
  8
ボルト／ビス
  6
CONTINUOUS
 62
    64
 10
54.742262
 20
-74.962835
 11
54.495955
 21
-74.91895
  0
LINE
  8
ボルト／ビス
  6
CONTINUOUS
 62
    64
 10
54.410802
 20
-74.683702
 11
54.495955
 21
-74.91895
  0
LINE
  8
ボルト／ビス
  6
CONTINUOUS
 62
    64
 10
54.903418
 20
-74.771468
 11
54.742262
 21
-74.962835
  0
LINE
  8
ボルト／ビス
  6
CONTINUOUS
 62
    64
 10
54.571957
 20
-74.492335
 11
54.410802
 21
-74.683702
  0
CIRCLE
  8
ボルト／ビス
  6
CONTINUOUS
 62
    64
 10
54.65711
 20
-74.727585
 40
0.216668
  0
CIRCLE
  8
ボルト／ビス
  6
CONTINUOUS
 10
46.166692
 20
-67.57756
 40
0.250185
  0
CIRCLE
  8
ボルト／ビス
  6
CONTINUOUS
 10
46.166692
 20
-67.57756
 40
0.301025
  0
LINE
  8
ボルト／ビス
  6
CONTINUOUS
 62
    64
 10
46.413
 20
-67.621443
 11
46.327847
 21
-67.386193
  0
LINE
  8
ボルト／ビス
  6
CONTINUOUS
 62
    64
 10
46.08154
 20
-67.34231
 11
46.327847
 21
-67.386193
  0
LINE
  8
ボルト／ビス
  6
CONTINUOUS
 62
    64
 10
46.251845
 20
-67.81281
 11
46.005535
 21
-67.768927
  0
LINE
  8
ボルト／ビス
  6
CONTINUOUS
 62
    64
 10
45.920385
 20
-67.53368
 11
46.005535
 21
-67.768927
  0
LINE
  8
ボルト／ビス
  6
CONTINUOUS
 62
    64
 10
46.413
 20
-67.621443
 11
46.251845
 21
-67.81281
  0
LINE
  8
ボルト／ビス
  6
CONTINUOUS
 62
    64
 10
46.08154
 20
-67.34231
 11
45.920385
 21
-67.53368
  0
CIRCLE
  8
ボルト／ビス
  6
CONTINUOUS
 62
    64
 10
46.166692
 20
-67.57756
 40
0.216668
  0
CIRCLE
  8
ボルト／ビス
  6
CONTINUOUS
 10
37.676273
 20
-60.427535
 40
0.250185
  0
CIRCLE
  8
ボルト／ビス
  6
CONTINUOUS
 10
37.676273
 20
-60.427535
 40
0.301025
  0
LINE
  8
ボルト／ビス
  6
CONTINUOUS
 62
    64
 10
37.59112
 20
-60.192285
 11
37.83743
 21
-60.23617
  0
LINE
  8
ボルト／ビス
  6
CONTINUOUS
 62
    64
 10
37.922582
 20
-60.471418
 11
37.83743
 21
-60.23617
  0
LINE
  8
ボルト／ビス
  6
CONTINUOUS
 62
    64
 10
37.429968
 20
-60.383652
 11
37.515118
 21
-60.6189
  0
LINE
  8
ボルト／ビス
  6
CONTINUOUS
 62
    64
 10
37.761427
 20
-60.662785
 11
37.515118
 21
-60.6189
  0
LINE
  8
ボルト／ビス
  6
CONTINUOUS
 62
    64
 10
37.59112
 20
-60.192285
 11
37.429968
 21
-60.383652
  0
LINE
  8
ボルト／ビス
  6
CONTINUOUS
 62
    64
 10
37.922582
 20
-60.471418
 11
37.761427
 21
-60.662785
  0
CIRCLE
  8
ボルト／ビス
  6
CONTINUOUS
 62
    64
 10
37.676273
 20
-60.427535
 40
0.216668
  0
ENDBLK
  0
BLOCK
  2
*GRP_0022
 70
    65
 10
0.0
 20
0.0
  0
LINE
  8
補助線
  6
BYBLOCK
 62
    64
 10
37.740018
 20
-74.673905
 11
37.612533
 21
-74.781265
  0
LINE
  8
補助線
  6
BYBLOCK
 62
    64
 10
37.622595
 20
-74.66384
 11
37.729955
 21
-74.791327
  0
LINE
  8
補助線
  6
BYBLOCK
 62
    64
 10
46.230435
 20
-67.523883
 11
46.10295
 21
-67.631238
  0
LINE
  8
補助線
  6
BYBLOCK
 62
    64
 10
46.113012
 20
-67.513818
 11
46.220372
 21
-67.6413
  0
LINE
  8
補助線
  6
BYBLOCK
 62
    64
 10
54.59337
 20
-60.481213
 11
54.720852
 21
-60.373855
  0
LINE
  8
補助線
  6
BYBLOCK
 62
    64
 10
54.60343
 20
-60.36379
 11
54.71079
 21
-60.491277
  0
LINE
  8
型材断面
  6
CONTINUOUS
 10
36.88452
 20
-74.304882
 11
36.824143
 21
-75.009407
  0
LINE
  8
型材断面
  6
CONTINUOUS
 10
36.824143
 20
-75.009407
 11
37.253575
 21
-75.519343
  0
LINE
  8
型材断面
  6
CONTINUOUS
 10
37.253575
 20
-75.519343
 11
37.9581
 21
-75.57972
  0
LINE
  8
型材断面
  6
CONTINUOUS
 10
54.375288
 20
-59.575403
 11
55.079812
 21
-59.63578
  0
LINE
  8
型材断面
  6
CONTINUOUS
 10
55.079812
 20
-59.63578
 11
55.509245
 21
-60.145715
  0
LINE
  8
型材断面
  6
CONTINUOUS
 10
55.509245
 20
-60.145715
 11
55.448868
 21
-60.85024
  0
LINE
  8
型材断面
  6
CONTINUOUS
 10
36.88452
 20
-74.304882
 11
54.375288
 21
-59.575403
  0
LINE
  8
型材断面
  6
CONTINUOUS
 10
37.9581
 20
-75.57972
 11
55.448868
 21
-60.85024
  0
CIRCLE
  8
ボルト／ビス
  6
CONTINUOUS
 10
37.676275
 20
-74.727585
 40
0.250185
  0
CIRCLE
  8
ボルト／ビス
  6
CONTINUOUS
 10
37.676275
 20
-74.727585
 40
0.301025
  0
LINE
  8
ボルト／ビス
  6
CONTINUOUS
 62
    64
 10
37.429968
 20
-74.771468
 11
37.51512
 21
-74.53622
  0
LINE
  8
ボルト／ビス
  6
CONTINUOUS
 62
    64
 10
37.761427
 20
-74.492335
 11
37.51512
 21
-74.53622
  0
LINE
  8
ボルト／ビス
  6
CONTINUOUS
 62
    64
 10
37.591122
 20
-74.962835
 11
37.83743
 21
-74.91895
  0
LINE
  8
ボルト／ビス
  6
CONTINUOUS
 62
    64
 10
37.922582
 20
-74.683702
 11
37.83743
 21
-74.91895
  0
LINE
  8
ボルト／ビス
  6
CONTINUOUS
 62
    64
 10
37.429968
 20
-74.771468
 11
37.591122
 21
-74.962835
  0
LINE
  8
ボルト／ビス
  6
CONTINUOUS
 62
    64
 10
37.761427
 20
-74.492335
 11
37.922582
 21
-74.683702
  0
CIRCLE
  8
ボルト／ビス
  6
CONTINUOUS
 62
    64
 10
37.676275
 20
-74.727585
 40
0.216668
  0
CIRCLE
  8
ボルト／ビス
  6
CONTINUOUS
 10
46.166692
 20
-67.57756
 40
0.250185
  0
CIRCLE
  8
ボルト／ビス
  6
CONTINUOUS
 10
46.166692
 20
-67.57756
 40
0.301025
  0
LINE
  8
ボルト／ビス
  6
CONTINUOUS
 62
    64
 10
45.920385
 20
-67.621443
 11
46.005537
 21
-67.386193
  0
LINE
  8
ボルト／ビス
  6
CONTINUOUS
 62
    64
 10
46.251845
 20
-67.34231
 11
46.005537
 21
-67.386193
  0
LINE
  8
ボルト／ビス
  6
CONTINUOUS
 62
    64
 10
46.08154
 20
-67.81281
 11
46.32785
 21
-67.768927
  0
LINE
  8
ボルト／ビス
  6
CONTINUOUS
 62
    64
 10
46.413
 20
-67.53368
 11
46.32785
 21
-67.768927
  0
LINE
  8
ボルト／ビス
  6
CONTINUOUS
 62
    64
 10
45.920385
 20
-67.621443
 11
46.08154
 21
-67.81281
  0
LINE
  8
ボルト／ビス
  6
CONTINUOUS
 62
    64
 10
46.251845
 20
-67.34231
 11
46.413
 21
-67.53368
  0
CIRCLE
  8
ボルト／ビス
  6
CONTINUOUS
 62
    64
 10
46.166692
 20
-67.57756
 40
0.216668
  0
CIRCLE
  8
ボルト／ビス
  6
CONTINUOUS
 10
54.657113
 20
-60.427535
 40
0.250185
  0
CIRCLE
  8
ボルト／ビス
  6
CONTINUOUS
 10
54.657113
 20
-60.427535
 40
0.301025
  0
LINE
  8
ボルト／ビス
  6
CONTINUOUS
 62
    64
 10
54.742265
 20
-60.192285
 11
54.495955
 21
-60.23617
  0
LINE
  8
ボルト／ビス
  6
CONTINUOUS
 62
    64
 10
54.410802
 20
-60.471418
 11
54.495955
 21
-60.23617
  0
LINE
  8
ボルト／ビス
  6
CONTINUOUS
 62
    64
 10
54.903418
 20
-60.383652
 11
54.818268
 21
-60.6189
  0
LINE
  8
ボルト／ビス
  6
CONTINUOUS
 62
    64
 10
54.571957
 20
-60.662785
 11
54.818268
 21
-60.6189
  0
LINE
  8
ボルト／ビス
  6
CONTINUOUS
 62
    64
 10
54.742265
 20
-60.192285
 11
54.903418
 21
-60.383652
  0
LINE
  8
ボルト／ビス
  6
CONTINUOUS
 62
    64
 10
54.410802
 20
-60.471418
 11
54.571957
 21
-60.662785
  0
CIRCLE
  8
ボルト／ビス
  6
CONTINUOUS
 62
    64
 10
54.657113
 20
-60.427535
 40
0.216668
  0
ENDBLK
  0
BLOCK
  2
*DIM_0023
 70
    65
 10
0.0
 20
0.0
  0
LINE
  8
寸法
  6
CONTINUOUS
 10
153.076993
 20
-45.844285
 11
120.676993
 21
-45.844285
  0
POINT
  8
寸法
 10
153.076993
 20
-45.844285
  0
POINT
  8
寸法
 10
120.676993
 20
-45.844285
  0
TEXT
  7
TextStyle03
  8
寸法
  6
CONTINUOUS
 10
134.4375
 20
-45.5
  1
972
 40
3.0
 72
     5
 11
139.3125
 21
-45.5
  0
ENDBLK
  0
BLOCK
  2
*DIM_0024
 70
    65
 10
0.0
 20
0.0
  0
LINE
  8
寸法
  6
BYBLOCK
 62
     0
 10
77.167262
 20
-69.076395
 11
77.167262
 21
-57.409728
  0
POINT
  8
寸法
 62
     0
 10
77.167262
 20
-69.076395
  0
POINT
  8
寸法
 62
     0
 10
77.167262
 20
-57.409728
  0
TEXT
  7
TextStyle03
  8
寸法
  6
CONTINUOUS
 62
     0
 10
75.8
 20
-54.56875
  1
上昇319以上
 40
3.0
 50
90.0
 72
     5
 11
75.8
 21
-36.38125
  0
ENDBLK
  0
BLOCK
  2
*DIM_0025
 70
    65
 10
0.0
 20
0.0
  0
LINE
  8
寸法
  6
BYBLOCK
 62
     0
 10
146.907152
 20
61.81515
 11
135.240485
 21
61.81515
  0
POINT
  8
寸法
 62
     0
 10
146.907152
 20
61.81515
  0
POINT
  8
寸法
 62
     0
 10
135.240485
 20
61.81515
  0
TEXT
  7
TextStyle03
  8
寸法
  6
CONTINUOUS
 62
     0
 10
114.50625
 20
60.65
  1
上昇319以上
 40
3.0
 72
     5
 11
132.69375
 21
60.65
  0
ENDBLK
  0
BLOCK
  2
*DIM_0026
 70
    65
 10
0.0
 20
0.0
  0
LINE
  8
寸法
  6
CONTINUOUS
 10
158.076993
 20
-83.785395
 11
162.96051
 21
-83.785395
  0
LINE
  8
寸法
  6
CONTINUOUS
 10
158.076993
 20
-53.785395
 11
162.96051
 21
-53.785395
  0
LINE
  8
寸法
  6
CONTINUOUS
 10
162.96051
 20
-83.785395
 11
162.96051
 21
-53.785395
  0
POINT
  8
寸法
 10
162.96051
 20
-83.785395
  0
POINT
  8
寸法
 10
162.96051
 20
-53.785395
  0
TEXT
  7
TextStyle03
  8
寸法
  6
CONTINUOUS
 10
162.575
 20
-71.2375
  1
900
 40
3.0
 50
90.0
 72
     5
 11
162.575
 21
-66.3625
  0
ENDBLK
  0
BLOCK
  2
*DIM_0027
 70
    65
 10
0.0
 20
0.0
  0
LINE
  8
寸法
  6
CONTINUOUS
 10
64.665952
 20
-69.076395
 11
77.167262
 21
-69.076395
  0
LINE
  8
寸法
  6
CONTINUOUS
 10
65.753778
 20
-77.192947
 11
77.167262
 21
-77.192947
  0
LINE
  8
寸法
  6
CONTINUOUS
 10
77.167262
 20
-69.076395
 11
77.167262
 21
-77.192947
  0
POINT
  8
寸法
 10
77.167262
 20
-69.076395
  0
POINT
  8
寸法
 10
77.167262
 20
-77.192947
  0
TEXT
  7
TextStyle03
  8
寸法
  6
CONTINUOUS
 10
80.15
 20
-77.275
  1
243.5
 40
3.0
 50
90.0
 72
     5
 11
80.15
 21
-69.025
  0
ENDBLK
  0
BLOCK
  2
*DIM_0028
 70
    65
 10
0.0
 20
0.0
  0
LINE
  8
寸法
  6
CONTINUOUS
 10
146.907152
 20
57.814033
 11
146.907152
 21
61.81515
  0
LINE
  8
寸法
  6
CONTINUOUS
 10
155.023705
 20
57.814033
 11
155.023705
 21
61.81515
  0
LINE
  8
寸法
  6
CONTINUOUS
 10
146.907152
 20
61.81515
 11
155.023705
 21
61.81515
  0
POINT
  8
寸法
 10
146.907152
 20
61.81515
  0
POINT
  8
寸法
 10
155.023705
 20
61.81515
  0
TEXT
  7
TextStyle03
  8
寸法
  6
CONTINUOUS
 10
146.8
 20
62.175
  1
243.5
 40
3.0
 72
     5
 11
155.05
 21
62.175
  0
ENDBLK
  0
ENDSEC
  0
SECTION
  2
ENTITIES
  0
POLYLINE
  8
通り芯
  6
CONTINUOUS
 66
     1
 70
     1
  0
VERTEX
  8
通り芯
 10
-210.0
 20
-148.5
  0
VERTEX
  8
通り芯
 10
210.0
 20
-148.5
  0
VERTEX
  8
通り芯
 10
210.0
 20
148.5
  0
VERTEX
  8
通り芯
 10
-210.0
 20
148.5
  0
SEQEND
  0
INSERT
  2
*GRP_0001
  8
型材断面
  6
CONTINUOUS
 10
0.0
 20
0.0
  0
LINE
  8
型材断面
  6
DASHDOT
 10
57.990438
 20
-77.836442
 11
57.990438
 21
52.814033
  0
LINE
  8
型材断面
  6
DASHDOT
 10
-25.342895
 20
-77.836442
 11
-25.342895
 21
52.814033
  0
LINE
  8
型材断面
  6
DASHDOT
 10
-108.676228
 20
-77.836442
 11
-108.676228
 21
52.814033
  0
LINE
  8
型材断面
  6
DASHDOT
 10
155.6672
 20
52.814033
 11
-108.676228
 21
52.814033
  0
LINE
  8
型材断面
  6
DASHDOT
 10
155.6672
 20
37.814033
 11
-108.676228
 21
37.814033
  0
LINE
  8
型材断面
  6
DASHDOT
 10
155.6672
 20
22.814033
 11
-108.676228
 21
22.814033
  0
POLYLINE
  8
型材断面
  6
CONTINUOUS
 66
     1
 70
     1
  0
VERTEX
  8
型材断面
 10
-16.01484
 20
13.03811
  0
VERTEX
  8
型材断面
 10
-34.78677
 20
13.03811
  0
VERTEX
  8
型材断面
 10
-34.78677
 20
8.301267
  0
VERTEX
  8
型材断面
 10
-16.01484
 20
8.301267
  0
SEQEND
  0
POLYLINE
  8
型材断面
  6
CONTINUOUS
 66
     1
 70
     1
  0
VERTEX
  8
型材断面
 10
-16.01484
 20
62.589955
  0
VERTEX
  8
型材断面
 10
-34.78677
 20
62.589955
  0
VERTEX
  8
型材断面
 10
-34.78677
 20
67.326798
  0
VERTEX
  8
型材断面
 10
-16.01484
 20
67.326798
  0
SEQEND
  0
LINE
  8
型材断面
  6
CONTINUOUS
 10
-149.528435
 20
90.791505
 11
-148.93238
 21
88.200998
  0
LINE
  8
型材断面
  6
CONTINUOUS
 10
-149.528435
 20
90.791505
 11
-150.124493
 21
88.200998
  0
LINE
  8
型材断面
  6
CONTINUOUS
 10
-150.124493
 20
88.200998
 11
-148.93238
 21
88.200998
  0
LINE
  8
型材断面
  6
CONTINUOUS
 10
-155.551022
 20
84.922105
 11
-109.309245
 21
84.922105
  0
LINE
  8
型材断面
  6
CONTINUOUS
 10
-149.528435
 20
97.32138
 11
-151.024065
 21
94.730873
  0
LINE
  8
型材断面
  6
CONTINUOUS
 10
-149.528435
 20
97.32138
 11
-148.032805
 21
94.730873
  0
LINE
  8
型材断面
  6
CONTINUOUS
 10
-148.032805
 20
94.730873
 11
-151.024065
 21
94.730873
  0
LINE
  8
型材断面
  6
CONTINUOUS
 10
-155.551022
 20
93.792277
 11
-109.309245
 21
93.792277
  0
LINE
  8
型材断面
  6
CONTINUOUS
 10
-155.551022
 20
79.134073
 11
-109.309245
 21
79.134073
  0
LINE
  8
型材断面
  6
CONTINUOUS
 10
-155.551022
 20
73.34604
 11
-109.309245
 21
73.34604
  0
LINE
  8
型材断面
  6
CONTINUOUS
 10
77.167262
 20
-57.409728
 11
63.516445
 21
-57.409728
  0
INSERT
  2
*GRP_0019
  8
型材断面
  6
CONTINUOUS
 10
0.0
 20
0.0
  0
INSERT
  2
*GRP_0020
  8
型材断面
  6
CONTINUOUS
 10
0.0
 20
0.0
  0
INSERT
  2
*GRP_0021
  8
型材断面
  6
CONTINUOUS
 10
0.0
 20
0.0
  0
INSERT
  2
*GRP_0022
  8
型材断面
  6
CONTINUOUS
 10
0.0
 20
0.0
  0
LINE
  8
型材断面
  6
CONTINUOUS
 10
-111.439565
 20
20.050845
 11
60.753775
 21
20.050845
  0
LINE
  8
型材断面
  6
CONTINUOUS
 10
-111.439565
 20
55.577218
 11
60.753775
 21
55.577218
  0
LINE
  8
型材断面
  6
CONTINUOUS
 10
-111.439565
 20
37.81403
 11
-114.030073
 21
39.30966
  0
LINE
  8
型材断面
  6
CONTINUOUS
 10
-111.439565
 20
37.81403
 11
-114.030073
 21
36.3184
  0
LINE
  8
型材断面
  6
CONTINUOUS
 10
-114.030073
 20
36.3184
 11
-114.030073
 21
39.30966
  0
LINE
  8
型材断面
  6
CONTINUOUS
 10
-111.439565
 20
49.114033
 11
-114.030075
 21
48.51798
  0
LINE
  8
型材断面
  6
CONTINUOUS
 10
-111.439565
 20
49.114033
 11
-114.030073
 21
49.710093
  0
LINE
  8
型材断面
  6
CONTINUOUS
 10
-114.030073
 20
49.710093
 11
-114.030075
 21
48.51798
  0
LINE
  8
型材断面
  6
CONTINUOUS
 10
-111.439565
 20
26.514027
 11
-114.030075
 21
27.11008
  0
LINE
  8
型材断面
  6
CONTINUOUS
 10
-111.439565
 20
26.514027
 11
-114.030073
 21
25.917967
  0
LINE
  8
型材断面
  6
CONTINUOUS
 10
-114.030073
 20
25.917967
 11
-114.030075
 21
27.11008
  0
LINE
  8
型材断面
  6
CONTINUOUS
 10
-92.00956
 20
55.577218
 11
-93.50519
 21
58.167725
  0
LINE
  8
型材断面
  6
CONTINUOUS
 10
-92.00956
 20
55.577218
 11
-90.51393
 21
58.167725
  0
LINE
  8
型材断面
  6
CONTINUOUS
 10
-90.51393
 20
58.167725
 11
-93.50519
 21
58.167725
  0
LINE
  8
型材断面
  6
CONTINUOUS
 10
41.32377
 20
55.577218
 11
42.8194
 21
58.167725
  0
LINE
  8
型材断面
  6
CONTINUOUS
 10
41.32377
 20
55.577218
 11
39.82814
 21
58.167725
  0
LINE
  8
型材断面
  6
CONTINUOUS
 10
39.82814
 20
58.167725
 11
42.8194
 21
58.167725
  0
LINE
  8
型材断面
  6
CONTINUOUS
 10
-25.342895
 20
55.577215
 11
-23.847265
 21
58.167722
  0
LINE
  8
型材断面
  6
CONTINUOUS
 10
-25.342895
 20
55.577215
 11
-26.838525
 21
58.167722
  0
LINE
  8
型材断面
  6
CONTINUOUS
 10
-26.838525
 20
58.167722
 11
-23.847265
 21
58.167722
  0
LINE
  8
型材断面
  6
CONTINUOUS
 10
60.753775
 20
37.814033
 11
63.344283
 21
39.309663
  0
LINE
  8
型材断面
  6
CONTINUOUS
 10
60.753775
 20
37.814033
 11
63.344283
 21
36.318403
  0
LINE
  8
型材断面
  6
CONTINUOUS
 10
63.344283
 20
36.318403
 11
63.344283
 21
39.309663
  0
LINE
  8
型材断面
  6
CONTINUOUS
 10
60.753775
 20
49.114035
 11
63.344285
 21
48.517982
  0
LINE
  8
型材断面
  6
CONTINUOUS
 10
60.753775
 20
49.114035
 11
63.344283
 21
49.710095
  0
LINE
  8
型材断面
  6
CONTINUOUS
 10
63.344283
 20
49.710095
 11
63.344285
 21
48.517982
  0
LINE
  8
型材断面
  6
CONTINUOUS
 10
60.753775
 20
26.51403
 11
63.344285
 21
27.110082
  0
LINE
  8
型材断面
  6
CONTINUOUS
 10
60.753775
 20
26.51403
 11
63.344283
 21
25.91797
  0
LINE
  8
型材断面
  6
CONTINUOUS
 10
63.344283
 20
25.91797
 11
63.344285
 21
27.110082
  0
LINE
  8
型材断面
  6
CONTINUOUS
 10
-92.00956
 20
20.050845
 11
-93.50519
 21
17.460338
  0
LINE
  8
型材断面
  6
CONTINUOUS
 10
-92.00956
 20
20.050845
 11
-90.51393
 21
17.460338
  0
LINE
  8
型材断面
  6
CONTINUOUS
 10
-90.51393
 20
17.460338
 11
-93.50519
 21
17.460338
  0
LINE
  8
型材断面
  6
CONTINUOUS
 10
41.32377
 20
20.050845
 11
42.8194
 21
17.460338
  0
LINE
  8
型材断面
  6
CONTINUOUS
 10
41.32377
 20
20.050845
 11
39.82814
 21
17.460338
  0
LINE
  8
型材断面
  6
CONTINUOUS
 10
39.82814
 20
17.460338
 11
42.8194
 21
17.460338
  0
LINE
  8
型材断面
  6
CONTINUOUS
 10
-25.342895
 20
20.050842
 11
-23.847265
 21
17.460335
  0
LINE
  8
型材断面
  6
CONTINUOUS
 10
-25.342895
 20
20.050842
 11
-26.838525
 21
17.460335
  0
LINE
  8
型材断面
  6
CONTINUOUS
 10
-26.838525
 20
17.460335
 11
-23.847265
 21
17.460335
  0
LINE
  8
型材断面
  6
DASHDOT
 10
25.007105
 20
22.814033
 11
25.007105
 21
52.814033
  0
LINE
  8
型材断面
  6
DASHDOT
 10
-8.559562
 20
22.814033
 11
-8.559562
 21
52.814033
  0
LINE
  8
型材断面
  6
CONTINUOUS
 10
26.257105
 20
24.314033
 11
23.757105
 21
24.314035
  0
LINE
  8
型材断面
  6
CONTINUOUS
 10
26.257105
 20
51.314033
 11
23.757105
 21
51.31403
  0
LINE
  8
型材断面
  6
CONTINUOUS
 10
26.257105
 20
24.314033
 11
26.257105
 21
51.314033
  0
LINE
  8
型材断面
  6
CONTINUOUS
 10
23.757105
 20
24.314035
 11
23.757105
 21
51.31403
  0
LINE
  8
型材断面
  6
CONTINUOUS
 10
23.757105
 20
24.314033
 11
26.257105
 21
24.314035
  0
LINE
  8
型材断面
  6
CONTINUOUS
 10
23.757105
 20
51.314033
 11
26.257105
 21
51.31403
  0
LINE
  8
型材断面
  6
CONTINUOUS
 10
23.757105
 20
24.314033
 11
23.757105
 21
51.314033
  0
LINE
  8
型材断面
  6
CONTINUOUS
 10
26.257105
 20
24.314035
 11
26.257105
 21
51.31403
  0
LINE
  8
型材断面
  6
CONTINUOUS
 10
-9.809562
 20
24.314033
 11
-7.309562
 21
24.314035
  0
LINE
  8
型材断面
  6
CONTINUOUS
 10
-9.809562
 20
51.314033
 11
-7.309562
 21
51.31403
  0
LINE
  8
型材断面
  6
CONTINUOUS
 10
-9.809562
 20
24.314033
 11
-9.809562
 21
51.314033
  0
LINE
  8
型材断面
  6
CONTINUOUS
 10
-7.309562
 20
24.314035
 11
-7.309562
 21
51.31403
  0
LINE
  8
型材断面
  6
CONTINUOUS
 10
41.91544
 20
23.48069
 11
41.91544
 21
20.98069
  0
LINE
  8
型材断面
  6
CONTINUOUS
 10
41.082105
 20
23.48069
 11
41.082105
 21
20.980693
  0
LINE
  8
型材断面
  6
CONTINUOUS
 10
8.64044
 20
23.48069
 11
8.64044
 21
20.98069
  0
LINE
  8
型材断面
  6
CONTINUOUS
 10
7.807105
 20
23.48069
 11
7.807105
 21
20.980693
  0
LINE
  8
型材断面
  6
CONTINUOUS
 10
-24.926228
 20
23.48069
 11
-24.926228
 21
20.98069
  0
LINE
  8
型材断面
  6
CONTINUOUS
 10
-25.759562
 20
23.48069
 11
-25.759562
 21
20.980693
  0
LINE
  8
型材断面
  6
CONTINUOUS
 10
41.91544
 20
52.147375
 11
41.91544
 21
54.647375
  0
LINE
  8
型材断面
  6
CONTINUOUS
 10
41.082105
 20
52.147375
 11
41.082105
 21
54.647372
  0
LINE
  8
型材断面
  6
CONTINUOUS
 10
8.64044
 20
52.147375
 11
8.64044
 21
54.647375
  0
LINE
  8
型材断面
  6
CONTINUOUS
 10
7.807105
 20
52.147375
 11
7.807105
 21
54.647372
  0
LINE
  8
型材断面
  6
CONTINUOUS
 10
-24.926228
 20
52.147375
 11
-24.926228
 21
54.647375
  0
LINE
  8
型材断面
  6
CONTINUOUS
 10
-25.759562
 20
52.147375
 11
-25.759562
 21
54.647372
  0
LINE
  8
型材断面
  6
CONTINUOUS
 10
41.082105
 20
23.48069
 11
8.64044
 21
23.480715
  0
LINE
  8
型材断面
  6
CONTINUOUS
 10
41.082105
 20
52.147375
 11
8.64044
 21
52.14735
  0
LINE
  8
型材断面
  6
CONTINUOUS
 10
7.807105
 20
52.14735
 11
-24.926228
 21
52.147325
  0
LINE
  8
型材断面
  6
CONTINUOUS
 10
7.807105
 20
23.480715
 11
-24.926228
 21
23.48074
  0
LINE
  8
型材断面
  6
CONTINUOUS
 10
60.753775
 20
20.050845
 11
60.753775
 21
55.577218
  0
LINE
  8
型材断面
  6
CONTINUOUS
 10
59.588095
 20
20.980677
 11
59.823795
 21
21.216378
  0
LINE
  8
型材断面
  6
CONTINUOUS
 10
57.088092
 20
23.480677
 11
57.323792
 21
23.716378
  0
LINE
  8
型材断面
  6
CONTINUOUS
 10
57.323792
 20
23.716378
 11
59.823795
 21
21.216378
  0
LINE
  8
型材断面
  6
CONTINUOUS
 10
57.088092
 20
23.480677
 11
59.588095
 21
20.980677
  0
LINE
  8
型材断面
  6
CONTINUOUS
 10
60.753628
 20
20.050845
 11
59.705942
 21
21.098525
  0
LINE
  8
型材断面
  6
CONTINUOUS
 10
59.823773
 20
37.814033
 11
59.823795
 21
21.216378
  0
LINE
  8
型材断面
  6
CONTINUOUS
 10
59.588095
 20
54.647387
 11
59.823795
 21
54.411687
  0
LINE
  8
型材断面
  6
CONTINUOUS
 10
57.323792
 20
51.911687
 11
59.823795
 21
54.411687
  0
LINE
  8
型材断面
  6
CONTINUOUS
 10
60.753628
 20
55.57722
 11
59.705942
 21
54.52954
  0
LINE
  8
型材断面
  6
CONTINUOUS
 10
57.088092
 20
52.147387
 11
57.323792
 21
51.911687
  0
LINE
  8
型材断面
  6
CONTINUOUS
 10
59.823773
 20
37.814033
 11
59.823795
 21
54.411687
  0
LINE
  8
型材断面
  6
CONTINUOUS
 10
57.088092
 20
52.147387
 11
59.588095
 21
54.647387
  0
LINE
  8
型材断面
  6
CONTINUOUS
 10
57.323773
 20
38.2307
 11
59.823773
 21
38.2307
  0
LINE
  8
型材断面
  6
CONTINUOUS
 10
57.323773
 20
37.397365
 11
59.823773
 21
37.397365
  0
LINE
  8
型材断面
  6
CONTINUOUS
 10
57.323773
 20
37.397365
 11
57.323792
 21
23.716378
  0
LINE
  8
型材断面
  6
CONTINUOUS
 10
57.323773
 20
38.2307
 11
57.323792
 21
51.911687
  0
LINE
  8
型材断面
  6
CONTINUOUS
 10
-25.342895
 20
54.647325
 11
59.588095
 21
54.647387
  0
LINE
  8
型材断面
  6
CONTINUOUS
 10
41.91544
 20
52.147375
 11
57.088092
 21
52.147387
  0
LINE
  8
型材断面
  6
CONTINUOUS
 10
41.91544
 20
23.48069
 11
57.088092
 21
23.480677
  0
LINE
  8
型材断面
  6
CONTINUOUS
 10
-25.342895
 20
20.98074
 11
59.588095
 21
20.980677
  0
LINE
  8
型材断面
  6
DASHDOT
 10
-75.692895
 20
22.814033
 11
-75.692895
 21
52.814033
  0
LINE
  8
型材断面
  6
DASHDOT
 10
-42.126228
 20
22.814033
 11
-42.126228
 21
52.814033
  0
LINE
  8
型材断面
  6
CONTINUOUS
 10
-76.942895
 20
24.314033
 11
-74.442895
 21
24.314035
  0
LINE
  8
型材断面
  6
CONTINUOUS
 10
-76.942895
 20
51.314033
 11
-74.442895
 21
51.31403
  0
LINE
  8
型材断面
  6
CONTINUOUS
 10
-76.942895
 20
24.314033
 11
-76.942895
 21
51.314033
  0
LINE
  8
型材断面
  6
CONTINUOUS
 10
-74.442895
 20
24.314035
 11
-74.442895
 21
51.31403
  0
LINE
  8
型材断面
  6
CONTINUOUS
 10
-74.442895
 20
24.314033
 11
-76.942895
 21
24.314035
  0
LINE
  8
型材断面
  6
CONTINUOUS
 10
-74.442895
 20
51.314033
 11
-76.942895
 21
51.31403
  0
LINE
  8
型材断面
  6
CONTINUOUS
 10
-74.442895
 20
24.314033
 11
-74.442895
 21
51.314033
  0
LINE
  8
型材断面
  6
CONTINUOUS
 10
-76.942895
 20
24.314035
 11
-76.942895
 21
51.31403
  0
LINE
  8
型材断面
  6
CONTINUOUS
 10
-40.876228
 20
24.314033
 11
-43.376228
 21
24.314035
  0
LINE
  8
型材断面
  6
CONTINUOUS
 10
-40.876228
 20
51.314033
 11
-43.376228
 21
51.31403
  0
LINE
  8
型材断面
  6
CONTINUOUS
 10
-40.876228
 20
24.314033
 11
-40.876228
 21
51.314033
  0
LINE
  8
型材断面
  6
CONTINUOUS
 10
-43.376228
 20
24.314035
 11
-43.376228
 21
51.31403
  0
LINE
  8
型材断面
  6
CONTINUOUS
 10
-92.60123
 20
23.48069
 11
-92.60123
 21
20.98069
  0
LINE
  8
型材断面
  6
CONTINUOUS
 10
-91.767895
 20
23.48069
 11
-91.767895
 21
20.980693
  0
LINE
  8
型材断面
  6
CONTINUOUS
 10
-59.32623
 20
23.48069
 11
-59.32623
 21
20.98069
  0
LINE
  8
型材断面
  6
CONTINUOUS
 10
-58.492895
 20
23.48069
 11
-58.492895
 21
20.980693
  0
LINE
  8
型材断面
  6
CONTINUOUS
 10
-92.60123
 20
52.147375
 11
-92.60123
 21
54.647375
  0
LINE
  8
型材断面
  6
CONTINUOUS
 10
-91.767895
 20
52.147375
 11
-91.767895
 21
54.647372
  0
LINE
  8
型材断面
  6
CONTINUOUS
 10
-59.32623
 20
52.147375
 11
-59.32623
 21
54.647375
  0
LINE
  8
型材断面
  6
CONTINUOUS
 10
-58.492895
 20
52.147375
 11
-58.492895
 21
54.647372
  0
LINE
  8
型材断面
  6
CONTINUOUS
 10
-91.767895
 20
23.48069
 11
-59.32623
 21
23.480715
  0
LINE
  8
型材断面
  6
CONTINUOUS
 10
-91.767895
 20
52.147375
 11
-59.32623
 21
52.14735
  0
LINE
  8
型材断面
  6
CONTINUOUS
 10
-111.439565
 20
20.050845
 11
-111.439565
 21
55.577218
  0
LINE
  8
型材断面
  6
CONTINUOUS
 10
-110.273885
 20
20.980677
 11
-110.509585
 21
21.216378
  0
LINE
  8
型材断面
  6
CONTINUOUS
 10
-107.773883
 20
23.480677
 11
-108.009583
 21
23.716378
  0
LINE
  8
型材断面
  6
CONTINUOUS
 10
-108.009583
 20
23.716378
 11
-110.509585
 21
21.216378
  0
LINE
  8
型材断面
  6
CONTINUOUS
 10
-107.773883
 20
23.480677
 11
-110.273885
 21
20.980677
  0
LINE
  8
型材断面
  6
CONTINUOUS
 10
-111.439418
 20
20.050845
 11
-110.391733
 21
21.098525
  0
LINE
  8
型材断面
  6
CONTINUOUS
 10
-110.509562
 20
37.814033
 11
-110.509585
 21
21.216378
  0
LINE
  8
型材断面
  6
CONTINUOUS
 10
-110.273885
 20
54.647387
 11
-110.509585
 21
54.411687
  0
LINE
  8
型材断面
  6
CONTINUOUS
 10
-108.009583
 20
51.911687
 11
-110.509585
 21
54.411687
  0
LINE
  8
型材断面
  6
CONTINUOUS
 10
-111.439418
 20
55.57722
 11
-110.391733
 21
54.52954
  0
LINE
  8
型材断面
  6
CONTINUOUS
 10
-107.773883
 20
52.147387
 11
-108.009583
 21
51.911687
  0
LINE
  8
型材断面
  6
CONTINUOUS
 10
-110.509562
 20
37.814033
 11
-110.509585
 21
54.411687
  0
LINE
  8
型材断面
  6
CONTINUOUS
 10
-107.773883
 20
52.147387
 11
-110.273885
 21
54.647387
  0
LINE
  8
型材断面
  6
CONTINUOUS
 10
-108.009562
 20
38.2307
 11
-110.509562
 21
38.2307
  0
LINE
  8
型材断面
  6
CONTINUOUS
 10
-108.009562
 20
37.397365
 11
-110.509562
 21
37.397365
  0
LINE
  8
型材断面
  6
CONTINUOUS
 10
-108.009562
 20
37.397365
 11
-108.009583
 21
23.716378
  0
LINE
  8
型材断面
  6
CONTINUOUS
 10
-108.009562
 20
38.2307
 11
-108.009583
 21
51.911687
  0
LINE
  8
型材断面
  6
CONTINUOUS
 10
-92.60123
 20
52.147375
 11
-107.773883
 21
52.147387
  0
LINE
  8
型材断面
  6
CONTINUOUS
 10
-92.60123
 20
23.48069
 11
-107.773883
 21
23.480677
  0
LINE
  8
型材断面
  6
CONTINUOUS
 10
-25.759562
 20
52.147325
 11
-58.492895
 21
52.14735
  0
LINE
  8
型材断面
  6
CONTINUOUS
 10
-25.759562
 20
23.48074
 11
-58.492895
 21
23.480715
  0
LINE
  8
型材断面
  6
CONTINUOUS
 10
-25.342895
 20
54.647325
 11
-110.273885
 21
54.647387
  0
LINE
  8
型材断面
  6
CONTINUOUS
 10
-25.342895
 20
20.98074
 11
-110.273885
 21
20.980677
  0
LINE
  8
型材断面
  6
CONTINUOUS
 10
60.253778
 20
-77.192947
 11
60.253778
 21
-77.529612
  0
LINE
  8
型材断面
  6
CONTINUOUS
 10
60.55711
 20
-73.096397
 11
60.753778
 21
-73.293065
  0
LINE
  8
型材断面
  6
CONTINUOUS
 10
60.753778
 20
-73.293065
 11
60.753778
 21
-77.192947
  0
LINE
  8
型材断面
  6
CONTINUOUS
 10
155.023705
 20
55.07722
 11
155.36037
 21
55.07722
  0
LINE
  8
型材断面
  6
CONTINUOUS
 10
150.927155
 20
55.380552
 11
151.123822
 21
55.57722
  0
LINE
  8
型材断面
  6
CONTINUOUS
 10
151.123822
 20
55.57722
 11
155.023705
 21
55.57722
  0
LINE
  8
型材断面
  6
CONTINUOUS
 10
155.36037
 20
55.07722
 11
155.36037
 21
37.814033
  0
LINE
  8
型材断面
  6
CONTINUOUS
 10
155.023705
 20
55.57722
 11
155.023705
 21
37.814033
  0
LINE
  8
型材断面
  6
CONTINUOUS
 62
    47
 10
150.9272
 20
55.380595
 11
150.9272
 21
37.814033
  0
LINE
  8
型材断面
  6
CONTINUOUS
 10
151.123822
 20
55.57722
 11
151.123822
 21
37.814033
  0
LINE
  8
型材断面
  6
CONTINUOUS
 10
155.023705
 20
20.550845
 11
155.36037
 21
20.550845
  0
LINE
  8
型材断面
  6
CONTINUOUS
 10
150.927155
 20
20.247513
 11
151.123822
 21
20.050845
  0
LINE
  8
型材断面
  6
CONTINUOUS
 10
151.123822
 20
20.050845
 11
155.023705
 21
20.050845
  0
LINE
  8
型材断面
  6
CONTINUOUS
 10
155.36037
 20
20.550845
 11
155.36037
 21
37.814033
  0
LINE
  8
型材断面
  6
CONTINUOUS
 10
155.023705
 20
20.050845
 11
155.023705
 21
37.814033
  0
LINE
  8
型材断面
  6
CONTINUOUS
 62
    47
 10
150.9272
 20
20.24747
 11
150.9272
 21
37.814033
  0
LINE
  8
型材断面
  6
CONTINUOUS
 10
151.123822
 20
20.050845
 11
151.123822
 21
37.814033
  0
LINE
  8
型材断面
  6
CONTINUOUS
 62
    47
 10
60.557152
 20
-73.096443
 11
-25.342895
 21
-73.096443
  0
LINE
  8
型材断面
  6
CONTINUOUS
 10
60.753778
 20
-73.293065
 11
-25.342895
 21
-73.293065
  0
LINE
  8
型材断面
  6
CONTINUOUS
 10
60.753778
 20
-77.192947
 11
-25.342895
 21
-77.192947
  0
LINE
  8
型材断面
  6
CONTINUOUS
 10
60.253778
 20
-77.529612
 11
-25.342895
 21
-77.529612
  0
LINE
  8
型材断面
  6
CONTINUOUS
 10
-110.939567
 20
-77.192947
 11
-110.939567
 21
-77.529612
  0
LINE
  8
型材断面
  6
CONTINUOUS
 10
-111.2429
 20
-73.096397
 11
-111.439567
 21
-73.293065
  0
LINE
  8
型材断面
  6
CONTINUOUS
 10
-111.439567
 20
-73.293065
 11
-111.439567
 21
-77.192947
  0
LINE
  8
型材断面
  6
CONTINUOUS
 62
    47
 10
-111.242943
 20
-73.096443
 11
-25.342895
 21
-73.096443
  0
LINE
  8
型材断面
  6
CONTINUOUS
 10
-111.439567
 20
-73.293065
 11
-25.342895
 21
-73.293065
  0
LINE
  8
型材断面
  6
CONTINUOUS
 10
-111.439567
 20
-77.192947
 11
-25.342895
 21
-77.192947
  0
LINE
  8
型材断面
  6
CONTINUOUS
 10
-110.939567
 20
-77.529612
 11
-25.342895
 21
-77.529612
  0
TEXT
  7
TextStyle03
  8
文字
  6
CONTINUOUS
 10
-33.7
 20
9.325
  1
可動装置側
 40
3.0
 72
     5
 11
-17.2
 21
9.325
  0
TEXT
  7
TextStyle03
  8
文字
  6
CONTINUOUS
 10
-33.7
 20
63.275
  1
可動装置側
 40
3.0
 72
     5
 11
-17.2
 21
63.275
  0
TEXT
  7
TextStyle03
  8
文字
  6
CONTINUOUS
 10
-146.725
 20
89.4
  1
はケーシング位置を示す
 40
3.0
 72
     5
 11
-109.975
 21
89.4
  0
TEXT
  7
TextStyle03
  8
文字
  6
CONTINUOUS
 10
-146.725
 20
86.025
  1
４ヶ所中1ヶ所に設定
 40
3.0
 72
     5
 11
-115.0375
 21
86.025
  0
TEXT
  7
TextStyle03
  8
文字
  6
CONTINUOUS
 10
-146.725
 20
94.925
  1
は排水穴位置を示す
 40
3.0
 72
     5
 11
-116.725
 21
94.925
  0
TEXT
  7
TextStyle03
  8
文字
  6
CONTINUOUS
 10
-129.65
 20
16.275
  1
アンカーピッチ
 40
3.0
 50
90.0
 72
     5
 11
-129.65
 21
39.525
  0
TEXT
  7
TextStyle03
  8
文字
  6
CONTINUOUS
 10
-97.95
 20
90.25
  1
アンカーピッチ
 40
3.0
 72
     5
 11
-74.7
 21
90.25
  0
TEXT
  7
TextStyle03
  8
文字
  6
CONTINUOUS
 10
-150.45
 20
80.05
  1
アンカー数量　１８ヶ所
 40
3.0
 72
     5
 11
-113.7
 21
80.05
  0
TEXT
  7
TextStyle03
  8
文字
  6
CONTINUOUS
 10
-150.5
 20
74.3
  1
アームユニット数　４ヶ所
 40
3.0
 72
     5
 11
-110.375
 21
74.3
  0
LINE
  8
文字
  6
CONTINUOUS
 10
149.119465
 20
55.577218
 11
92.010088
 21
55.577218
  0
LINE
  8
文字
  6
CONTINUOUS
 10
149.119465
 20
20.050845
 11
92.010088
 21
20.050845
  0
LINE
  8
文字
  6
CONTINUOUS
 10
135.240485
 20
61.81515
 11
135.240485
 21
56.902377
  0
LINE
  8
文字
  6
CONTINUOUS
 10
-111.439565
 20
-70.743062
 11
-111.439565
 21
-12.609317
  0
LINE
  8
文字
  6
CONTINUOUS
 10
60.753775
 20
-70.743062
 11
60.753775
 21
-12.609317
  0
LINE
  8
文字
  6
CONTINUOUS
 10
120.676993
 20
-45.844285
 11
120.676993
 21
-52.975202
  0
LINE
  8
文字
  6
CONTINUOUS
 10
153.076993
 20
-45.844285
 11
153.076993
 21
-52.975202
  0
TEXT
  7
TextStyle03
  8
文字
  6
CONTINUOUS
 10
134.525
 20
-77.375
  1
網入り6.8t
 40
3.0
 72
     5
 11
151.2125
 21
-77.375
  0
TEXT
  7
TextStyle03
  8
文字
  6
CONTINUOUS
 10
141.2
 20
-82.05
  1
×５枚
 40
3.0
 72
     5
 11
150.95
 21
-82.05
  0
TEXT
  7
TextStyle03
  8
文字
  6
CONTINUOUS
 10
62.4
 20
125.25
  1
シリーズ：ＴＦＦＬ
 40
5.0
 72
     5
 11
112.4
 21
125.25
  0
TEXT
  7
TextStyle03
  8
文字
  6
CONTINUOUS
 10
62.4
 20
119.625
  1
　　　　　（上下可動）900×5000タイプ
 40
5.0
 72
     5
 11
165.8375
 21
119.625
  0
TEXT
  7
TextStyle03
  8
文字
  6
CONTINUOUS
 10
62.4
 20
114.0
  1
図面名　：外観姿図
 40
5.0
 72
     5
 11
112.4
 21
114.0
  0
TEXT
  7
TextStyle03
  8
文字
  6
CONTINUOUS
 10
62.4
 20
108.375
  1
　　　　　　
 40
5.0
 72
     5
 11
95.525
 21
108.375
  0
TEXT
  7
TextStyle03
  8
文字
  6
CONTINUOUS
 10
62.55
 20
104.525
  1
ＮＳコード：ＮＳＦＬ
 40
5.0
 72
     5
 11
118.175
 21
104.525
  0
INSERT
  2
*DIM_0002
  8
寸法
  6
CONTINUOUS
 10
0.0
 20
0.0
  0
INSERT
  2
*DIM_0003
  8
寸法
  6
CONTINUOUS
 10
0.0
 20
0.0
  0
INSERT
  2
*DIM_0004
  8
寸法
  6
CONTINUOUS
 10
0.0
 20
0.0
  0
INSERT
  2
*DIM_0005
  8
寸法
  6
CONTINUOUS
 10
0.0
 20
0.0
  0
INSERT
  2
*DIM_0006
  8
寸法
  6
CONTINUOUS
 10
0.0
 20
0.0
  0
INSERT
  2
*DIM_0007
  8
寸法
  6
CONTINUOUS
 10
0.0
 20
0.0
  0
INSERT
  2
*DIM_0008
  8
寸法
  6
CONTINUOUS
 10
0.0
 20
0.0
  0
INSERT
  2
*DIM_0009
  8
寸法
  6
CONTINUOUS
 10
0.0
 20
0.0
  0
INSERT
  2
*DIM_0010
  8
寸法
  6
CONTINUOUS
 10
0.0
 20
0.0
  0
INSERT
  2
*DIM_0011
  8
寸法
  6
CONTINUOUS
 10
0.0
 20
0.0
  0
INSERT
  2
*DIM_0012
  8
寸法
  6
CONTINUOUS
 10
0.0
 20
0.0
  0
INSERT
  2
*DIM_0013
  8
寸法
  6
CONTINUOUS
 10
0.0
 20
0.0
  0
INSERT
  2
*DIM_0014
  8
寸法
  6
CONTINUOUS
 10
0.0
 20
0.0
  0
INSERT
  2
*DIM_0015
  8
寸法
  6
CONTINUOUS
 10
0.0
 20
0.0
  0
INSERT
  2
*DIM_0016
  8
寸法
  6
CONTINUOUS
 10
0.0
 20
0.0
  0
INSERT
  2
*DIM_0017
  8
寸法
  6
CONTINUOUS
 10
0.0
 20
0.0
  0
INSERT
  2
*DIM_0018
  8
寸法
  6
CONTINUOUS
 10
0.0
 20
0.0
  0
INSERT
  2
*DIM_0023
  8
寸法
  6
CONTINUOUS
 10
0.0
 20
0.0
  0
INSERT
  2
*DIM_0024
  8
寸法
  6
CONTINUOUS
 10
0.0
 20
0.0
  0
INSERT
  2
*DIM_0025
  8
寸法
  6
CONTINUOUS
 10
0.0
 20
0.0
  0
INSERT
  2
*DIM_0026
  8
寸法
  6
CONTINUOUS
 10
0.0
 20
0.0
  0
INSERT
  2
*DIM_0027
  8
寸法
  6
CONTINUOUS
 10
0.0
 20
0.0
  0
INSERT
  2
*DIM_0028
  8
寸法
  6
CONTINUOUS
 10
0.0
 20
0.0
  0
LINE
  8
別途部材
  6
CONTINUOUS
 62
    47
 10
147.007152
 20
54.64722
 11
147.07382
 21
54.64722
  0
ARC
  8
別途部材
  6
CONTINUOUS
 62
    47
 10
147.007157
 20
54.547219
 40
0.1
 50
90.0
 51
180.0
  0
LINE
  8
別途部材
  6
CONTINUOUS
 62
    47
 10
147.07382
 20
54.490697
 11
148.57382
 21
54.490697
  0
LINE
  8
別途部材
  6
CONTINUOUS
 62
    47
 10
147.007152
 20
20.980842
 11
147.07382
 21
20.980842
  0
ARC
  8
別途部材
  6
CONTINUOUS
 62
    47
 10
147.007157
 20
21.080843
 40
0.1
 50
180.0
 51
270.0
  0
LINE
  8
別途部材
  6
CONTINUOUS
 62
    47
 10
147.07382
 20
21.137365
 11
148.57382
 21
21.137365
  0
LINE
  8
別途部材
  6
CONTINUOUS
 62
    47
 10
150.890488
 20
55.577218
 11
150.890488
 21
37.814033
  0
LINE
  8
別途部材
  6
CONTINUOUS
 62
    47
 10
149.723822
 20
55.577218
 11
149.723822
 21
37.814033
  0
LINE
  8
別途部材
  6
CONTINUOUS
 62
    47
 10
148.57382
 20
54.490697
 11
148.57382
 21
37.814033
  0
LINE
  8
別途部材
  6
CONTINUOUS
 62
    47
 10
147.07382
 20
54.64722
 11
147.07382
 21
37.814033
  0
LINE
  8
別途部材
  6
CONTINUOUS
 62
    47
 10
146.907152
 20
54.54722
 11
146.907152
 21
37.814033
  0
LINE
  8
別途部材
  6
CONTINUOUS
 62
    47
 10
150.890488
 20
20.050845
 11
150.890488
 21
37.814033
  0
LINE
  8
別途部材
  6
CONTINUOUS
 62
    47
 10
149.723822
 20
20.050845
 11
149.723822
 21
37.814033
  0
LINE
  8
別途部材
  6
CONTINUOUS
 62
    47
 10
147.07382
 20
20.980842
 11
147.07382
 21
37.814033
  0
LINE
  8
別途部材
  6
CONTINUOUS
 62
    47
 10
146.907152
 20
21.080842
 11
146.907152
 21
37.814033
  0
LINE
  8
別途部材
  6
CONTINUOUS
 62
    47
 10
148.57382
 20
21.137365
 11
148.57382
 21
37.814033
  0
LINE
  8
別途部材
  6
DOT
 62
    47
 10
135.340485
 20
54.64722
 11
135.407152
 21
54.64722
  0
ARC
  8
別途部材
  6
DOT
 62
    47
 10
135.34049
 20
54.547219
 40
0.1
 50
90.0
 51
180.0
  0
LINE
  8
別途部材
  6
DOT
 62
    47
 10
135.407152
 20
54.490697
 11
136.907152
 21
54.490697
  0
LINE
  8
別途部材
  6
DOT
 62
    47
 10
135.340485
 20
20.980842
 11
135.407152
 21
20.980842
  0
ARC
  8
別途部材
  6
DOT
 62
    47
 10
135.34049
 20
21.080843
 40
0.1
 50
180.0
 51
270.0
  0
LINE
  8
別途部材
  6
DOT
 62
    47
 10
135.407152
 20
21.137365
 11
136.907152
 21
21.137365
  0
LINE
  8
別途部材
  6
DOT
 62
    47
 10
139.22382
 20
55.577218
 11
139.22382
 21
37.814033
  0
LINE
  8
別途部材
  6
DOT
 62
    47
 10
138.057155
 20
55.577218
 11
138.057155
 21
37.814033
  0
LINE
  8
別途部材
  6
DOT
 62
    47
 10
136.907152
 20
54.490697
 11
136.907152
 21
37.814033
  0
LINE
  8
別途部材
  6
DOT
 62
    47
 10
135.407152
 20
54.64722
 11
135.407152
 21
37.814033
  0
LINE
  8
別途部材
  6
DOT
 62
    47
 10
135.240485
 20
54.54722
 11
135.240485
 21
37.814033
  0
LINE
  8
別途部材
  6
DOT
 62
    47
 10
138.057155
 20
20.050845
 11
138.057155
 21
37.814033
  0
LINE
  8
別途部材
  6
DOT
 62
    47
 10
139.22382
 20
20.050845
 11
139.22382
 21
37.814033
  0
LINE
  8
別途部材
  6
DOT
 62
    47
 10
135.407152
 20
20.980842
 11
135.407152
 21
37.814033
  0
LINE
  8
別途部材
  6
DOT
 62
    47
 10
135.240485
 20
21.080842
 11
135.240485
 21
37.814033
  0
LINE
  8
別途部材
  6
DOT
 62
    47
 10
136.907152
 20
21.137365
 11
136.907152
 21
37.814033
  0
LINE
  8
別途部材
  6
CONTINUOUS
 62
    47
 10
-110.509567
 20
-69.176395
 11
-110.509567
 21
-69.243062
  0
ARC
  8
別途部材
  6
CONTINUOUS
 62
    47
 10
-110.409565
 20
-69.176397
 40
0.1
 50
90.0
 51
180.0
  0
LINE
  8
別途部材
  6
CONTINUOUS
 62
    47
 10
-110.353045
 20
-69.243062
 11
-110.353045
 21
-70.743062
  0
LINE
  8
別途部材
  6
CONTINUOUS
 62
    47
 10
59.823777
 20
-69.176395
 11
59.823777
 21
-69.243062
  0
ARC
  8
別途部材
  6
CONTINUOUS
 62
    47
 10
59.723771
 20
-69.176397
 40
0.1
 50
0.0
 51
90.0
  0
LINE
  8
別途部材
  6
CONTINUOUS
 62
    47
 10
59.667255
 20
-69.243062
 11
59.667255
 21
-70.743062
  0
LINE
  8
別途部材
  6
CONTINUOUS
 62
    47
 10
-110.509567
 20
-69.243062
 11
-25.342895
 21
-69.243062
  0
LINE
  8
別途部材
  6
CONTINUOUS
 62
    47
 10
-110.409567
 20
-69.076395
 11
-25.342895
 21
-69.076395
  0
LINE
  8
別途部材
  6
CONTINUOUS
 62
    47
 10
-110.353045
 20
-70.743062
 11
-25.342895
 21
-70.743062
  0
LINE
  8
別途部材
  6
CONTINUOUS
 62
    47
 10
-111.439565
 20
-71.893065
 11
-25.342895
 21
-71.893065
  0
LINE
  8
別途部材
  6
CONTINUOUS
 62
    47
 10
-111.439565
 20
-73.05973
 11
-25.342895
 21
-73.05973
  0
LINE
  8
別途部材
  6
CONTINUOUS
 62
    47
 10
60.753775
 20
-73.05973
 11
-25.342895
 21
-73.05973
  0
LINE
  8
別途部材
  6
CONTINUOUS
 62
    47
 10
59.667255
 20
-70.743062
 11
-25.342895
 21
-70.743062
  0
LINE
  8
別途部材
  6
CONTINUOUS
 62
    47
 10
59.823777
 20
-69.243062
 11
-25.342895
 21
-69.243062
  0
LINE
  8
別途部材
  6
CONTINUOUS
 62
    47
 10
59.723777
 20
-69.076395
 11
-25.342895
 21
-69.076395
  0
LINE
  8
別途部材
  6
CONTINUOUS
 62
    47
 10
60.753775
 20
-71.893065
 11
-25.342895
 21
-71.893065
  0
LINE
  8
別途部材
  6
DOT
 62
    47
 10
-110.509567
 20
-57.509728
 11
-110.509567
 21
-57.576395
  0
ARC
  8
別途部材
  6
DOT
 62
    47
 10
-110.409565
 20
-57.509729
 40
0.1
 50
90.0
 51
180.0
  0
LINE
  8
別途部材
  6
DOT
 62
    47
 10
-110.353045
 20
-57.576395
 11
-110.353045
 21
-59.076395
  0
LINE
  8
別途部材
  6
DOT
 62
    47
 10
59.823777
 20
-57.509728
 11
59.823777
 21
-57.576395
  0
ARC
  8
別途部材
  6
DOT
 62
    47
 10
59.723771
 20
-57.509729
 40
0.1
 50
0.0
 51
90.0
  0
LINE
  8
別途部材
  6
DOT
 62
    47
 10
59.667255
 20
-57.576395
 11
59.667255
 21
-59.076395
  0
LINE
  8
別途部材
  6
DOT
 62
    47
 10
-111.439565
 20
-60.226397
 11
-25.342895
 21
-60.226397
  0
LINE
  8
別途部材
  6
DOT
 62
    47
 10
-111.439565
 20
-61.393062
 11
-25.342895
 21
-61.393062
  0
LINE
  8
別途部材
  6
DOT
 62
    47
 10
-110.353045
 20
-59.076395
 11
-25.342895
 21
-59.076395
  0
LINE
  8
別途部材
  6
DOT
 62
    47
 10
-110.509567
 20
-57.576395
 11
-25.342895
 21
-57.576395
  0
LINE
  8
別途部材
  6
DOT
 62
    47
 10
-110.409567
 20
-57.409728
 11
-25.342895
 21
-57.409728
  0
LINE
  8
別途部材
  6
DOT
 62
    47
 10
60.753775
 20
-61.393062
 11
-25.342895
 21
-61.393062
  0
LINE
  8
別途部材
  6
DOT
 62
    47
 10
60.753775
 20
-60.226397
 11
-25.342895
 21
-60.226397
  0
LINE
  8
別途部材
  6
DOT
 62
    47
 10
59.667255
 20
-59.076395
 11
-25.342895
 21
-59.076395
  0
LINE
  8
別途部材
  6
DOT
 62
    47
 10
59.723777
 20
-57.409728
 11
-25.342895
 21
-57.409728
  0
LINE
  8
別途部材
  6
DOT
 62
    47
 10
59.823777
 20
-57.576395
 11
-25.342895
 21
-57.576395
  0
LINE
  8
別途部材
  6
CONTINUOUS
 10
120.676993
 20
-53.785395
 11
120.676993
 21
-83.785395
  0
LINE
  8
曲げ物
  6
CONTINUOUS
 10
42.716167
 20
39.693362
 11
39.020855
 21
35.99805
  0
LINE
  8
曲げ物
  6
CONTINUOUS
 10
42.012697
 20
38.157252
 11
40.556968
 21
36.701522
  0
LINE
  8
曲げ物
  6
CONTINUOUS
 10
41.180057
 20
38.989892
 11
39.724328
 21
37.534162
  0
LINE
  8
曲げ物
  6
CONTINUOUS
 10
10.713703
 20
39.693362
 11
7.01839
 21
35.99805
  0
LINE
  8
曲げ物
  6
CONTINUOUS
 10
10.010232
 20
38.157252
 11
8.554502
 21
36.701522
  0
LINE
  8
曲げ物
  6
CONTINUOUS
 10
9.177592
 20
38.989892
 11
7.721862
 21
37.534162
  0
LINE
  8
曲げ物
  6
CONTINUOUS
 10
-23.387765
 20
39.693362
 11
-27.083078
 21
35.99805
  0
LINE
  8
曲げ物
  6
CONTINUOUS
 10
-24.091235
 20
38.157252
 11
-25.546965
 21
36.701522
  0
LINE
  8
曲げ物
  6
CONTINUOUS
 10
-24.923875
 20
38.989892
 11
-26.379605
 21
37.534162
  0
LINE
  8
曲げ物
  6
CONTINUOUS
 10
-56.475853
 20
39.693362
 11
-60.171165
 21
35.99805
  0
LINE
  8
曲げ物
  6
CONTINUOUS
 10
-57.179323
 20
38.157252
 11
-58.635052
 21
36.701522
  0
LINE
  8
曲げ物
  6
CONTINUOUS
 10
-58.011963
 20
38.989892
 11
-59.467692
 21
37.534162
  0
LINE
  8
曲げ物
  6
CONTINUOUS
 10
-89.7415
 20
39.693362
 11
-93.436813
 21
35.99805
  0
LINE
  8
曲げ物
  6
CONTINUOUS
 10
-90.44497
 20
38.157252
 11
-91.9007
 21
36.701522
  0
LINE
  8
曲げ物
  6
CONTINUOUS
 10
-91.27761
 20
38.989892
 11
-92.73334
 21
37.534162
  0
LINE
  8
曲げ物
  6
CONTINUOUS
 10
153.076993
 20
-53.785395
 11
120.676993
 21
-53.785395
  0
LINE
  8
曲げ物
  6
CONTINUOUS
 10
153.076993
 20
-83.785395
 11
120.676993
 21
-83.785395
  0
LINE
  8
曲げ物
  6
CONTINUOUS
 10
153.076993
 20
-53.785395
 11
153.076993
 21
-83.785395
  0
LINE
  8
鉄骨等
  6
CONTINUOUS
 62
    47
 10
150.890488
 20
55.577218
 11
149.723822
 21
55.577218
  0
LINE
  8
鉄骨等
  6
CONTINUOUS
 62
    47
 10
149.723822
 20
55.577218
 11
148.573822
 21
54.17403
  0
LINE
  8
鉄骨等
  6
CONTINUOUS
 62
    47
 10
150.890488
 20
20.050845
 11
149.723822
 21
20.050845
  0
LINE
  8
鉄骨等
  6
CONTINUOUS
 62
    47
 10
149.723822
 20
20.050845
 11
148.573822
 21
21.45403
  0
LINE
  8
鉄骨等
  6
DOT
 62
    47
 10
139.22382
 20
55.577218
 11
138.057155
 21
55.577218
  0
LINE
  8
鉄骨等
  6
DOT
 62
    47
 10
138.057155
 20
55.577218
 11
136.907155
 21
54.17403
  0
LINE
  8
鉄骨等
  6
DOT
 62
    47
 10
139.22382
 20
20.050845
 11
138.057155
 21
20.050845
  0
LINE
  8
鉄骨等
  6
DOT
 62
    47
 10
138.057155
 20
20.050845
 11
136.907155
 21
21.45403
  0
LINE
  8
鉄骨等
  6
CONTINUOUS
 62
    47
 10
-111.439565
 20
-73.05973
 11
-111.439565
 21
-71.893065
  0
LINE
  8
鉄骨等
  6
CONTINUOUS
 62
    47
 10
-111.439565
 20
-71.893065
 11
-110.03638
 21
-70.743065
  0
LINE
  8
鉄骨等
  6
CONTINUOUS
 62
    47
 10
60.753775
 20
-73.05973
 11
60.753775
 21
-71.893065
  0
LINE
  8
鉄骨等
  6
CONTINUOUS
 62
    47
 10
60.753775
 20
-71.893065
 11
59.35059
 21
-70.743065
  0
LINE
  8
鉄骨等
  6
DOT
 62
    47
 10
-111.439565
 20
-61.393062
 11
-111.439565
 21
-60.226397
  0
LINE
  8
鉄骨等
  6
DOT
 62
    47
 10
-111.439565
 20
-60.226397
 11
-110.03638
 21
-59.076397
  0
LINE
  8
鉄骨等
  6
DOT
 62
    47
 10
60.753775
 20
-61.393062
 11
60.753775
 21
-60.226397
  0
LINE
  8
鉄骨等
  6
DOT
 62
    47
 10
60.753775
 20
-60.226397
 11
59.35059
 21
-59.076397
  0
ENDSEC
  0
EOF
