  0
SECTION
  2
HEADER
  9
$EXTMIN
 10
-210.0
 20
-148.5
  9
$EXTMAX
 10
210.0
 20
148.5
  9
$PDMODE
 70
    32
  9
$PDSIZE
 40
1.5
  9
$LTSCALE
 40
10.0
  0
ENDSEC
  0
SECTION
  2
TABLES
  0
TABLE
  2
LTYPE
 70
    15
  0
LTYPE
  2
CONTINUOUS
 70
    64
  3
実線
 72
    65
 73
     0
 40
0.0
  0
LTYPE
  2
DASHED
 70
    64
  3
破線A
 72
    65
 73
     2
 40
0.6
 49
0.4
 49
-0.2
  0
LTYPE
  2
DASHEDX2
 70
    64
  3
破線B
 72
    65
 73
     2
 40
1.3
 49
0.9
 49
-0.4
  0
LTYPE
  2
DASHDOT
 70
    64
  3
１点鎖線A
 72
    65
 73
     4
 40
0.5375
 49
0.375
 49
-0.05
 49
0.0625
 49
-0.05
  0
LTYPE
  2
DASHDOTX2
 70
    64
  3
１点鎖線B
 72
    65
 73
     4
 40
1.075
 49
0.75
 49
-0.1
 49
0.125
 49
-0.1
  0
LTYPE
  2
DIVIDE2
 70
    64
  3
２点鎖線A
 72
    65
 73
     6
 40
0.5125
 49
0.3
 49
-0.0375
 49
0.05
 49
-0.0375
 49
0.05
 49
-0.0375
  0
LTYPE
  2
DIVIDE
 70
    64
  3
２点鎖線B
 72
    65
 73
     6
 40
1.05
 49
0.55
 49
-0.1
 49
0.1
 49
-0.1
 49
0.1
 49
-0.1
  0
LTYPE
  2
DOT
 70
    64
  3
点線A
 72
    65
 73
     2
 40
0.1125
 49
0.0625
 49
-0.05
  0
LTYPE
  2
DOTX2
 70
    64
  3
点線B
 72
    65
 73
     2
 40
0.275
 49
0.15
 49
-0.125
  0
LTYPE
  2
CONTINUOUS
 70
    64
  3
実線
 72
    65
 73
     0
 40
0.0
  0
LTYPE
  2
CONTINUOUS
 70
    64
  3
実線
 72
    65
 73
     0
 40
0.0
  0
LTYPE
  2
CONTINUOUS
 70
    64
  3
実線
 72
    65
 73
     0
 40
0.0
  0
LTYPE
  2
CONTINUOUS
 70
    64
  3
実線
 72
    65
 73
     0
 40
0.0
  0
LTYPE
  2
CONTINUOUS
 70
    64
  3
実線
 72
    65
 73
     0
 40
0.0
  0
LTYPE
  2
CONTINUOUS
 70
    64
  3
実線
 72
    65
 73
     0
 40
0.0
  0
ENDTAB
  0
TABLE
  2
LAYER
 70
    34
  0
LAYER
  2
通り芯
 70
     0
 62
    15
  6
CONTINUOUS
  0
LAYER
  2
補助線
 70
     0
 62
    16
  6
DOT
  0
LAYER
  2
躯体
 70
     0
 62
    31
  6
CONTINUOUS
  0
LAYER
  2
型材
 70
     0
 62
    32
  6
CONTINUOUS
  0
LAYER
  2
型材断面
 70
     0
 62
    47
  6
CONTINUOUS
  0
LAYER
  2
ガラス
 70
     0
 62
    48
  6
CONTINUOUS
  0
LAYER
  2
ゴム等
 70
     0
 62
    63
  6
CONTINUOUS
  0
LAYER
  2
ボルト／ビス
 70
     0
 62
    64
  6
CONTINUOUS
  0
LAYER
  2
文字
 70
     0
 62
    79
  6
CONTINUOUS
  0
LAYER
  2
寸法
 70
     0
 62
    80
  6
CONTINUOUS
  0
LAYER
  2
ﾊｯﾁﾝｸﾞ
 70
     0
 62
    95
  6
CONTINUOUS
  0
LAYER
  2
別途部材
 70
     0
 62
    96
  6
CONTINUOUS
  0
LAYER
  2
曲げ物
 70
     0
 62
   111
  6
CONTINUOUS
  0
LAYER
  2
鉄骨等
 70
     0
 62
   112
  6
CONTINUOUS
  0
LAYER
  2
St
 70
     0
 62
   127
  6
CONTINUOUS
  0
LAYER
  2
その他部品等
 70
     0
 62
   128
  6
CONTINUOUS
  0
LAYER
  2
ｶﾞｽｹｯﾄ
 70
     0
 62
   143
  6
CONTINUOUS
  0
LAYER
  2
ｽｹｯﾁ
 70
     0
 62
    14
  6
CONTINUOUS
  0
LAYER
  2
0
 70
     0
 62
    17
  6
CONTINUOUS
  0
LAYER
  2
1
 70
     0
 62
    30
  6
CONTINUOUS
  0
LAYER
  2
4
 70
     0
 62
    33
  6
CONTINUOUS
  0
LAYER
  2
ﾚｲﾔ3
 70
     0
 62
    46
  6
CONTINUOUS
  0
LAYER
  2
外形線
 70
     0
 62
    49
  6
CONTINUOUS
  0
LAYER
  2
部品
 70
     0
 62
    14
  6
CONTINUOUS
  0
LAYER
  2
サッシ芯
 70
     0
 62
    17
  6
DASHDOTX2
  0
LAYER
  2
寸法線
 70
     0
 62
    62
  6
CONTINUOUS
  0
LAYER
  2
姿図外形線
 70
     0
 62
    65
  6
CONTINUOUS
  0
LAYER
  2
姿補助線
 70
     0
 62
    30
  6
CONTINUOUS
  0
LAYER
  2
透視線
 70
     0
 62
    78
  6
DOT
  0
LAYER
  2
用紙
 70
     0
 62
    81
  6
CONTINUOUS
  0
LAYER
  2
実線図枠
 70
     0
 62
    94
  6
CONTINUOUS
  0
LAYER
  2
補助図枠
 70
     0
 62
    97
  6
CONTINUOUS
  0
LAYER
  2
建具記号
 70
     0
 62
   110
  6
CONTINUOUS
  0
LAYER
  2
補助文字
 70
     0
 62
   113
  6
CONTINUOUS
  0
ENDTAB
  0
TABLE
  2
STYLE
 70
    10
  0
STYLE
  2
STANDARD
 70
     0
 40
1.0
 41
1.0
 42
1.0
 50
0.0
 71
     0
  3
TXT
  4
BIGFONT
  0
STYLE
  2
TATE
 70
     4
 40
1.0
 41
1.0
 42
1.0
 50
0.0
 71
     0
  3
TXT
  4
BIGFONT
  0
STYLE
  2
TextStyle03
 70
     0
 40
1.0
 41
1.0
 42
1.0
 50
0.0
 71
     0
  3
MONOTXT
  4
BIGFONT
  0
STYLE
  2
TextStyle04
 70
     0
 40
1.0
 41
1.0
 42
1.0
 50
0.0
 71
     0
  3
MONOTXT
  4
BIGFONT
  0
STYLE
  2
TextStyle05
 70
     0
 40
1.0
 41
1.0
 42
1.0
 50
0.0
 71
     0
  3
MONOTXT
  4
BIGFONT
  0
STYLE
  2
TextStyle06
 70
     0
 40
1.0
 41
1.0
 42
1.0
 50
0.0
 71
     0
  3
MONOTXT
  4
BIGFONT
  0
STYLE
  2
TextStyle07
 70
     0
 40
1.0
 41
1.0
 42
1.0
 50
0.0
 71
     0
  3
MONOTXT
  4
BIGFONT
  0
STYLE
  2
TextStyle08
 70
     0
 40
1.0
 41
1.0
 42
1.0
 50
0.0
 71
     0
  3
MONOTXT
  4
BIGFONT
  0
STYLE
  2
TextStyle09
 70
     0
 40
1.0
 41
1.0
 42
1.0
 50
0.0
 71
     0
  3
MONOTXT
  4
BIGFONT
  0
STYLE
  2
TextStyle10
 70
     0
 40
1.0
 41
1.0
 42
1.0
 50
0.0
 71
     0
  3
MONOTXT
  4
BIGFONT
  0
ENDTAB
  0
ENDSEC
  0
SECTION
  2
BLOCKS
  0
BLOCK
  2
*GRP_0001
 70
    65
 10
0.0
 20
0.0
  0
LINE
  8
型材断面
  6
CONTINUOUS
 10
195.0
 20
133.5
 11
195.0
 21
-133.5
  0
LINE
  8
型材断面
  6
CONTINUOUS
 10
195.0
 20
-133.5
 11
-185.0
 21
-133.5
  0
LINE
  8
型材断面
  6
CONTINUOUS
 10
-185.0
 20
-133.5
 11
-185.0
 21
133.5
  0
LINE
  8
型材断面
  6
CONTINUOUS
 10
195.0
 20
133.5
 11
-185.0
 21
133.5
  0
LINE
  8
型材断面
  6
CONTINUOUS
 10
145.0
 20
-133.5
 11
145.0
 21
-118.5
  0
LINE
  8
型材断面
  6
CONTINUOUS
 10
195.0
 20
-118.5
 11
145.0
 21
-118.5
  0
ENDBLK
  0
BLOCK
  2
*DIM_0002
 70
    65
 10
0.0
 20
0.0
  0
LINE
  8
寸法
  6
BYBLOCK
 62
     0
 10
-95.409657
 20
9.768917
 11
-95.409657
 21
4.783553
  0
LINE
  8
寸法
  6
BYBLOCK
 62
     0
 10
-20.40966
 20
9.76892
 11
-20.40966
 21
4.783553
  0
LINE
  8
寸法
  6
BYBLOCK
 62
     0
 10
-95.409657
 20
4.783553
 11
-20.40966
 21
4.783553
  0
POINT
  8
寸法
 62
     0
 10
-95.409657
 20
4.783553
  0
POINT
  8
寸法
 62
     0
 10
-20.40966
 20
4.783553
  0
TEXT
  7
TextStyle03
  8
寸法
  6
CONTINUOUS
 62
     0
 10
-61.20625
 20
5.15
  1
2250
 40
3.0
 72
     5
 11
-54.64375
 21
5.15
  0
ENDBLK
  0
BLOCK
  2
*DIM_0003
 70
    65
 10
0.0
 20
0.0
  0
LINE
  8
寸法
  6
BYBLOCK
 62
     0
 10
54.590337
 20
9.768917
 11
54.590337
 21
4.783553
  0
LINE
  8
寸法
  6
BYBLOCK
 62
     0
 10
-20.40966
 20
4.783553
 11
54.590337
 21
4.783553
  0
POINT
  8
寸法
 62
     0
 10
54.590337
 20
4.783553
  0
TEXT
  7
TextStyle03
  8
寸法
  6
CONTINUOUS
 62
     0
 10
13.79375
 20
5.15
  1
2250
 40
3.0
 72
     5
 11
20.35625
 21
5.15
  0
ENDBLK
  0
BLOCK
  2
*DIM_0004
 70
    65
 10
0.0
 20
0.0
  0
LINE
  8
寸法
  6
BYBLOCK
 62
     0
 10
72.257007
 20
43.39905
 11
81.98129
 21
43.39905
  0
LINE
  8
寸法
  6
BYBLOCK
 62
     0
 10
74.887138
 20
39.69905
 11
81.98129
 21
39.69905
  0
LINE
  8
寸法
  6
BYBLOCK
 62
     0
 10
81.98129
 20
43.39905
 11
81.98129
 21
39.69905
  0
POINT
  8
寸法
 62
     0
 10
81.98129
 20
43.39905
  0
POINT
  8
寸法
 62
     0
 10
81.98129
 20
39.69905
  0
TEXT
  7
TextStyle03
  8
寸法
  6
CONTINUOUS
 62
     0
 10
81.65
 20
44.4125
  1
111
 40
3.0
 50
90.0
 72
     5
 11
81.65
 21
49.2875
  0
ENDBLK
  0
BLOCK
  2
*DIM_0005
 70
    65
 10
0.0
 20
0.0
  0
LINE
  8
寸法
  6
BYBLOCK
 62
     0
 10
72.257007
 20
13.399045
 11
81.98129
 21
13.399042
  0
LINE
  8
寸法
  6
BYBLOCK
 62
     0
 10
74.887138
 20
17.099045
 11
81.98129
 21
17.099042
  0
LINE
  8
寸法
  6
BYBLOCK
 62
     0
 10
81.98129
 20
13.399042
 11
81.98129
 21
17.099042
  0
POINT
  8
寸法
 62
     0
 10
81.98129
 20
13.399042
  0
POINT
  8
寸法
 62
     0
 10
81.98129
 20
17.099042
  0
TEXT
  7
TextStyle03
  8
寸法
  6
CONTINUOUS
 62
     0
 10
81.65
 20
7.5375
  1
111
 40
3.0
 50
90.0
 72
     5
 11
81.65
 21
12.4125
  0
ENDBLK
  0
BLOCK
  2
*DIM_0006
 70
    65
 10
0.0
 20
0.0
  0
LINE
  8
寸法
  6
BYBLOCK
 62
     0
 10
-115.076325
 20
38.399048
 11
-128.369163
 21
38.399048
  0
LINE
  8
寸法
  6
BYBLOCK
 62
     0
 10
-115.076325
 20
18.399048
 11
-128.369163
 21
18.399048
  0
LINE
  8
寸法
  6
BYBLOCK
 62
     0
 10
-128.369163
 20
38.399048
 11
-128.369163
 21
18.399048
  0
POINT
  8
寸法
 62
     0
 10
-128.369163
 20
38.399048
  0
POINT
  8
寸法
 62
     0
 10
-128.369163
 20
18.399048
  0
TEXT
  7
TextStyle03
  8
寸法
  6
CONTINUOUS
 62
     0
 10
-128.725
 20
25.9625
  1
600
 40
3.0
 50
90.0
 72
     5
 11
-128.725
 21
30.8375
  0
ENDBLK
  0
BLOCK
  2
*DIM_0007
 70
    65
 10
0.0
 20
0.0
  0
LINE
  8
寸法
  6
BYBLOCK
 62
     0
 10
-100.40966
 20
46.399048
 11
-100.40966
 21
75.50712
  0
LINE
  8
寸法
  6
BYBLOCK
 62
     0
 10
-73.742993
 20
46.399048
 11
-73.742993
 21
75.50712
  0
LINE
  8
寸法
  6
BYBLOCK
 62
     0
 10
-100.40966
 20
75.50712
 11
-73.742993
 21
75.50712
  0
POINT
  8
寸法
 62
     0
 10
-100.40966
 20
75.50712
  0
POINT
  8
寸法
 62
     0
 10
-73.742993
 20
75.50712
  0
TEXT
  7
TextStyle03
  8
寸法
  6
CONTINUOUS
 62
     0
 10
-89.5375
 20
75.875
  1
800
 40
3.0
 72
     5
 11
-84.6625
 21
75.875
  0
ENDBLK
  0
BLOCK
  2
*DIM_0008
 70
    65
 10
0.0
 20
0.0
  0
LINE
  8
寸法
  6
BYBLOCK
 62
     0
 10
-47.076328
 20
46.399048
 11
-47.076328
 21
75.50712
  0
LINE
  8
寸法
  6
BYBLOCK
 62
     0
 10
-73.742993
 20
75.50712
 11
-47.076328
 21
75.50712
  0
POINT
  8
寸法
 62
     0
 10
-47.076328
 20
75.50712
  0
TEXT
  7
TextStyle03
  8
寸法
  6
CONTINUOUS
 62
     0
 10
-62.8625
 20
75.875
  1
800
 40
3.0
 72
     5
 11
-57.9875
 21
75.875
  0
ENDBLK
  0
BLOCK
  2
*DIM_0009
 70
    65
 10
0.0
 20
0.0
  0
LINE
  8
寸法
  6
BYBLOCK
 62
     0
 10
-20.40966
 20
46.399048
 11
-20.40966
 21
75.50712
  0
LINE
  8
寸法
  6
BYBLOCK
 62
     0
 10
-47.076328
 20
75.50712
 11
-20.40966
 21
75.50712
  0
POINT
  8
寸法
 62
     0
 10
-20.40966
 20
75.50712
  0
TEXT
  7
TextStyle03
  8
寸法
  6
CONTINUOUS
 62
     0
 10
-36.1875
 20
75.875
  1
800
 40
3.0
 72
     5
 11
-31.3125
 21
75.875
  0
ENDBLK
  0
BLOCK
  2
*DIM_0010
 70
    65
 10
0.0
 20
0.0
  0
LINE
  8
寸法
  6
BYBLOCK
 62
     0
 10
6.257007
 20
46.399048
 11
6.257007
 21
75.50712
  0
LINE
  8
寸法
  6
BYBLOCK
 62
     0
 10
-20.40966
 20
75.50712
 11
6.257007
 21
75.50712
  0
POINT
  8
寸法
 62
     0
 10
6.257007
 20
75.50712
  0
TEXT
  7
TextStyle03
  8
寸法
  6
CONTINUOUS
 62
     0
 10
-9.5375
 20
75.875
  1
800
 40
3.0
 72
     5
 11
-4.6625
 21
75.875
  0
ENDBLK
  0
BLOCK
  2
*DIM_0011
 70
    65
 10
0.0
 20
0.0
  0
LINE
  8
寸法
  6
BYBLOCK
 62
     0
 10
32.923673
 20
46.399048
 11
32.923673
 21
75.50712
  0
LINE
  8
寸法
  6
BYBLOCK
 62
     0
 10
6.257007
 20
75.50712
 11
32.923673
 21
75.50712
  0
POINT
  8
寸法
 62
     0
 10
32.923673
 20
75.50712
  0
TEXT
  7
TextStyle03
  8
寸法
  6
CONTINUOUS
 62
     0
 10
17.1375
 20
75.875
  1
800
 40
3.0
 72
     5
 11
22.0125
 21
75.875
  0
ENDBLK
  0
BLOCK
  2
*DIM_0012
 70
    65
 10
0.0
 20
0.0
  0
LINE
  8
寸法
  6
BYBLOCK
 62
     0
 10
59.59034
 20
46.399048
 11
59.59034
 21
75.50712
  0
LINE
  8
寸法
  6
BYBLOCK
 62
     0
 10
32.923673
 20
75.50712
 11
59.59034
 21
75.50712
  0
POINT
  8
寸法
 62
     0
 10
59.59034
 20
75.50712
  0
TEXT
  7
TextStyle03
  8
寸法
  6
CONTINUOUS
 62
     0
 10
43.8125
 20
75.875
  1
800
 40
3.0
 72
     5
 11
48.6875
 21
75.875
  0
ENDBLK
  0
BLOCK
  2
*DIM_0013
 70
    65
 10
0.0
 20
0.0
  0
LINE
  8
寸法
  6
CONTINUOUS
 10
105.276657
 20
46.162233
 11
105.276657
 21
43.399048
  0
POINT
  8
寸法
 10
105.276657
 20
46.162233
  0
POINT
  8
寸法
 10
105.276657
 20
43.399048
  0
TEXT
  7
TextStyle03
  8
寸法
  6
CONTINUOUS
 10
106.65
 20
47.24375
  1
82.9
 40
3.0
 50
90.0
 72
     5
 11
106.65
 21
53.80625
  0
ENDBLK
  0
BLOCK
  2
*DIM_0014
 70
    65
 10
0.0
 20
0.0
  0
LINE
  8
寸法
  6
CONTINUOUS
 10
105.276657
 20
13.399048
 11
105.276657
 21
10.63586
  0
POINT
  8
寸法
 10
105.276657
 20
13.399048
  0
POINT
  8
寸法
 10
105.276657
 20
10.63586
  0
TEXT
  7
TextStyle03
  8
寸法
  6
CONTINUOUS
 10
106.65
 20
3.01875
  1
82.9
 40
3.0
 50
90.0
 72
     5
 11
106.65
 21
9.58125
  0
ENDBLK
  0
BLOCK
  2
*DIM_0015
 70
    65
 10
0.0
 20
0.0
  0
LINE
  8
寸法
  6
CONTINUOUS
 10
105.276657
 20
43.399048
 11
105.276657
 21
13.399048
  0
POINT
  8
寸法
 10
105.276657
 20
43.399048
  0
POINT
  8
寸法
 10
105.276657
 20
13.399048
  0
TEXT
  7
TextStyle03
  8
寸法
  6
CONTINUOUS
 10
104.85
 20
17.525
  1
呼称寸法　900
 40
3.0
 50
90.0
 72
     5
 11
104.85
 21
39.275
  0
ENDBLK
  0
BLOCK
  2
*DIM_0016
 70
    65
 10
0.0
 20
0.0
  0
LINE
  8
寸法
  6
CONTINUOUS
 10
-112.076332
 20
-22.024302
 11
-114.839665
 21
-22.024302
  0
POINT
  8
寸法
 10
-112.076332
 20
-22.024302
  0
POINT
  8
寸法
 10
-114.839665
 20
-22.024302
  0
TEXT
  7
TextStyle03
  8
寸法
  6
CONTINUOUS
 10
-119.43125
 20
-21.1
  1
82.9
 40
3.0
 72
     5
 11
-112.86875
 21
-21.1
  0
ENDBLK
  0
BLOCK
  2
*DIM_0017
 70
    65
 10
0.0
 20
0.0
  0
LINE
  8
寸法
  6
CONTINUOUS
 10
74.020342
 20
-22.024302
 11
71.257007
 21
-22.024302
  0
POINT
  8
寸法
 10
74.020342
 20
-22.024302
  0
POINT
  8
寸法
 10
71.257007
 20
-22.024302
  0
TEXT
  7
TextStyle03
  8
寸法
  6
CONTINUOUS
 10
72.24375
 20
-21.15
  1
82.9
 40
3.0
 72
     5
 11
78.80625
 21
-21.15
  0
ENDBLK
  0
BLOCK
  2
*DIM_0018
 70
    65
 10
0.0
 20
0.0
  0
LINE
  8
寸法
  6
CONTINUOUS
 10
-112.076332
 20
-22.024302
 11
71.257
 21
-22.024302
  0
POINT
  8
寸法
 10
-112.076332
 20
-22.024302
  0
POINT
  8
寸法
 10
71.257
 20
-22.024302
  0
TEXT
  7
TextStyle03
  8
寸法
  6
CONTINUOUS
 10
-32.14375
 20
-21.65
  1
呼称寸法　5500
 40
3.0
 72
     5
 11
-8.70625
 21
-21.65
  0
ENDBLK
  0
BLOCK
  2
*DIM_0019
 70
    65
 10
0.0
 20
0.0
  0
LINE
  8
寸法
  6
CONTINUOUS
 10
166.343563
 20
-54.859958
 11
130.61023
 21
-54.859958
  0
POINT
  8
寸法
 10
166.343563
 20
-54.859958
  0
POINT
  8
寸法
 10
130.61023
 20
-54.859958
  0
TEXT
  7
TextStyle03
  8
寸法
  6
CONTINUOUS
 10
145.19375
 20
-54.525
  1
1072
 40
3.0
 72
     5
 11
151.75625
 21
-54.525
  0
ENDBLK
  0
BLOCK
  2
*GRP_0020
 70
    65
 10
0.0
 20
0.0
  0
LINE
  8
補助線
  6
BYBLOCK
 62
    64
 10
-108.67925
 20
-84.08889
 11
-108.806735
 21
-84.19625
  0
LINE
  8
補助線
  6
BYBLOCK
 62
    64
 10
-108.796673
 20
-84.078825
 11
-108.689312
 21
-84.206312
  0
LINE
  8
補助線
  6
BYBLOCK
 62
    64
 10
-100.188832
 20
-76.938868
 11
-100.316317
 21
-77.046223
  0
LINE
  8
補助線
  6
BYBLOCK
 62
    64
 10
-100.306255
 20
-76.928802
 11
-100.198895
 21
-77.056285
  0
LINE
  8
補助線
  6
BYBLOCK
 62
    64
 10
-91.825897
 20
-69.896198
 11
-91.698415
 21
-69.78884
  0
LINE
  8
補助線
  6
BYBLOCK
 62
    64
 10
-91.815838
 20
-69.778775
 11
-91.708478
 21
-69.906262
  0
LINE
  8
型材断面
  6
CONTINUOUS
 10
-109.534747
 20
-83.719867
 11
-109.595125
 21
-84.424392
  0
LINE
  8
型材断面
  6
CONTINUOUS
 10
-109.595125
 20
-84.424392
 11
-109.165693
 21
-84.934328
  0
LINE
  8
型材断面
  6
CONTINUOUS
 10
-109.165693
 20
-84.934328
 11
-108.461168
 21
-84.994705
  0
LINE
  8
型材断面
  6
CONTINUOUS
 10
-92.04398
 20
-68.990387
 11
-91.339455
 21
-69.050765
  0
LINE
  8
型材断面
  6
CONTINUOUS
 10
-91.339455
 20
-69.050765
 11
-90.910023
 21
-69.5607
  0
LINE
  8
型材断面
  6
CONTINUOUS
 10
-90.910023
 20
-69.5607
 11
-90.9704
 21
-70.265225
  0
LINE
  8
型材断面
  6
CONTINUOUS
 10
-109.534747
 20
-83.719867
 11
-92.04398
 21
-68.990387
  0
LINE
  8
型材断面
  6
CONTINUOUS
 10
-108.461168
 20
-84.994705
 11
-90.9704
 21
-70.265225
  0
CIRCLE
  8
ボルト／ビス
  6
CONTINUOUS
 10
-108.742993
 20
-84.14257
 40
0.250185
  0
CIRCLE
  8
ボルト／ビス
  6
CONTINUOUS
 10
-108.742993
 20
-84.14257
 40
0.301025
  0
LINE
  8
ボルト／ビス
  6
CONTINUOUS
 62
    64
 10
-108.9893
 20
-84.186453
 11
-108.904147
 21
-83.951205
  0
LINE
  8
ボルト／ビス
  6
CONTINUOUS
 62
    64
 10
-108.65784
 20
-83.90732
 11
-108.904147
 21
-83.951205
  0
LINE
  8
ボルト／ビス
  6
CONTINUOUS
 62
    64
 10
-108.828145
 20
-84.37782
 11
-108.581837
 21
-84.333935
  0
LINE
  8
ボルト／ビス
  6
CONTINUOUS
 62
    64
 10
-108.496685
 20
-84.098687
 11
-108.581837
 21
-84.333935
  0
LINE
  8
ボルト／ビス
  6
CONTINUOUS
 62
    64
 10
-108.9893
 20
-84.186453
 11
-108.828145
 21
-84.37782
  0
LINE
  8
ボルト／ビス
  6
CONTINUOUS
 62
    64
 10
-108.65784
 20
-83.90732
 11
-108.496685
 21
-84.098687
  0
CIRCLE
  8
ボルト／ビス
  6
CONTINUOUS
 62
    64
 10
-108.742993
 20
-84.14257
 40
0.216668
  0
CIRCLE
  8
ボルト／ビス
  6
CONTINUOUS
 10
-100.252575
 20
-76.992545
 40
0.250185
  0
CIRCLE
  8
ボルト／ビス
  6
CONTINUOUS
 10
-100.252575
 20
-76.992545
 40
0.301025
  0
LINE
  8
ボルト／ビス
  6
CONTINUOUS
 62
    64
 10
-100.498883
 20
-77.036427
 11
-100.41373
 21
-76.801177
  0
LINE
  8
ボルト／ビス
  6
CONTINUOUS
 62
    64
 10
-100.167422
 20
-76.757295
 11
-100.41373
 21
-76.801177
  0
LINE
  8
ボルト／ビス
  6
CONTINUOUS
 62
    64
 10
-100.337727
 20
-77.227795
 11
-100.091417
 21
-77.183913
  0
LINE
  8
ボルト／ビス
  6
CONTINUOUS
 62
    64
 10
-100.006268
 20
-76.948665
 11
-100.091417
 21
-77.183913
  0
LINE
  8
ボルト／ビス
  6
CONTINUOUS
 62
    64
 10
-100.498883
 20
-77.036427
 11
-100.337727
 21
-77.227795
  0
LINE
  8
ボルト／ビス
  6
CONTINUOUS
 62
    64
 10
-100.167422
 20
-76.757295
 11
-100.006268
 21
-76.948665
  0
CIRCLE
  8
ボルト／ビス
  6
CONTINUOUS
 62
    64
 10
-100.252575
 20
-76.992545
 40
0.216668
  0
CIRCLE
  8
ボルト／ビス
  6
CONTINUOUS
 10
-91.762155
 20
-69.84252
 40
0.250185
  0
CIRCLE
  8
ボルト／ビス
  6
CONTINUOUS
 10
-91.762155
 20
-69.84252
 40
0.301025
  0
LINE
  8
ボルト／ビス
  6
CONTINUOUS
 62
    64
 10
-91.677002
 20
-69.60727
 11
-91.923312
 21
-69.651155
  0
LINE
  8
ボルト／ビス
  6
CONTINUOUS
 62
    64
 10
-92.008465
 20
-69.886402
 11
-91.923312
 21
-69.651155
  0
LINE
  8
ボルト／ビス
  6
CONTINUOUS
 62
    64
 10
-91.51585
 20
-69.798638
 11
-91.601
 21
-70.033885
  0
LINE
  8
ボルト／ビス
  6
CONTINUOUS
 62
    64
 10
-91.84731
 20
-70.07777
 11
-91.601
 21
-70.033885
  0
LINE
  8
ボルト／ビス
  6
CONTINUOUS
 62
    64
 10
-91.677002
 20
-69.60727
 11
-91.51585
 21
-69.798638
  0
LINE
  8
ボルト／ビス
  6
CONTINUOUS
 62
    64
 10
-92.008465
 20
-69.886402
 11
-91.84731
 21
-70.07777
  0
CIRCLE
  8
ボルト／ビス
  6
CONTINUOUS
 62
    64
 10
-91.762155
 20
-69.84252
 40
0.216668
  0
ENDBLK
  0
BLOCK
  2
*GRP_0021
 70
    65
 10
0.0
 20
0.0
  0
LINE
  8
補助線
  6
BYBLOCK
 62
    64
 10
-91.8259
 20
-84.08889
 11
-91.698415
 21
-84.19625
  0
LINE
  8
補助線
  6
BYBLOCK
 62
    64
 10
-91.708478
 20
-84.078825
 11
-91.815838
 21
-84.206312
  0
LINE
  8
補助線
  6
BYBLOCK
 62
    64
 10
-100.316317
 20
-76.938868
 11
-100.188832
 21
-77.046223
  0
LINE
  8
補助線
  6
BYBLOCK
 62
    64
 10
-100.198895
 20
-76.928802
 11
-100.306255
 21
-77.056285
  0
LINE
  8
補助線
  6
BYBLOCK
 62
    64
 10
-108.679252
 20
-69.896198
 11
-108.806735
 21
-69.78884
  0
LINE
  8
補助線
  6
BYBLOCK
 62
    64
 10
-108.689312
 20
-69.778775
 11
-108.796673
 21
-69.906262
  0
LINE
  8
型材断面
  6
CONTINUOUS
 10
-90.970403
 20
-83.719867
 11
-90.910025
 21
-84.424392
  0
LINE
  8
型材断面
  6
CONTINUOUS
 10
-90.910025
 20
-84.424392
 11
-91.339458
 21
-84.934328
  0
LINE
  8
型材断面
  6
CONTINUOUS
 10
-91.339458
 20
-84.934328
 11
-92.043983
 21
-84.994705
  0
LINE
  8
型材断面
  6
CONTINUOUS
 10
-108.46117
 20
-68.990387
 11
-109.165695
 21
-69.050765
  0
LINE
  8
型材断面
  6
CONTINUOUS
 10
-109.165695
 20
-69.050765
 11
-109.595128
 21
-69.5607
  0
LINE
  8
型材断面
  6
CONTINUOUS
 10
-109.595128
 20
-69.5607
 11
-109.53475
 21
-70.265225
  0
LINE
  8
型材断面
  6
CONTINUOUS
 10
-90.970403
 20
-83.719867
 11
-108.46117
 21
-68.990387
  0
LINE
  8
型材断面
  6
CONTINUOUS
 10
-92.043983
 20
-84.994705
 11
-109.53475
 21
-70.265225
  0
CIRCLE
  8
ボルト／ビス
  6
CONTINUOUS
 10
-91.762158
 20
-84.14257
 40
0.250185
  0
CIRCLE
  8
ボルト／ビス
  6
CONTINUOUS
 10
-91.762158
 20
-84.14257
 40
0.301025
  0
LINE
  8
ボルト／ビス
  6
CONTINUOUS
 62
    64
 10
-91.51585
 20
-84.186453
 11
-91.601002
 21
-83.951205
  0
LINE
  8
ボルト／ビス
  6
CONTINUOUS
 62
    64
 10
-91.84731
 20
-83.90732
 11
-91.601002
 21
-83.951205
  0
LINE
  8
ボルト／ビス
  6
CONTINUOUS
 62
    64
 10
-91.677005
 20
-84.37782
 11
-91.923312
 21
-84.333935
  0
LINE
  8
ボルト／ビス
  6
CONTINUOUS
 62
    64
 10
-92.008465
 20
-84.098687
 11
-91.923312
 21
-84.333935
  0
LINE
  8
ボルト／ビス
  6
CONTINUOUS
 62
    64
 10
-91.51585
 20
-84.186453
 11
-91.677005
 21
-84.37782
  0
LINE
  8
ボルト／ビス
  6
CONTINUOUS
 62
    64
 10
-91.84731
 20
-83.90732
 11
-92.008465
 21
-84.098687
  0
CIRCLE
  8
ボルト／ビス
  6
CONTINUOUS
 62
    64
 10
-91.762158
 20
-84.14257
 40
0.216668
  0
CIRCLE
  8
ボルト／ビス
  6
CONTINUOUS
 10
-100.252575
 20
-76.992545
 40
0.250185
  0
CIRCLE
  8
ボルト／ビス
  6
CONTINUOUS
 10
-100.252575
 20
-76.992545
 40
0.301025
  0
LINE
  8
ボルト／ビス
  6
CONTINUOUS
 62
    64
 10
-100.006268
 20
-77.036427
 11
-100.09142
 21
-76.801177
  0
LINE
  8
ボルト／ビス
  6
CONTINUOUS
 62
    64
 10
-100.337727
 20
-76.757295
 11
-100.09142
 21
-76.801177
  0
LINE
  8
ボルト／ビス
  6
CONTINUOUS
 62
    64
 10
-100.167422
 20
-77.227795
 11
-100.413732
 21
-77.183913
  0
LINE
  8
ボルト／ビス
  6
CONTINUOUS
 62
    64
 10
-100.498883
 20
-76.948665
 11
-100.413732
 21
-77.183913
  0
LINE
  8
ボルト／ビス
  6
CONTINUOUS
 62
    64
 10
-100.006268
 20
-77.036427
 11
-100.167422
 21
-77.227795
  0
LINE
  8
ボルト／ビス
  6
CONTINUOUS
 62
    64
 10
-100.337727
 20
-76.757295
 11
-100.498883
 21
-76.948665
  0
CIRCLE
  8
ボルト／ビス
  6
CONTINUOUS
 62
    64
 10
-100.252575
 20
-76.992545
 40
0.216668
  0
CIRCLE
  8
ボルト／ビス
  6
CONTINUOUS
 10
-108.742995
 20
-69.84252
 40
0.250185
  0
CIRCLE
  8
ボルト／ビス
  6
CONTINUOUS
 10
-108.742995
 20
-69.84252
 40
0.301025
  0
LINE
  8
ボルト／ビス
  6
CONTINUOUS
 62
    64
 10
-108.828147
 20
-69.60727
 11
-108.581837
 21
-69.651155
  0
LINE
  8
ボルト／ビス
  6
CONTINUOUS
 62
    64
 10
-108.496685
 20
-69.886402
 11
-108.581837
 21
-69.651155
  0
LINE
  8
ボルト／ビス
  6
CONTINUOUS
 62
    64
 10
-108.9893
 20
-69.798638
 11
-108.90415
 21
-70.033885
  0
LINE
  8
ボルト／ビス
  6
CONTINUOUS
 62
    64
 10
-108.65784
 20
-70.07777
 11
-108.90415
 21
-70.033885
  0
LINE
  8
ボルト／ビス
  6
CONTINUOUS
 62
    64
 10
-108.828147
 20
-69.60727
 11
-108.9893
 21
-69.798638
  0
LINE
  8
ボルト／ビス
  6
CONTINUOUS
 62
    64
 10
-108.496685
 20
-69.886402
 11
-108.65784
 21
-70.07777
  0
CIRCLE
  8
ボルト／ビス
  6
CONTINUOUS
 62
    64
 10
-108.742995
 20
-69.84252
 40
0.216668
  0
ENDBLK
  0
BLOCK
  2
*GRP_0022
 70
    65
 10
0.0
 20
0.0
  0
LINE
  8
補助線
  6
BYBLOCK
 62
    64
 10
67.859935
 20
-84.08889
 11
67.98742
 21
-84.19625
  0
LINE
  8
補助線
  6
BYBLOCK
 62
    64
 10
67.977357
 20
-84.078825
 11
67.869997
 21
-84.206312
  0
LINE
  8
補助線
  6
BYBLOCK
 62
    64
 10
59.369518
 20
-76.938868
 11
59.497003
 21
-77.046223
  0
LINE
  8
補助線
  6
BYBLOCK
 62
    64
 10
59.48694
 20
-76.928802
 11
59.37958
 21
-77.056285
  0
LINE
  8
補助線
  6
BYBLOCK
 62
    64
 10
51.006582
 20
-69.896198
 11
50.8791
 21
-69.78884
  0
LINE
  8
補助線
  6
BYBLOCK
 62
    64
 10
50.996522
 20
-69.778775
 11
50.889163
 21
-69.906262
  0
LINE
  8
型材断面
  6
CONTINUOUS
 10
68.715432
 20
-83.719867
 11
68.77581
 21
-84.424392
  0
LINE
  8
型材断面
  6
CONTINUOUS
 10
68.77581
 20
-84.424392
 11
68.346378
 21
-84.934328
  0
LINE
  8
型材断面
  6
CONTINUOUS
 10
68.346378
 20
-84.934328
 11
67.641852
 21
-84.994705
  0
LINE
  8
型材断面
  6
CONTINUOUS
 10
51.224665
 20
-68.990387
 11
50.52014
 21
-69.050765
  0
LINE
  8
型材断面
  6
CONTINUOUS
 10
50.52014
 20
-69.050765
 11
50.090707
 21
-69.5607
  0
LINE
  8
型材断面
  6
CONTINUOUS
 10
50.090707
 20
-69.5607
 11
50.151085
 21
-70.265225
  0
LINE
  8
型材断面
  6
CONTINUOUS
 10
68.715432
 20
-83.719867
 11
51.224665
 21
-68.990387
  0
LINE
  8
型材断面
  6
CONTINUOUS
 10
67.641852
 20
-84.994705
 11
50.151085
 21
-70.265225
  0
CIRCLE
  8
ボルト／ビス
  6
CONTINUOUS
 10
67.923677
 20
-84.14257
 40
0.250185
  0
CIRCLE
  8
ボルト／ビス
  6
CONTINUOUS
 10
67.923677
 20
-84.14257
 40
0.301025
  0
LINE
  8
ボルト／ビス
  6
CONTINUOUS
 62
    64
 10
68.169985
 20
-84.186453
 11
68.084833
 21
-83.951205
  0
LINE
  8
ボルト／ビス
  6
CONTINUOUS
 62
    64
 10
67.838525
 20
-83.90732
 11
68.084833
 21
-83.951205
  0
LINE
  8
ボルト／ビス
  6
CONTINUOUS
 62
    64
 10
68.00883
 20
-84.37782
 11
67.762522
 21
-84.333935
  0
LINE
  8
ボルト／ビス
  6
CONTINUOUS
 62
    64
 10
67.67737
 20
-84.098687
 11
67.762522
 21
-84.333935
  0
LINE
  8
ボルト／ビス
  6
CONTINUOUS
 62
    64
 10
68.169985
 20
-84.186453
 11
68.00883
 21
-84.37782
  0
LINE
  8
ボルト／ビス
  6
CONTINUOUS
 62
    64
 10
67.838525
 20
-83.90732
 11
67.67737
 21
-84.098687
  0
CIRCLE
  8
ボルト／ビス
  6
CONTINUOUS
 62
    64
 10
67.923677
 20
-84.14257
 40
0.216668
  0
CIRCLE
  8
ボルト／ビス
  6
CONTINUOUS
 10
59.43326
 20
-76.992545
 40
0.250185
  0
CIRCLE
  8
ボルト／ビス
  6
CONTINUOUS
 10
59.43326
 20
-76.992545
 40
0.301025
  0
LINE
  8
ボルト／ビス
  6
CONTINUOUS
 62
    64
 10
59.679567
 20
-77.036427
 11
59.594415
 21
-76.801177
  0
LINE
  8
ボルト／ビス
  6
CONTINUOUS
 62
    64
 10
59.348107
 20
-76.757295
 11
59.594415
 21
-76.801177
  0
LINE
  8
ボルト／ビス
  6
CONTINUOUS
 62
    64
 10
59.518412
 20
-77.227795
 11
59.272103
 21
-77.183913
  0
LINE
  8
ボルト／ビス
  6
CONTINUOUS
 62
    64
 10
59.186953
 20
-76.948665
 11
59.272103
 21
-77.183913
  0
LINE
  8
ボルト／ビス
  6
CONTINUOUS
 62
    64
 10
59.679567
 20
-77.036427
 11
59.518412
 21
-77.227795
  0
LINE
  8
ボルト／ビス
  6
CONTINUOUS
 62
    64
 10
59.348107
 20
-76.757295
 11
59.186953
 21
-76.948665
  0
CIRCLE
  8
ボルト／ビス
  6
CONTINUOUS
 62
    64
 10
59.43326
 20
-76.992545
 40
0.216668
  0
CIRCLE
  8
ボルト／ビス
  6
CONTINUOUS
 10
50.94284
 20
-69.84252
 40
0.250185
  0
CIRCLE
  8
ボルト／ビス
  6
CONTINUOUS
 10
50.94284
 20
-69.84252
 40
0.301025
  0
LINE
  8
ボルト／ビス
  6
CONTINUOUS
 62
    64
 10
50.857688
 20
-69.60727
 11
51.103997
 21
-69.651155
  0
LINE
  8
ボルト／ビス
  6
CONTINUOUS
 62
    64
 10
51.18915
 20
-69.886402
 11
51.103997
 21
-69.651155
  0
LINE
  8
ボルト／ビス
  6
CONTINUOUS
 62
    64
 10
50.696535
 20
-69.798638
 11
50.781685
 21
-70.033885
  0
LINE
  8
ボルト／ビス
  6
CONTINUOUS
 62
    64
 10
51.027995
 20
-70.07777
 11
50.781685
 21
-70.033885
  0
LINE
  8
ボルト／ビス
  6
CONTINUOUS
 62
    64
 10
50.857688
 20
-69.60727
 11
50.696535
 21
-69.798638
  0
LINE
  8
ボルト／ビス
  6
CONTINUOUS
 62
    64
 10
51.18915
 20
-69.886402
 11
51.027995
 21
-70.07777
  0
CIRCLE
  8
ボルト／ビス
  6
CONTINUOUS
 62
    64
 10
50.94284
 20
-69.84252
 40
0.216668
  0
ENDBLK
  0
BLOCK
  2
*GRP_0023
 70
    65
 10
0.0
 20
0.0
  0
LINE
  8
補助線
  6
BYBLOCK
 62
    64
 10
51.006585
 20
-84.08889
 11
50.8791
 21
-84.19625
  0
LINE
  8
補助線
  6
BYBLOCK
 62
    64
 10
50.889163
 20
-84.078825
 11
50.996522
 21
-84.206312
  0
LINE
  8
補助線
  6
BYBLOCK
 62
    64
 10
59.497003
 20
-76.938868
 11
59.369518
 21
-77.046223
  0
LINE
  8
補助線
  6
BYBLOCK
 62
    64
 10
59.37958
 20
-76.928802
 11
59.48694
 21
-77.056285
  0
LINE
  8
補助線
  6
BYBLOCK
 62
    64
 10
67.859937
 20
-69.896198
 11
67.98742
 21
-69.78884
  0
LINE
  8
補助線
  6
BYBLOCK
 62
    64
 10
67.869997
 20
-69.778775
 11
67.977357
 21
-69.906262
  0
LINE
  8
型材断面
  6
CONTINUOUS
 10
50.151087
 20
-83.719867
 11
50.09071
 21
-84.424392
  0
LINE
  8
型材断面
  6
CONTINUOUS
 10
50.09071
 20
-84.424392
 11
50.520142
 21
-84.934328
  0
LINE
  8
型材断面
  6
CONTINUOUS
 10
50.520142
 20
-84.934328
 11
51.224668
 21
-84.994705
  0
LINE
  8
型材断面
  6
CONTINUOUS
 10
67.641855
 20
-68.990387
 11
68.34638
 21
-69.050765
  0
LINE
  8
型材断面
  6
CONTINUOUS
 10
68.34638
 20
-69.050765
 11
68.775813
 21
-69.5607
  0
LINE
  8
型材断面
  6
CONTINUOUS
 10
68.775813
 20
-69.5607
 11
68.715435
 21
-70.265225
  0
LINE
  8
型材断面
  6
CONTINUOUS
 10
50.151087
 20
-83.719867
 11
67.641855
 21
-68.990387
  0
LINE
  8
型材断面
  6
CONTINUOUS
 10
51.224668
 20
-84.994705
 11
68.715435
 21
-70.265225
  0
CIRCLE
  8
ボルト／ビス
  6
CONTINUOUS
 10
50.942843
 20
-84.14257
 40
0.250185
  0
CIRCLE
  8
ボルト／ビス
  6
CONTINUOUS
 10
50.942843
 20
-84.14257
 40
0.301025
  0
LINE
  8
ボルト／ビス
  6
CONTINUOUS
 62
    64
 10
50.696535
 20
-84.186453
 11
50.781688
 21
-83.951205
  0
LINE
  8
ボルト／ビス
  6
CONTINUOUS
 62
    64
 10
51.027995
 20
-83.90732
 11
50.781688
 21
-83.951205
  0
LINE
  8
ボルト／ビス
  6
CONTINUOUS
 62
    64
 10
50.85769
 20
-84.37782
 11
51.103997
 21
-84.333935
  0
LINE
  8
ボルト／ビス
  6
CONTINUOUS
 62
    64
 10
51.18915
 20
-84.098687
 11
51.103997
 21
-84.333935
  0
LINE
  8
ボルト／ビス
  6
CONTINUOUS
 62
    64
 10
50.696535
 20
-84.186453
 11
50.85769
 21
-84.37782
  0
LINE
  8
ボルト／ビス
  6
CONTINUOUS
 62
    64
 10
51.027995
 20
-83.90732
 11
51.18915
 21
-84.098687
  0
CIRCLE
  8
ボルト／ビス
  6
CONTINUOUS
 62
    64
 10
50.942843
 20
-84.14257
 40
0.216668
  0
CIRCLE
  8
ボルト／ビス
  6
CONTINUOUS
 10
59.43326
 20
-76.992545
 40
0.250185
  0
CIRCLE
  8
ボルト／ビス
  6
CONTINUOUS
 10
59.43326
 20
-76.992545
 40
0.301025
  0
LINE
  8
ボルト／ビス
  6
CONTINUOUS
 62
    64
 10
59.186953
 20
-77.036427
 11
59.272105
 21
-76.801177
  0
LINE
  8
ボルト／ビス
  6
CONTINUOUS
 62
    64
 10
59.518412
 20
-76.757295
 11
59.272105
 21
-76.801177
  0
LINE
  8
ボルト／ビス
  6
CONTINUOUS
 62
    64
 10
59.348107
 20
-77.227795
 11
59.594418
 21
-77.183913
  0
LINE
  8
ボルト／ビス
  6
CONTINUOUS
 62
    64
 10
59.679567
 20
-76.948665
 11
59.594418
 21
-77.183913
  0
LINE
  8
ボルト／ビス
  6
CONTINUOUS
 62
    64
 10
59.186953
 20
-77.036427
 11
59.348107
 21
-77.227795
  0
LINE
  8
ボルト／ビス
  6
CONTINUOUS
 62
    64
 10
59.518412
 20
-76.757295
 11
59.679567
 21
-76.948665
  0
CIRCLE
  8
ボルト／ビス
  6
CONTINUOUS
 62
    64
 10
59.43326
 20
-76.992545
 40
0.216668
  0
CIRCLE
  8
ボルト／ビス
  6
CONTINUOUS
 10
67.92368
 20
-69.84252
 40
0.250185
  0
CIRCLE
  8
ボルト／ビス
  6
CONTINUOUS
 10
67.92368
 20
-69.84252
 40
0.301025
  0
LINE
  8
ボルト／ビス
  6
CONTINUOUS
 62
    64
 10
68.008833
 20
-69.60727
 11
67.762522
 21
-69.651155
  0
LINE
  8
ボルト／ビス
  6
CONTINUOUS
 62
    64
 10
67.67737
 20
-69.886402
 11
67.762522
 21
-69.651155
  0
LINE
  8
ボルト／ビス
  6
CONTINUOUS
 62
    64
 10
68.169985
 20
-69.798638
 11
68.084835
 21
-70.033885
  0
LINE
  8
ボルト／ビス
  6
CONTINUOUS
 62
    64
 10
67.838525
 20
-70.07777
 11
68.084835
 21
-70.033885
  0
LINE
  8
ボルト／ビス
  6
CONTINUOUS
 62
    64
 10
68.008833
 20
-69.60727
 11
68.169985
 21
-69.798638
  0
LINE
  8
ボルト／ビス
  6
CONTINUOUS
 62
    64
 10
67.67737
 20
-69.886402
 11
67.838525
 21
-70.07777
  0
CIRCLE
  8
ボルト／ビス
  6
CONTINUOUS
 62
    64
 10
67.92368
 20
-69.84252
 40
0.216668
  0
ENDBLK
  0
BLOCK
  2
*GRP_0024
 70
    65
 10
0.0
 20
0.0
  0
LINE
  8
補助線
  6
BYBLOCK
 62
    64
 10
-11.982982
 20
-84.08889
 11
-11.855498
 21
-84.19625
  0
LINE
  8
補助線
  6
BYBLOCK
 62
    64
 10
-11.86556
 20
-84.078825
 11
-11.97292
 21
-84.206312
  0
LINE
  8
補助線
  6
BYBLOCK
 62
    64
 10
-20.4734
 20
-76.938868
 11
-20.345915
 21
-77.046223
  0
LINE
  8
補助線
  6
BYBLOCK
 62
    64
 10
-20.355977
 20
-76.928802
 11
-20.463338
 21
-77.056285
  0
LINE
  8
補助線
  6
BYBLOCK
 62
    64
 10
-28.836335
 20
-69.896198
 11
-28.963818
 21
-69.78884
  0
LINE
  8
補助線
  6
BYBLOCK
 62
    64
 10
-28.846395
 20
-69.778775
 11
-28.953755
 21
-69.906262
  0
LINE
  8
型材断面
  6
CONTINUOUS
 10
-11.127485
 20
-83.719867
 11
-11.067108
 21
-84.424392
  0
LINE
  8
型材断面
  6
CONTINUOUS
 10
-11.067108
 20
-84.424392
 11
-11.49654
 21
-84.934328
  0
LINE
  8
型材断面
  6
CONTINUOUS
 10
-11.49654
 20
-84.934328
 11
-12.201065
 21
-84.994705
  0
LINE
  8
型材断面
  6
CONTINUOUS
 10
-28.618253
 20
-68.990387
 11
-29.322778
 21
-69.050765
  0
LINE
  8
型材断面
  6
CONTINUOUS
 10
-29.322778
 20
-69.050765
 11
-29.75221
 21
-69.5607
  0
LINE
  8
型材断面
  6
CONTINUOUS
 10
-29.75221
 20
-69.5607
 11
-29.691832
 21
-70.265225
  0
LINE
  8
型材断面
  6
CONTINUOUS
 10
-11.127485
 20
-83.719867
 11
-28.618253
 21
-68.990387
  0
LINE
  8
型材断面
  6
CONTINUOUS
 10
-12.201065
 20
-84.994705
 11
-29.691832
 21
-70.265225
  0
CIRCLE
  8
ボルト／ビス
  6
CONTINUOUS
 10
-11.91924
 20
-84.14257
 40
0.250185
  0
CIRCLE
  8
ボルト／ビス
  6
CONTINUOUS
 10
-11.91924
 20
-84.14257
 40
0.301025
  0
LINE
  8
ボルト／ビス
  6
CONTINUOUS
 62
    64
 10
-11.672933
 20
-84.186453
 11
-11.758085
 21
-83.951205
  0
LINE
  8
ボルト／ビス
  6
CONTINUOUS
 62
    64
 10
-12.004392
 20
-83.90732
 11
-11.758085
 21
-83.951205
  0
LINE
  8
ボルト／ビス
  6
CONTINUOUS
 62
    64
 10
-11.834087
 20
-84.37782
 11
-12.080395
 21
-84.333935
  0
LINE
  8
ボルト／ビス
  6
CONTINUOUS
 62
    64
 10
-12.165547
 20
-84.098687
 11
-12.080395
 21
-84.333935
  0
LINE
  8
ボルト／ビス
  6
CONTINUOUS
 62
    64
 10
-11.672933
 20
-84.186453
 11
-11.834087
 21
-84.37782
  0
LINE
  8
ボルト／ビス
  6
CONTINUOUS
 62
    64
 10
-12.004392
 20
-83.90732
 11
-12.165547
 21
-84.098687
  0
CIRCLE
  8
ボルト／ビス
  6
CONTINUOUS
 62
    64
 10
-11.91924
 20
-84.14257
 40
0.216668
  0
CIRCLE
  8
ボルト／ビス
  6
CONTINUOUS
 10
-20.409657
 20
-76.992545
 40
0.250185
  0
CIRCLE
  8
ボルト／ビス
  6
CONTINUOUS
 10
-20.409657
 20
-76.992545
 40
0.301025
  0
LINE
  8
ボルト／ビス
  6
CONTINUOUS
 62
    64
 10
-20.16335
 20
-77.036427
 11
-20.248502
 21
-76.801177
  0
LINE
  8
ボルト／ビス
  6
CONTINUOUS
 62
    64
 10
-20.49481
 20
-76.757295
 11
-20.248502
 21
-76.801177
  0
LINE
  8
ボルト／ビス
  6
CONTINUOUS
 62
    64
 10
-20.324505
 20
-77.227795
 11
-20.570815
 21
-77.183913
  0
LINE
  8
ボルト／ビス
  6
CONTINUOUS
 62
    64
 10
-20.655965
 20
-76.948665
 11
-20.570815
 21
-77.183913
  0
LINE
  8
ボルト／ビス
  6
CONTINUOUS
 62
    64
 10
-20.16335
 20
-77.036427
 11
-20.324505
 21
-77.227795
  0
LINE
  8
ボルト／ビス
  6
CONTINUOUS
 62
    64
 10
-20.49481
 20
-76.757295
 11
-20.655965
 21
-76.948665
  0
CIRCLE
  8
ボルト／ビス
  6
CONTINUOUS
 62
    64
 10
-20.409657
 20
-76.992545
 40
0.216668
  0
CIRCLE
  8
ボルト／ビス
  6
CONTINUOUS
 10
-28.900078
 20
-69.84252
 40
0.250185
  0
CIRCLE
  8
ボルト／ビス
  6
CONTINUOUS
 10
-28.900078
 20
-69.84252
 40
0.301025
  0
LINE
  8
ボルト／ビス
  6
CONTINUOUS
 62
    64
 10
-28.98523
 20
-69.60727
 11
-28.73892
 21
-69.651155
  0
LINE
  8
ボルト／ビス
  6
CONTINUOUS
 62
    64
 10
-28.653767
 20
-69.886402
 11
-28.73892
 21
-69.651155
  0
LINE
  8
ボルト／ビス
  6
CONTINUOUS
 62
    64
 10
-29.146382
 20
-69.798638
 11
-29.061233
 21
-70.033885
  0
LINE
  8
ボルト／ビス
  6
CONTINUOUS
 62
    64
 10
-28.814923
 20
-70.07777
 11
-29.061233
 21
-70.033885
  0
LINE
  8
ボルト／ビス
  6
CONTINUOUS
 62
    64
 10
-28.98523
 20
-69.60727
 11
-29.146382
 21
-69.798638
  0
LINE
  8
ボルト／ビス
  6
CONTINUOUS
 62
    64
 10
-28.653767
 20
-69.886402
 11
-28.814923
 21
-70.07777
  0
CIRCLE
  8
ボルト／ビス
  6
CONTINUOUS
 62
    64
 10
-28.900078
 20
-69.84252
 40
0.216668
  0
ENDBLK
  0
BLOCK
  2
*GRP_0025
 70
    65
 10
0.0
 20
0.0
  0
LINE
  8
補助線
  6
BYBLOCK
 62
    64
 10
-28.836333
 20
-84.08889
 11
-28.963818
 21
-84.19625
  0
LINE
  8
補助線
  6
BYBLOCK
 62
    64
 10
-28.953755
 20
-84.078825
 11
-28.846395
 21
-84.206312
  0
LINE
  8
補助線
  6
BYBLOCK
 62
    64
 10
-20.345915
 20
-76.938868
 11
-20.4734
 21
-77.046223
  0
LINE
  8
補助線
  6
BYBLOCK
 62
    64
 10
-20.463338
 20
-76.928802
 11
-20.355977
 21
-77.056285
  0
LINE
  8
補助線
  6
BYBLOCK
 62
    64
 10
-11.98298
 20
-69.896198
 11
-11.855498
 21
-69.78884
  0
LINE
  8
補助線
  6
BYBLOCK
 62
    64
 10
-11.97292
 20
-69.778775
 11
-11.86556
 21
-69.906262
  0
LINE
  8
型材断面
  6
CONTINUOUS
 10
-29.69183
 20
-83.719867
 11
-29.752207
 21
-84.424392
  0
LINE
  8
型材断面
  6
CONTINUOUS
 10
-29.752207
 20
-84.424392
 11
-29.322775
 21
-84.934328
  0
LINE
  8
型材断面
  6
CONTINUOUS
 10
-29.322775
 20
-84.934328
 11
-28.61825
 21
-84.994705
  0
LINE
  8
型材断面
  6
CONTINUOUS
 10
-12.201062
 20
-68.990387
 11
-11.496537
 21
-69.050765
  0
LINE
  8
型材断面
  6
CONTINUOUS
 10
-11.496537
 20
-69.050765
 11
-11.067105
 21
-69.5607
  0
LINE
  8
型材断面
  6
CONTINUOUS
 10
-11.067105
 20
-69.5607
 11
-11.127483
 21
-70.265225
  0
LINE
  8
型材断面
  6
CONTINUOUS
 10
-29.69183
 20
-83.719867
 11
-12.201062
 21
-68.990387
  0
LINE
  8
型材断面
  6
CONTINUOUS
 10
-28.61825
 20
-84.994705
 11
-11.127483
 21
-70.265225
  0
CIRCLE
  8
ボルト／ビス
  6
CONTINUOUS
 10
-28.900075
 20
-84.14257
 40
0.250185
  0
CIRCLE
  8
ボルト／ビス
  6
CONTINUOUS
 10
-28.900075
 20
-84.14257
 40
0.301025
  0
LINE
  8
ボルト／ビス
  6
CONTINUOUS
 62
    64
 10
-29.146382
 20
-84.186453
 11
-29.06123
 21
-83.951205
  0
LINE
  8
ボルト／ビス
  6
CONTINUOUS
 62
    64
 10
-28.814923
 20
-83.90732
 11
-29.06123
 21
-83.951205
  0
LINE
  8
ボルト／ビス
  6
CONTINUOUS
 62
    64
 10
-28.985228
 20
-84.37782
 11
-28.73892
 21
-84.333935
  0
LINE
  8
ボルト／ビス
  6
CONTINUOUS
 62
    64
 10
-28.653767
 20
-84.098687
 11
-28.73892
 21
-84.333935
  0
LINE
  8
ボルト／ビス
  6
CONTINUOUS
 62
    64
 10
-29.146382
 20
-84.186453
 11
-28.985228
 21
-84.37782
  0
LINE
  8
ボルト／ビス
  6
CONTINUOUS
 62
    64
 10
-28.814923
 20
-83.90732
 11
-28.653767
 21
-84.098687
  0
CIRCLE
  8
ボルト／ビス
  6
CONTINUOUS
 62
    64
 10
-28.900075
 20
-84.14257
 40
0.216668
  0
CIRCLE
  8
ボルト／ビス
  6
CONTINUOUS
 10
-20.409657
 20
-76.992545
 40
0.250185
  0
CIRCLE
  8
ボルト／ビス
  6
CONTINUOUS
 10
-20.409657
 20
-76.992545
 40
0.301025
  0
LINE
  8
ボルト／ビス
  6
CONTINUOUS
 62
    64
 10
-20.655965
 20
-77.036427
 11
-20.570813
 21
-76.801177
  0
LINE
  8
ボルト／ビス
  6
CONTINUOUS
 62
    64
 10
-20.324505
 20
-76.757295
 11
-20.570813
 21
-76.801177
  0
LINE
  8
ボルト／ビス
  6
CONTINUOUS
 62
    64
 10
-20.49481
 20
-77.227795
 11
-20.2485
 21
-77.183913
  0
LINE
  8
ボルト／ビス
  6
CONTINUOUS
 62
    64
 10
-20.16335
 20
-76.948665
 11
-20.2485
 21
-77.183913
  0
LINE
  8
ボルト／ビス
  6
CONTINUOUS
 62
    64
 10
-20.655965
 20
-77.036427
 11
-20.49481
 21
-77.227795
  0
LINE
  8
ボルト／ビス
  6
CONTINUOUS
 62
    64
 10
-20.324505
 20
-76.757295
 11
-20.16335
 21
-76.948665
  0
CIRCLE
  8
ボルト／ビス
  6
CONTINUOUS
 62
    64
 10
-20.409657
 20
-76.992545
 40
0.216668
  0
CIRCLE
  8
ボルト／ビス
  6
CONTINUOUS
 10
-11.919237
 20
-69.84252
 40
0.250185
  0
CIRCLE
  8
ボルト／ビス
  6
CONTINUOUS
 10
-11.919237
 20
-69.84252
 40
0.301025
  0
LINE
  8
ボルト／ビス
  6
CONTINUOUS
 62
    64
 10
-11.834085
 20
-69.60727
 11
-12.080395
 21
-69.651155
  0
LINE
  8
ボルト／ビス
  6
CONTINUOUS
 62
    64
 10
-12.165547
 20
-69.886402
 11
-12.080395
 21
-69.651155
  0
LINE
  8
ボルト／ビス
  6
CONTINUOUS
 62
    64
 10
-11.672933
 20
-69.798638
 11
-11.758083
 21
-70.033885
  0
LINE
  8
ボルト／ビス
  6
CONTINUOUS
 62
    64
 10
-12.004392
 20
-70.07777
 11
-11.758083
 21
-70.033885
  0
LINE
  8
ボルト／ビス
  6
CONTINUOUS
 62
    64
 10
-11.834085
 20
-69.60727
 11
-11.672933
 21
-69.798638
  0
LINE
  8
ボルト／ビス
  6
CONTINUOUS
 62
    64
 10
-12.165547
 20
-69.886402
 11
-12.004392
 21
-70.07777
  0
CIRCLE
  8
ボルト／ビス
  6
CONTINUOUS
 62
    64
 10
-11.919237
 20
-69.84252
 40
0.216668
  0
ENDBLK
  0
BLOCK
  2
*DIM_0026
 70
    65
 10
0.0
 20
0.0
  0
LINE
  8
寸法
  6
BYBLOCK
 62
     0
 10
90.43383
 20
-78.49138
 11
90.43383
 21
-66.824712
  0
POINT
  8
寸法
 62
     0
 10
90.43383
 20
-78.49138
  0
POINT
  8
寸法
 62
     0
 10
90.43383
 20
-66.824712
  0
TEXT
  7
TextStyle03
  8
寸法
  6
CONTINUOUS
 62
     0
 10
89.375
 20
-64.34375
  1
上昇324以上
 40
3.0
 50
90.0
 72
     5
 11
89.375
 21
-46.15625
  0
ENDBLK
  0
BLOCK
  2
*DIM_0027
 70
    65
 10
0.0
 20
0.0
  0
LINE
  8
寸法
  6
BYBLOCK
 62
     0
 10
160.173723
 20
52.400165
 11
148.507055
 21
52.400165
  0
POINT
  8
寸法
 62
     0
 10
160.173723
 20
52.400165
  0
POINT
  8
寸法
 62
     0
 10
148.507055
 20
52.400165
  0
TEXT
  7
TextStyle03
  8
寸法
  6
CONTINUOUS
 62
     0
 10
126.90625
 20
50.925
  1
上昇324以上
 40
3.0
 72
     5
 11
145.09375
 21
50.925
  0
ENDBLK
  0
BLOCK
  2
*DIM_0028
 70
    65
 10
0.0
 20
0.0
  0
LINE
  8
寸法
  6
CONTINUOUS
 10
171.343563
 20
-93.20038
 11
177.40986
 21
-93.20038
  0
LINE
  8
寸法
  6
CONTINUOUS
 10
171.343563
 20
-63.20038
 11
177.40986
 21
-63.20038
  0
LINE
  8
寸法
  6
CONTINUOUS
 10
177.40986
 20
-93.20038
 11
177.40986
 21
-63.20038
  0
POINT
  8
寸法
 10
177.40986
 20
-93.20038
  0
POINT
  8
寸法
 10
177.40986
 20
-63.20038
  0
TEXT
  7
TextStyle03
  8
寸法
  6
CONTINUOUS
 10
177.025
 20
-80.6625
  1
900
 40
3.0
 50
90.0
 72
     5
 11
177.025
 21
-75.7875
  0
ENDBLK
  0
BLOCK
  2
*DIM_0029
 70
    65
 10
0.0
 20
0.0
  0
LINE
  8
寸法
  6
CONTINUOUS
 10
77.93252
 20
-78.49138
 11
90.43383
 21
-78.49138
  0
LINE
  8
寸法
  6
CONTINUOUS
 10
79.020345
 20
-86.607932
 11
90.43383
 21
-86.607932
  0
LINE
  8
寸法
  6
CONTINUOUS
 10
90.43383
 20
-78.49138
 11
90.43383
 21
-86.607932
  0
POINT
  8
寸法
 10
90.43383
 20
-78.49138
  0
POINT
  8
寸法
 10
90.43383
 20
-86.607932
  0
TEXT
  7
TextStyle03
  8
寸法
  6
CONTINUOUS
 10
93.4
 20
-86.675
  1
243.5
 40
3.0
 50
90.0
 72
     5
 11
93.4
 21
-78.425
  0
ENDBLK
  0
BLOCK
  2
*DIM_0030
 70
    65
 10
0.0
 20
0.0
  0
LINE
  8
寸法
  6
CONTINUOUS
 10
160.173723
 20
48.399048
 11
160.173723
 21
52.400165
  0
LINE
  8
寸法
  6
CONTINUOUS
 10
168.290275
 20
48.399048
 11
168.290275
 21
52.400165
  0
LINE
  8
寸法
  6
CONTINUOUS
 10
160.173723
 20
52.400165
 11
168.290275
 21
52.400165
  0
POINT
  8
寸法
 10
160.173723
 20
52.400165
  0
POINT
  8
寸法
 10
168.290275
 20
52.400165
  0
TEXT
  7
TextStyle03
  8
寸法
  6
CONTINUOUS
 10
160.05
 20
52.775
  1
243.5
 40
3.0
 72
     5
 11
168.3
 21
52.775
  0
ENDBLK
  0
ENDSEC
  0
SECTION
  2
ENTITIES
  0
POLYLINE
  8
通り芯
  6
CONTINUOUS
 66
     1
 70
     1
  0
VERTEX
  8
通り芯
 10
-210.0
 20
-148.5
  0
VERTEX
  8
通り芯
 10
210.0
 20
-148.5
  0
VERTEX
  8
通り芯
 10
210.0
 20
148.5
  0
VERTEX
  8
通り芯
 10
-210.0
 20
148.5
  0
SEQEND
  0
INSERT
  2
*GRP_0001
  8
型材断面
  6
CONTINUOUS
 10
0.0
 20
0.0
  0
LINE
  8
型材断面
  6
DASHDOT
 10
71.257007
 20
-87.251428
 11
71.257007
 21
43.399048
  0
LINE
  8
型材断面
  6
DASHDOT
 10
-20.40966
 20
-87.251428
 11
-20.40966
 21
43.399048
  0
LINE
  8
型材断面
  6
DASHDOT
 10
-112.076325
 20
-87.251428
 11
-112.076325
 21
43.399048
  0
LINE
  8
型材断面
  6
DASHDOT
 10
168.93377
 20
43.399048
 11
-112.076325
 21
43.399048
  0
LINE
  8
型材断面
  6
DASHDOT
 10
168.93377
 20
28.399048
 11
-112.076325
 21
28.399048
  0
LINE
  8
型材断面
  6
DASHDOT
 10
168.93377
 20
13.399048
 11
-112.076325
 21
13.399048
  0
POLYLINE
  8
型材断面
  6
CONTINUOUS
 66
     1
 70
     1
  0
VERTEX
  8
型材断面
 10
-10.957247
 20
3.623125
  0
VERTEX
  8
型材断面
 10
-29.729177
 20
3.623125
  0
VERTEX
  8
型材断面
 10
-29.729177
 20
-1.113717
  0
VERTEX
  8
型材断面
 10
-10.957247
 20
-1.113717
  0
SEQEND
  0
POLYLINE
  8
型材断面
  6
CONTINUOUS
 66
     1
 70
     1
  0
VERTEX
  8
型材断面
 10
-10.957247
 20
53.17497
  0
VERTEX
  8
型材断面
 10
-29.729177
 20
53.17497
  0
VERTEX
  8
型材断面
 10
-29.729177
 20
57.911813
  0
VERTEX
  8
型材断面
 10
-10.957247
 20
57.911813
  0
SEQEND
  0
LINE
  8
型材断面
  6
CONTINUOUS
 10
-152.928532
 20
81.37652
 11
-152.332478
 21
78.786012
  0
LINE
  8
型材断面
  6
CONTINUOUS
 10
-152.928532
 20
81.37652
 11
-153.52459
 21
78.786012
  0
LINE
  8
型材断面
  6
CONTINUOUS
 10
-153.52459
 20
78.786012
 11
-152.332478
 21
78.786012
  0
LINE
  8
型材断面
  6
CONTINUOUS
 10
-158.95112
 20
75.50712
 11
-112.709343
 21
75.50712
  0
LINE
  8
型材断面
  6
CONTINUOUS
 10
-152.928532
 20
87.906395
 11
-154.424162
 21
85.315887
  0
LINE
  8
型材断面
  6
CONTINUOUS
 10
-152.928532
 20
87.906395
 11
-151.432903
 21
85.315887
  0
LINE
  8
型材断面
  6
CONTINUOUS
 10
-151.432903
 20
85.315887
 11
-154.424162
 21
85.315887
  0
LINE
  8
型材断面
  6
CONTINUOUS
 10
-158.95112
 20
84.377292
 11
-112.709343
 21
84.377292
  0
LINE
  8
型材断面
  6
CONTINUOUS
 10
-158.95112
 20
69.719088
 11
-112.709343
 21
69.719088
  0
LINE
  8
型材断面
  6
CONTINUOUS
 10
-158.95112
 20
63.931055
 11
-112.709343
 21
63.931055
  0
LINE
  8
型材断面
  6
CONTINUOUS
 10
-113.909685
 20
45.232402
 11
-20.40966
 21
45.232335
  0
LINE
  8
型材断面
  6
CONTINUOUS
 10
-113.909685
 20
11.565692
 11
-20.40966
 21
11.56576
  0
LINE
  8
型材断面
  6
CONTINUOUS
 10
-114.839665
 20
10.63586
 11
74.020342
 21
10.63586
  0
LINE
  8
型材断面
  6
CONTINUOUS
 10
-114.839665
 20
46.162233
 11
74.020342
 21
46.162233
  0
LINE
  8
型材断面
  6
CONTINUOUS
 10
-114.839665
 20
28.399045
 11
-117.430173
 21
29.894675
  0
LINE
  8
型材断面
  6
CONTINUOUS
 10
-114.839665
 20
28.399045
 11
-117.430173
 21
26.903415
  0
LINE
  8
型材断面
  6
CONTINUOUS
 10
-117.430173
 20
26.903415
 11
-117.430173
 21
29.894675
  0
LINE
  8
型材断面
  6
CONTINUOUS
 10
-114.839667
 20
39.699048
 11
-117.430177
 21
39.102995
  0
LINE
  8
型材断面
  6
CONTINUOUS
 10
-114.839667
 20
39.699048
 11
-117.430175
 21
40.295108
  0
LINE
  8
型材断面
  6
CONTINUOUS
 10
-117.430175
 20
40.295108
 11
-117.430177
 21
39.102995
  0
LINE
  8
型材断面
  6
CONTINUOUS
 10
-114.839667
 20
17.099042
 11
-117.430177
 21
17.695095
  0
LINE
  8
型材断面
  6
CONTINUOUS
 10
-114.839667
 20
17.099042
 11
-117.430175
 21
16.502982
  0
LINE
  8
型材断面
  6
CONTINUOUS
 10
-117.430175
 20
16.502982
 11
-117.430177
 21
17.695095
  0
LINE
  8
型材断面
  6
CONTINUOUS
 10
-95.409657
 20
46.162233
 11
-96.905288
 21
48.75274
  0
LINE
  8
型材断面
  6
CONTINUOUS
 10
-95.409657
 20
46.162233
 11
-93.914027
 21
48.75274
  0
LINE
  8
型材断面
  6
CONTINUOUS
 10
-93.914027
 20
48.75274
 11
-96.905288
 21
48.75274
  0
LINE
  8
型材断面
  6
CONTINUOUS
 10
54.590337
 20
46.162233
 11
56.085967
 21
48.75274
  0
LINE
  8
型材断面
  6
CONTINUOUS
 10
54.590337
 20
46.162233
 11
53.094708
 21
48.75274
  0
LINE
  8
型材断面
  6
CONTINUOUS
 10
53.094708
 20
48.75274
 11
56.085967
 21
48.75274
  0
LINE
  8
型材断面
  6
CONTINUOUS
 10
-20.40966
 20
46.16223
 11
-21.90529
 21
48.752737
  0
LINE
  8
型材断面
  6
CONTINUOUS
 10
-20.40966
 20
46.16223
 11
-18.91403
 21
48.752737
  0
LINE
  8
型材断面
  6
CONTINUOUS
 10
-18.91403
 20
48.752737
 11
-21.90529
 21
48.752737
  0
LINE
  8
型材断面
  6
CONTINUOUS
 10
74.020342
 20
28.399048
 11
76.61085
 21
29.894678
  0
LINE
  8
型材断面
  6
CONTINUOUS
 10
74.020342
 20
28.399048
 11
76.61085
 21
26.903418
  0
LINE
  8
型材断面
  6
CONTINUOUS
 10
76.61085
 20
26.903418
 11
76.61085
 21
29.894678
  0
LINE
  8
型材断面
  6
CONTINUOUS
 10
74.020345
 20
39.69905
 11
76.610855
 21
39.102997
  0
LINE
  8
型材断面
  6
CONTINUOUS
 10
74.020345
 20
39.69905
 11
76.610852
 21
40.29511
  0
LINE
  8
型材断面
  6
CONTINUOUS
 10
76.610852
 20
40.29511
 11
76.610855
 21
39.102997
  0
LINE
  8
型材断面
  6
CONTINUOUS
 10
74.020345
 20
17.099045
 11
76.610855
 21
17.695097
  0
LINE
  8
型材断面
  6
CONTINUOUS
 10
74.020345
 20
17.099045
 11
76.610852
 21
16.502985
  0
LINE
  8
型材断面
  6
CONTINUOUS
 10
76.610852
 20
16.502985
 11
76.610855
 21
17.695097
  0
LINE
  8
型材断面
  6
CONTINUOUS
 10
-95.409657
 20
10.635863
 11
-96.905288
 21
8.045355
  0
LINE
  8
型材断面
  6
CONTINUOUS
 10
-95.409657
 20
10.635863
 11
-93.914027
 21
8.045355
  0
LINE
  8
型材断面
  6
CONTINUOUS
 10
-93.914027
 20
8.045355
 11
-96.905288
 21
8.045355
  0
LINE
  8
型材断面
  6
CONTINUOUS
 10
54.590337
 20
10.635863
 11
56.085967
 21
8.045355
  0
LINE
  8
型材断面
  6
CONTINUOUS
 10
54.590337
 20
10.635863
 11
53.094708
 21
8.045355
  0
LINE
  8
型材断面
  6
CONTINUOUS
 10
53.094708
 20
8.045355
 11
56.085967
 21
8.045355
  0
LINE
  8
型材断面
  6
CONTINUOUS
 10
-20.40966
 20
10.63586
 11
-21.90529
 21
8.045353
  0
LINE
  8
型材断面
  6
CONTINUOUS
 10
-20.40966
 20
10.63586
 11
-18.91403
 21
8.045353
  0
LINE
  8
型材断面
  6
CONTINUOUS
 10
-18.91403
 20
8.045353
 11
-21.90529
 21
8.045353
  0
INSERT
  2
*GRP_0020
  8
型材断面
  6
CONTINUOUS
 10
0.0
 20
0.0
  0
INSERT
  2
*GRP_0021
  8
型材断面
  6
CONTINUOUS
 10
0.0
 20
0.0
  0
INSERT
  2
*GRP_0022
  8
型材断面
  6
CONTINUOUS
 10
0.0
 20
0.0
  0
INSERT
  2
*GRP_0023
  8
型材断面
  6
CONTINUOUS
 10
0.0
 20
0.0
  0
INSERT
  2
*GRP_0024
  8
型材断面
  6
CONTINUOUS
 10
0.0
 20
0.0
  0
INSERT
  2
*GRP_0025
  8
型材断面
  6
CONTINUOUS
 10
0.0
 20
0.0
  0
LINE
  8
型材断面
  6
DASHDOT
 10
-75.75966
 20
13.399048
 11
-75.75966
 21
43.399048
  0
LINE
  8
型材断面
  6
DASHDOT
 10
-38.85966
 20
13.399048
 11
-38.85966
 21
43.399048
  0
LINE
  8
型材断面
  6
DASHDOT
 10
34.94034
 20
13.399048
 11
34.94034
 21
43.399048
  0
LINE
  8
型材断面
  6
DASHDOT
 10
-1.95966
 20
13.399048
 11
-1.95966
 21
43.399048
  0
LINE
  8
型材断面
  6
CONTINUOUS
 10
74.020345
 20
10.63586
 11
74.020345
 21
46.162233
  0
LINE
  8
型材断面
  6
CONTINUOUS
 10
72.854665
 20
11.565692
 11
73.090365
 21
11.801392
  0
LINE
  8
型材断面
  6
CONTINUOUS
 10
70.354663
 20
14.065692
 11
70.590363
 21
14.301392
  0
LINE
  8
型材断面
  6
CONTINUOUS
 10
70.590363
 20
14.301392
 11
73.090365
 21
11.801392
  0
LINE
  8
型材断面
  6
CONTINUOUS
 10
70.354663
 20
14.065692
 11
72.854665
 21
11.565692
  0
LINE
  8
型材断面
  6
CONTINUOUS
 10
74.020197
 20
10.63586
 11
72.972513
 21
11.68354
  0
LINE
  8
型材断面
  6
CONTINUOUS
 10
73.090343
 20
28.399048
 11
73.090365
 21
11.801392
  0
LINE
  8
型材断面
  6
CONTINUOUS
 10
72.854665
 20
45.232402
 11
73.090365
 21
44.996702
  0
LINE
  8
型材断面
  6
CONTINUOUS
 10
70.590363
 20
42.496702
 11
73.090365
 21
44.996702
  0
LINE
  8
型材断面
  6
CONTINUOUS
 10
74.020197
 20
46.162235
 11
72.972513
 21
45.114555
  0
LINE
  8
型材断面
  6
CONTINUOUS
 10
70.354663
 20
42.732402
 11
70.590363
 21
42.496702
  0
LINE
  8
型材断面
  6
CONTINUOUS
 10
73.090343
 20
28.399048
 11
73.090365
 21
44.996702
  0
LINE
  8
型材断面
  6
CONTINUOUS
 10
70.354663
 20
42.732402
 11
72.854665
 21
45.232402
  0
LINE
  8
型材断面
  6
CONTINUOUS
 10
70.590343
 20
28.815715
 11
73.090343
 21
28.815715
  0
LINE
  8
型材断面
  6
CONTINUOUS
 10
70.590343
 20
27.98238
 11
73.090343
 21
27.98238
  0
LINE
  8
型材断面
  6
CONTINUOUS
 10
70.590343
 20
27.98238
 11
70.590363
 21
14.301392
  0
LINE
  8
型材断面
  6
CONTINUOUS
 10
70.590343
 20
28.815715
 11
70.590363
 21
42.496702
  0
LINE
  8
型材断面
  6
CONTINUOUS
 10
-20.40966
 20
45.232335
 11
72.854665
 21
45.232402
  0
LINE
  8
型材断面
  6
CONTINUOUS
 10
-20.40966
 20
11.56576
 11
72.854665
 21
11.565692
  0
LINE
  8
型材断面
  6
CONTINUOUS
 10
36.19034
 20
14.89905
 11
33.69034
 21
14.899052
  0
LINE
  8
型材断面
  6
CONTINUOUS
 10
36.19034
 20
41.899045
 11
33.69034
 21
41.899042
  0
LINE
  8
型材断面
  6
CONTINUOUS
 10
36.19034
 20
14.89905
 11
36.19034
 21
41.899045
  0
LINE
  8
型材断面
  6
CONTINUOUS
 10
33.69034
 20
14.899052
 11
33.69034
 21
41.899042
  0
LINE
  8
型材断面
  6
CONTINUOUS
 10
-0.70966
 20
14.89905
 11
-3.20966
 21
14.899052
  0
LINE
  8
型材断面
  6
CONTINUOUS
 10
-0.70966
 20
41.899045
 11
-3.20966
 21
41.899042
  0
LINE
  8
型材断面
  6
CONTINUOUS
 10
-0.70966
 20
14.89905
 11
-0.70966
 21
41.899045
  0
LINE
  8
型材断面
  6
CONTINUOUS
 10
-3.20966
 20
14.899052
 11
-3.20966
 21
41.899042
  0
LINE
  8
型材断面
  6
CONTINUOUS
 10
53.515343
 20
14.065705
 11
53.515343
 21
11.565707
  0
LINE
  8
型材断面
  6
CONTINUOUS
 10
52.682007
 20
14.065705
 11
52.682007
 21
11.565707
  0
LINE
  8
型材断面
  6
CONTINUOUS
 10
16.907007
 20
14.065705
 11
16.907007
 21
11.565707
  0
LINE
  8
型材断面
  6
CONTINUOUS
 10
16.073673
 20
14.065705
 11
16.073673
 21
11.565707
  0
LINE
  8
型材断面
  6
CONTINUOUS
 10
53.515343
 20
42.73239
 11
53.515343
 21
45.232388
  0
LINE
  8
型材断面
  6
CONTINUOUS
 10
52.682007
 20
42.73239
 11
52.682007
 21
45.232388
  0
LINE
  8
型材断面
  6
CONTINUOUS
 10
16.907007
 20
42.73239
 11
16.907007
 21
45.232388
  0
LINE
  8
型材断面
  6
CONTINUOUS
 10
16.073673
 20
42.73239
 11
16.073673
 21
45.232388
  0
LINE
  8
型材断面
  6
CONTINUOUS
 10
53.515343
 20
42.73239
 11
70.354663
 21
42.732402
  0
LINE
  8
型材断面
  6
CONTINUOUS
 10
53.515343
 20
14.065705
 11
70.354663
 21
14.065692
  0
LINE
  8
型材断面
  6
CONTINUOUS
 10
16.907007
 20
14.065733
 11
52.682007
 21
14.065705
  0
LINE
  8
型材断面
  6
CONTINUOUS
 10
16.907007
 20
42.732363
 11
52.682007
 21
42.73239
  0
LINE
  8
型材断面
  6
CONTINUOUS
 10
-19.992993
 20
14.065705
 11
-19.992993
 21
11.565707
  0
LINE
  8
型材断面
  6
CONTINUOUS
 10
-20.826328
 20
14.065705
 11
-20.826328
 21
11.565707
  0
LINE
  8
型材断面
  6
CONTINUOUS
 10
-19.992993
 20
42.73239
 11
-19.992993
 21
45.232388
  0
LINE
  8
型材断面
  6
CONTINUOUS
 10
-20.826328
 20
42.73239
 11
-20.826328
 21
45.232388
  0
LINE
  8
型材断面
  6
CONTINUOUS
 10
-19.992993
 20
42.732335
 11
16.073673
 21
42.732363
  0
LINE
  8
型材断面
  6
CONTINUOUS
 10
-19.992993
 20
14.06576
 11
16.073673
 21
14.065733
  0
LINE
  8
型材断面
  6
DASHDOT
 10
-75.75966
 20
13.399048
 11
-75.75966
 21
43.399048
  0
LINE
  8
型材断面
  6
DASHDOT
 10
-38.85966
 20
13.399048
 11
-38.85966
 21
43.399048
  0
LINE
  8
型材断面
  6
CONTINUOUS
 10
-114.839665
 20
10.63586
 11
-114.839665
 21
46.162233
  0
LINE
  8
型材断面
  6
CONTINUOUS
 10
-113.673985
 20
11.565692
 11
-113.909685
 21
11.801392
  0
LINE
  8
型材断面
  6
CONTINUOUS
 10
-111.173982
 20
14.065692
 11
-111.409682
 21
14.301392
  0
LINE
  8
型材断面
  6
CONTINUOUS
 10
-111.409682
 20
14.301392
 11
-113.909685
 21
11.801392
  0
LINE
  8
型材断面
  6
CONTINUOUS
 10
-111.173982
 20
14.065692
 11
-113.673985
 21
11.565692
  0
LINE
  8
型材断面
  6
CONTINUOUS
 10
-114.839517
 20
10.63586
 11
-113.791832
 21
11.68354
  0
LINE
  8
型材断面
  6
CONTINUOUS
 10
-113.909663
 20
28.399048
 11
-113.909685
 21
11.801392
  0
LINE
  8
型材断面
  6
CONTINUOUS
 10
-113.673985
 20
45.232402
 11
-113.909685
 21
44.996702
  0
LINE
  8
型材断面
  6
CONTINUOUS
 10
-111.409682
 20
42.496702
 11
-113.909685
 21
44.996702
  0
LINE
  8
型材断面
  6
CONTINUOUS
 10
-114.839517
 20
46.162235
 11
-113.791832
 21
45.114555
  0
LINE
  8
型材断面
  6
CONTINUOUS
 10
-111.173982
 20
42.732402
 11
-111.409682
 21
42.496702
  0
LINE
  8
型材断面
  6
CONTINUOUS
 10
-113.909663
 20
28.399048
 11
-113.909685
 21
44.996702
  0
LINE
  8
型材断面
  6
CONTINUOUS
 10
-111.173982
 20
42.732402
 11
-113.673985
 21
45.232402
  0
LINE
  8
型材断面
  6
CONTINUOUS
 10
-111.409663
 20
28.815715
 11
-113.909663
 21
28.815715
  0
LINE
  8
型材断面
  6
CONTINUOUS
 10
-111.409663
 20
27.98238
 11
-113.909663
 21
27.98238
  0
LINE
  8
型材断面
  6
CONTINUOUS
 10
-111.409663
 20
27.98238
 11
-111.409682
 21
14.301392
  0
LINE
  8
型材断面
  6
CONTINUOUS
 10
-111.409663
 20
28.815715
 11
-111.409682
 21
42.496702
  0
LINE
  8
型材断面
  6
CONTINUOUS
 10
-77.00966
 20
14.89905
 11
-74.50966
 21
14.899052
  0
LINE
  8
型材断面
  6
CONTINUOUS
 10
-77.00966
 20
41.899045
 11
-74.50966
 21
41.899042
  0
LINE
  8
型材断面
  6
CONTINUOUS
 10
-77.00966
 20
14.89905
 11
-77.00966
 21
41.899045
  0
LINE
  8
型材断面
  6
CONTINUOUS
 10
-74.50966
 20
14.899052
 11
-74.50966
 21
41.899042
  0
LINE
  8
型材断面
  6
CONTINUOUS
 10
-40.10966
 20
14.89905
 11
-37.60966
 21
14.899052
  0
LINE
  8
型材断面
  6
CONTINUOUS
 10
-40.10966
 20
41.899045
 11
-37.60966
 21
41.899042
  0
LINE
  8
型材断面
  6
CONTINUOUS
 10
-40.10966
 20
14.89905
 11
-40.10966
 21
41.899045
  0
LINE
  8
型材断面
  6
CONTINUOUS
 10
-37.60966
 20
14.899052
 11
-37.60966
 21
41.899042
  0
LINE
  8
型材断面
  6
CONTINUOUS
 10
-94.334663
 20
14.065705
 11
-94.334663
 21
11.565707
  0
LINE
  8
型材断面
  6
CONTINUOUS
 10
-93.501328
 20
14.065705
 11
-93.501328
 21
11.565707
  0
LINE
  8
型材断面
  6
CONTINUOUS
 10
-57.726328
 20
14.065705
 11
-57.726328
 21
11.565707
  0
LINE
  8
型材断面
  6
CONTINUOUS
 10
-56.892993
 20
14.065705
 11
-56.892993
 21
11.565707
  0
LINE
  8
型材断面
  6
CONTINUOUS
 10
-94.334663
 20
42.73239
 11
-94.334663
 21
45.232388
  0
LINE
  8
型材断面
  6
CONTINUOUS
 10
-93.501328
 20
42.73239
 11
-93.501328
 21
45.232388
  0
LINE
  8
型材断面
  6
CONTINUOUS
 10
-57.726328
 20
42.73239
 11
-57.726328
 21
45.232388
  0
LINE
  8
型材断面
  6
CONTINUOUS
 10
-56.892993
 20
42.73239
 11
-56.892993
 21
45.232388
  0
LINE
  8
型材断面
  6
CONTINUOUS
 10
-94.334663
 20
42.73239
 11
-111.173982
 21
42.732402
  0
LINE
  8
型材断面
  6
CONTINUOUS
 10
-94.334663
 20
14.065705
 11
-111.173982
 21
14.065692
  0
LINE
  8
型材断面
  6
CONTINUOUS
 10
-57.726328
 20
14.065733
 11
-93.501328
 21
14.065705
  0
LINE
  8
型材断面
  6
CONTINUOUS
 10
-57.726328
 20
42.732363
 11
-93.501328
 21
42.73239
  0
LINE
  8
型材断面
  6
CONTINUOUS
 10
-20.826328
 20
42.732335
 11
-56.892993
 21
42.732363
  0
LINE
  8
型材断面
  6
CONTINUOUS
 10
-20.826328
 20
14.06576
 11
-56.892993
 21
14.065733
  0
LINE
  8
型材断面
  6
CONTINUOUS
 10
73.520345
 20
-86.607932
 11
73.520345
 21
-86.944597
  0
LINE
  8
型材断面
  6
CONTINUOUS
 10
73.823677
 20
-82.511383
 11
74.020345
 21
-82.70805
  0
LINE
  8
型材断面
  6
CONTINUOUS
 10
74.020345
 20
-82.70805
 11
74.020345
 21
-86.607932
  0
LINE
  8
型材断面
  6
CONTINUOUS
 10
168.290275
 20
45.662235
 11
168.62694
 21
45.662235
  0
LINE
  8
型材断面
  6
CONTINUOUS
 10
164.193725
 20
45.965567
 11
164.390393
 21
46.162235
  0
LINE
  8
型材断面
  6
CONTINUOUS
 10
164.390393
 20
46.162235
 11
168.290275
 21
46.162235
  0
LINE
  8
型材断面
  6
CONTINUOUS
 10
168.62694
 20
45.662235
 11
168.62694
 21
28.399048
  0
LINE
  8
型材断面
  6
CONTINUOUS
 10
168.290275
 20
46.162235
 11
168.290275
 21
28.399048
  0
LINE
  8
型材断面
  6
CONTINUOUS
 62
    47
 10
164.19377
 20
45.96561
 11
164.19377
 21
28.399048
  0
LINE
  8
型材断面
  6
CONTINUOUS
 10
164.390393
 20
46.162235
 11
164.390393
 21
28.399048
  0
LINE
  8
型材断面
  6
CONTINUOUS
 10
168.290275
 20
11.13586
 11
168.62694
 21
11.13586
  0
LINE
  8
型材断面
  6
CONTINUOUS
 10
164.193725
 20
10.832527
 11
164.390393
 21
10.63586
  0
LINE
  8
型材断面
  6
CONTINUOUS
 10
164.390393
 20
10.63586
 11
168.290275
 21
10.63586
  0
LINE
  8
型材断面
  6
CONTINUOUS
 10
168.62694
 20
11.13586
 11
168.62694
 21
28.399048
  0
LINE
  8
型材断面
  6
CONTINUOUS
 10
168.290275
 20
10.63586
 11
168.290275
 21
28.399048
  0
LINE
  8
型材断面
  6
CONTINUOUS
 62
    47
 10
164.19377
 20
10.832485
 11
164.19377
 21
28.399048
  0
LINE
  8
型材断面
  6
CONTINUOUS
 10
164.390393
 20
10.63586
 11
164.390393
 21
28.399048
  0
LINE
  8
型材断面
  6
CONTINUOUS
 62
    47
 10
73.82372
 20
-82.511427
 11
-20.40966
 21
-82.511427
  0
LINE
  8
型材断面
  6
CONTINUOUS
 10
74.020345
 20
-82.70805
 11
-20.40966
 21
-82.70805
  0
LINE
  8
型材断面
  6
CONTINUOUS
 10
74.020345
 20
-86.607932
 11
-20.40966
 21
-86.607932
  0
LINE
  8
型材断面
  6
CONTINUOUS
 10
73.520345
 20
-86.944597
 11
-20.40966
 21
-86.944597
  0
LINE
  8
型材断面
  6
CONTINUOUS
 10
-114.339665
 20
-86.607932
 11
-114.339665
 21
-86.944597
  0
LINE
  8
型材断面
  6
CONTINUOUS
 10
-114.642998
 20
-82.511383
 11
-114.839665
 21
-82.70805
  0
LINE
  8
型材断面
  6
CONTINUOUS
 10
-114.839665
 20
-82.70805
 11
-114.839665
 21
-86.607932
  0
LINE
  8
型材断面
  6
CONTINUOUS
 62
    47
 10
-114.64304
 20
-82.511427
 11
-20.40966
 21
-82.511427
  0
LINE
  8
型材断面
  6
CONTINUOUS
 10
-114.839665
 20
-82.70805
 11
-20.40966
 21
-82.70805
  0
LINE
  8
型材断面
  6
CONTINUOUS
 10
-114.839665
 20
-86.607932
 11
-20.40966
 21
-86.607932
  0
LINE
  8
型材断面
  6
CONTINUOUS
 10
-114.339665
 20
-86.944597
 11
-20.40966
 21
-86.944597
  0
TEXT
  7
TextStyle03
  8
文字
  6
CONTINUOUS
 10
-28.65
 20
-0.075
  1
可動装置側
 40
3.0
 72
     5
 11
-12.15
 21
-0.075
  0
TEXT
  7
TextStyle03
  8
文字
  6
CONTINUOUS
 10
-28.65
 20
53.875
  1
可動装置側
 40
3.0
 72
     5
 11
-12.15
 21
53.875
  0
TEXT
  7
TextStyle03
  8
文字
  6
CONTINUOUS
 10
-150.125
 20
80.0
  1
はケーシング位置を示す
 40
3.0
 72
     5
 11
-113.375
 21
80.0
  0
TEXT
  7
TextStyle03
  8
文字
  6
CONTINUOUS
 10
-150.125
 20
76.625
  1
４ヶ所中1ヶ所に設定
 40
3.0
 72
     5
 11
-118.4375
 21
76.625
  0
TEXT
  7
TextStyle03
  8
文字
  6
CONTINUOUS
 10
-150.125
 20
85.525
  1
は排水穴位置を示す
 40
3.0
 72
     5
 11
-120.125
 21
85.525
  0
TEXT
  7
TextStyle03
  8
文字
  6
CONTINUOUS
 10
-133.05
 20
6.875
  1
アンカーピッチ
 40
3.0
 50
90.0
 72
     5
 11
-133.05
 21
30.125
  0
TEXT
  7
TextStyle03
  8
文字
  6
CONTINUOUS
 10
-98.025
 20
79.8
  1
アンカーピッチ
 40
3.0
 72
     5
 11
-74.775
 21
79.8
  0
TEXT
  7
TextStyle03
  8
文字
  6
CONTINUOUS
 10
-153.85
 20
70.65
  1
アンカー数量　１８ヶ所
 40
3.0
 72
     5
 11
-117.1
 21
70.65
  0
TEXT
  7
TextStyle03
  8
文字
  6
CONTINUOUS
 10
-153.925
 20
64.875
  1
アームユニット数　４～６ヶ所
 40
3.0
 72
     5
 11
-107.05
 21
64.875
  0
TEXT
  7
TextStyle03
  8
文字
  6
CONTINUOUS
 10
-158.85
 20
59.925
  1
※重量に依るのでご相談ください
 40
3.0
 72
     5
 11
-108.6
 21
59.925
  0
LINE
  8
文字
  6
CONTINUOUS
 10
162.386035
 20
46.162233
 11
105.276657
 21
46.162233
  0
LINE
  8
文字
  6
CONTINUOUS
 10
162.386035
 20
10.63586
 11
105.276657
 21
10.63586
  0
LINE
  8
文字
  6
CONTINUOUS
 10
148.507055
 20
52.400165
 11
148.507055
 21
47.487392
  0
LINE
  8
文字
  6
CONTINUOUS
 10
-114.839665
 20
-80.158047
 11
-114.839665
 21
-22.024302
  0
LINE
  8
文字
  6
CONTINUOUS
 10
74.020342
 20
-80.158047
 11
74.020342
 21
-22.024302
  0
LINE
  8
文字
  6
CONTINUOUS
 10
90.43383
 20
-66.824712
 11
76.79531
 21
-66.824712
  0
LINE
  8
文字
  6
CONTINUOUS
 10
130.61023
 20
-54.859958
 11
130.61023
 21
-62.07106
  0
LINE
  8
文字
  6
CONTINUOUS
 10
166.343563
 20
-54.859958
 11
166.343563
 21
-62.07106
  0
TEXT
  7
TextStyle03
  8
文字
  6
CONTINUOUS
 10
147.775
 20
-86.775
  1
網入り6.8t
 40
3.0
 72
     5
 11
164.4625
 21
-86.775
  0
TEXT
  7
TextStyle03
  8
文字
  6
CONTINUOUS
 10
154.45
 20
-91.45
  1
×５枚
 40
3.0
 72
     5
 11
164.2
 21
-91.45
  0
TEXT
  7
TextStyle03
  8
文字
  6
CONTINUOUS
 10
64.75
 20
125.25
  1
シリーズ：ＴＦＦＬ
 40
5.0
 72
     5
 11
114.75
 21
125.25
  0
TEXT
  7
TextStyle03
  8
文字
  6
CONTINUOUS
 10
64.75
 20
119.625
  1
　　　　　（上下可動）900×5500タイプ
 40
5.0
 72
     5
 11
168.1875
 21
119.625
  0
TEXT
  7
TextStyle03
  8
文字
  6
CONTINUOUS
 10
64.75
 20
114.0
  1
図面名　：外観姿図
 40
5.0
 72
     5
 11
114.75
 21
114.0
  0
TEXT
  7
TextStyle03
  8
文字
  6
CONTINUOUS
 10
64.75
 20
108.375
  1
　　　　　　
 40
5.0
 72
     5
 11
97.875
 21
108.375
  0
TEXT
  7
TextStyle03
  8
文字
  6
CONTINUOUS
 10
64.9
 20
104.525
  1
ＮＳコード：ＮＳＦＬ
 40
5.0
 72
     5
 11
120.525
 21
104.525
  0
INSERT
  2
*DIM_0002
  8
寸法
  6
CONTINUOUS
 10
0.0
 20
0.0
  0
INSERT
  2
*DIM_0003
  8
寸法
  6
CONTINUOUS
 10
0.0
 20
0.0
  0
INSERT
  2
*DIM_0004
  8
寸法
  6
CONTINUOUS
 10
0.0
 20
0.0
  0
INSERT
  2
*DIM_0005
  8
寸法
  6
CONTINUOUS
 10
0.0
 20
0.0
  0
INSERT
  2
*DIM_0006
  8
寸法
  6
CONTINUOUS
 10
0.0
 20
0.0
  0
INSERT
  2
*DIM_0007
  8
寸法
  6
CONTINUOUS
 10
0.0
 20
0.0
  0
INSERT
  2
*DIM_0008
  8
寸法
  6
CONTINUOUS
 10
0.0
 20
0.0
  0
INSERT
  2
*DIM_0009
  8
寸法
  6
CONTINUOUS
 10
0.0
 20
0.0
  0
INSERT
  2
*DIM_0010
  8
寸法
  6
CONTINUOUS
 10
0.0
 20
0.0
  0
INSERT
  2
*DIM_0011
  8
寸法
  6
CONTINUOUS
 10
0.0
 20
0.0
  0
INSERT
  2
*DIM_0012
  8
寸法
  6
CONTINUOUS
 10
0.0
 20
0.0
  0
INSERT
  2
*DIM_0013
  8
寸法
  6
CONTINUOUS
 10
0.0
 20
0.0
  0
INSERT
  2
*DIM_0014
  8
寸法
  6
CONTINUOUS
 10
0.0
 20
0.0
  0
INSERT
  2
*DIM_0015
  8
寸法
  6
CONTINUOUS
 10
0.0
 20
0.0
  0
INSERT
  2
*DIM_0016
  8
寸法
  6
CONTINUOUS
 10
0.0
 20
0.0
  0
INSERT
  2
*DIM_0017
  8
寸法
  6
CONTINUOUS
 10
0.0
 20
0.0
  0
INSERT
  2
*DIM_0018
  8
寸法
  6
CONTINUOUS
 10
0.0
 20
0.0
  0
INSERT
  2
*DIM_0019
  8
寸法
  6
CONTINUOUS
 10
0.0
 20
0.0
  0
INSERT
  2
*DIM_0026
  8
寸法
  6
CONTINUOUS
 10
0.0
 20
0.0
  0
INSERT
  2
*DIM_0027
  8
寸法
  6
CONTINUOUS
 10
0.0
 20
0.0
  0
INSERT
  2
*DIM_0028
  8
寸法
  6
CONTINUOUS
 10
0.0
 20
0.0
  0
INSERT
  2
*DIM_0029
  8
寸法
  6
CONTINUOUS
 10
0.0
 20
0.0
  0
INSERT
  2
*DIM_0030
  8
寸法
  6
CONTINUOUS
 10
0.0
 20
0.0
  0
LINE
  8
別途部材
  6
CONTINUOUS
 62
    47
 10
160.273723
 20
45.232235
 11
160.34039
 21
45.232235
  0
ARC
  8
別途部材
  6
CONTINUOUS
 62
    47
 10
160.273726
 20
45.132234
 40
0.1
 50
90.0
 51
180.0
  0
LINE
  8
別途部材
  6
CONTINUOUS
 62
    47
 10
160.34039
 20
45.075713
 11
161.84039
 21
45.075713
  0
LINE
  8
別途部材
  6
CONTINUOUS
 62
    47
 10
160.273723
 20
11.565857
 11
160.34039
 21
11.565857
  0
ARC
  8
別途部材
  6
CONTINUOUS
 62
    47
 10
160.273726
 20
11.665858
 40
0.1
 50
180.0
 51
270.0
  0
LINE
  8
別途部材
  6
CONTINUOUS
 62
    47
 10
160.34039
 20
11.72238
 11
161.84039
 21
11.72238
  0
LINE
  8
別途部材
  6
CONTINUOUS
 62
    47
 10
164.157057
 20
46.162233
 11
164.157057
 21
28.399048
  0
LINE
  8
別途部材
  6
CONTINUOUS
 62
    47
 10
162.990393
 20
46.162233
 11
162.990393
 21
28.399048
  0
LINE
  8
別途部材
  6
CONTINUOUS
 62
    47
 10
161.84039
 20
45.075713
 11
161.84039
 21
28.399048
  0
LINE
  8
別途部材
  6
CONTINUOUS
 62
    47
 10
160.34039
 20
45.232235
 11
160.34039
 21
28.399048
  0
LINE
  8
別途部材
  6
CONTINUOUS
 62
    47
 10
160.173723
 20
45.132235
 11
160.173723
 21
28.399048
  0
LINE
  8
別途部材
  6
CONTINUOUS
 62
    47
 10
164.157057
 20
10.63586
 11
164.157057
 21
28.399048
  0
LINE
  8
別途部材
  6
CONTINUOUS
 62
    47
 10
162.990393
 20
10.63586
 11
162.990393
 21
28.399048
  0
LINE
  8
別途部材
  6
CONTINUOUS
 62
    47
 10
160.34039
 20
11.565857
 11
160.34039
 21
28.399048
  0
LINE
  8
別途部材
  6
CONTINUOUS
 62
    47
 10
160.173723
 20
11.665857
 11
160.173723
 21
28.399048
  0
LINE
  8
別途部材
  6
CONTINUOUS
 62
    47
 10
161.84039
 20
11.72238
 11
161.84039
 21
28.399048
  0
LINE
  8
別途部材
  6
DOT
 62
    47
 10
148.607055
 20
45.232235
 11
148.673723
 21
45.232235
  0
ARC
  8
別途部材
  6
DOT
 62
    47
 10
148.607058
 20
45.132234
 40
0.1
 50
90.0
 51
180.0
  0
LINE
  8
別途部材
  6
DOT
 62
    47
 10
148.673723
 20
45.075713
 11
150.173723
 21
45.075713
  0
LINE
  8
別途部材
  6
DOT
 62
    47
 10
148.607055
 20
11.565857
 11
148.673723
 21
11.565857
  0
ARC
  8
別途部材
  6
DOT
 62
    47
 10
148.607058
 20
11.665858
 40
0.1
 50
180.0
 51
270.0
  0
LINE
  8
別途部材
  6
DOT
 62
    47
 10
148.673723
 20
11.72238
 11
150.173723
 21
11.72238
  0
LINE
  8
別途部材
  6
DOT
 62
    47
 10
152.49039
 20
46.162233
 11
152.49039
 21
28.399048
  0
LINE
  8
別途部材
  6
DOT
 62
    47
 10
151.323725
 20
46.162233
 11
151.323725
 21
28.399048
  0
LINE
  8
別途部材
  6
DOT
 62
    47
 10
150.173723
 20
45.075713
 11
150.173723
 21
28.399048
  0
LINE
  8
別途部材
  6
DOT
 62
    47
 10
148.673723
 20
45.232235
 11
148.673723
 21
28.399048
  0
LINE
  8
別途部材
  6
DOT
 62
    47
 10
148.507055
 20
45.132235
 11
148.507055
 21
28.399048
  0
LINE
  8
別途部材
  6
DOT
 62
    47
 10
151.323725
 20
10.63586
 11
151.323725
 21
28.399048
  0
LINE
  8
別途部材
  6
DOT
 62
    47
 10
152.49039
 20
10.63586
 11
152.49039
 21
28.399048
  0
LINE
  8
別途部材
  6
DOT
 62
    47
 10
148.673723
 20
11.565857
 11
148.673723
 21
28.399048
  0
LINE
  8
別途部材
  6
DOT
 62
    47
 10
148.507055
 20
11.665857
 11
148.507055
 21
28.399048
  0
LINE
  8
別途部材
  6
DOT
 62
    47
 10
150.173723
 20
11.72238
 11
150.173723
 21
28.399048
  0
LINE
  8
別途部材
  6
CONTINUOUS
 62
    47
 10
-113.909667
 20
-78.59138
 11
-113.909667
 21
-78.658047
  0
ARC
  8
別途部材
  6
CONTINUOUS
 62
    47
 10
-113.809665
 20
-78.591382
 40
0.1
 50
90.0
 51
180.0
  0
LINE
  8
別途部材
  6
CONTINUOUS
 62
    47
 10
-113.753145
 20
-78.658047
 11
-113.753145
 21
-80.158047
  0
LINE
  8
別途部材
  6
CONTINUOUS
 62
    47
 10
73.090345
 20
-78.59138
 11
73.090345
 21
-78.658047
  0
ARC
  8
別途部材
  6
CONTINUOUS
 62
    47
 10
72.990337
 20
-78.591382
 40
0.1
 50
0.0
 51
90.0
  0
LINE
  8
別途部材
  6
CONTINUOUS
 62
    47
 10
72.933822
 20
-78.658047
 11
72.933822
 21
-80.158047
  0
LINE
  8
別途部材
  6
CONTINUOUS
 62
    47
 10
-113.809667
 20
-78.49138
 11
-20.40966
 21
-78.49138
  0
LINE
  8
別途部材
  6
CONTINUOUS
 62
    47
 10
-113.909667
 20
-78.658047
 11
-20.40966
 21
-78.658047
  0
LINE
  8
別途部材
  6
CONTINUOUS
 62
    47
 10
-113.753145
 20
-80.158047
 11
-20.40966
 21
-80.158047
  0
LINE
  8
別途部材
  6
CONTINUOUS
 62
    47
 10
-114.839665
 20
-81.30805
 11
-20.40966
 21
-81.30805
  0
LINE
  8
別途部材
  6
CONTINUOUS
 62
    47
 10
-114.839665
 20
-82.474715
 11
-20.40966
 21
-82.474715
  0
LINE
  8
別途部材
  6
CONTINUOUS
 62
    47
 10
74.020342
 20
-82.474715
 11
-20.40966
 21
-82.474715
  0
LINE
  8
別途部材
  6
CONTINUOUS
 62
    47
 10
74.020342
 20
-81.30805
 11
-20.40966
 21
-81.30805
  0
LINE
  8
別途部材
  6
CONTINUOUS
 62
    47
 10
72.933822
 20
-80.158047
 11
-20.40966
 21
-80.158047
  0
LINE
  8
別途部材
  6
CONTINUOUS
 62
    47
 10
72.990345
 20
-78.49138
 11
-20.40966
 21
-78.49138
  0
LINE
  8
別途部材
  6
CONTINUOUS
 62
    47
 10
73.090345
 20
-78.658047
 11
-20.40966
 21
-78.658047
  0
LINE
  8
別途部材
  6
DOT
 62
    47
 10
-113.909667
 20
-66.924712
 11
-113.909667
 21
-66.99138
  0
ARC
  8
別途部材
  6
DOT
 62
    47
 10
-113.809665
 20
-66.924714
 40
0.1
 50
90.0
 51
180.0
  0
LINE
  8
別途部材
  6
DOT
 62
    47
 10
-113.753145
 20
-66.99138
 11
-113.753145
 21
-68.49138
  0
LINE
  8
別途部材
  6
DOT
 62
    47
 10
73.090345
 20
-66.924712
 11
73.090345
 21
-66.99138
  0
ARC
  8
別途部材
  6
DOT
 62
    47
 10
72.990337
 20
-66.924714
 40
0.1
 50
0.0
 51
90.0
  0
LINE
  8
別途部材
  6
DOT
 62
    47
 10
72.933822
 20
-66.99138
 11
72.933822
 21
-68.49138
  0
LINE
  8
別途部材
  6
DOT
 62
    47
 10
-114.839665
 20
-69.641382
 11
-20.40966
 21
-69.641382
  0
LINE
  8
別途部材
  6
DOT
 62
    47
 10
-113.753145
 20
-68.49138
 11
-20.40966
 21
-68.49138
  0
LINE
  8
別途部材
  6
DOT
 62
    47
 10
-113.809667
 20
-66.824712
 11
-20.40966
 21
-66.824712
  0
LINE
  8
別途部材
  6
DOT
 62
    47
 10
-113.909667
 20
-66.99138
 11
-20.40966
 21
-66.99138
  0
LINE
  8
別途部材
  6
DOT
 62
    47
 10
-114.839665
 20
-70.808047
 11
-20.40966
 21
-70.808047
  0
LINE
  8
別途部材
  6
DOT
 62
    47
 10
72.933822
 20
-68.49138
 11
-20.40966
 21
-68.49138
  0
LINE
  8
別途部材
  6
DOT
 62
    47
 10
74.020342
 20
-69.641382
 11
-20.40966
 21
-69.641382
  0
LINE
  8
別途部材
  6
DOT
 62
    47
 10
74.020342
 20
-70.808047
 11
-20.40966
 21
-70.808047
  0
LINE
  8
別途部材
  6
DOT
 62
    47
 10
73.090345
 20
-66.99138
 11
-20.40966
 21
-66.99138
  0
LINE
  8
別途部材
  6
DOT
 62
    47
 10
72.990345
 20
-66.824712
 11
-20.40966
 21
-66.824712
  0
LINE
  8
別途部材
  6
CONTINUOUS
 10
130.61023
 20
-63.20038
 11
130.61023
 21
-93.20038
  0
LINE
  8
曲げ物
  6
CONTINUOUS
 10
55.982738
 20
30.278377
 11
52.287425
 21
26.583065
  0
LINE
  8
曲げ物
  6
CONTINUOUS
 10
55.279268
 20
28.742267
 11
53.823538
 21
27.286537
  0
LINE
  8
曲げ物
  6
CONTINUOUS
 10
54.446628
 20
29.574907
 11
52.990898
 21
28.119177
  0
LINE
  8
曲げ物
  6
CONTINUOUS
 10
17.60514
 20
30.278377
 11
13.909828
 21
26.583065
  0
LINE
  8
曲げ物
  6
CONTINUOUS
 10
16.90167
 20
28.742267
 11
15.44594
 21
27.286537
  0
LINE
  8
曲げ物
  6
CONTINUOUS
 10
16.06903
 20
29.574907
 11
14.6133
 21
28.119177
  0
LINE
  8
曲げ物
  6
CONTINUOUS
 10
-18.822117
 20
30.278377
 11
-22.51743
 21
26.583065
  0
LINE
  8
曲げ物
  6
CONTINUOUS
 10
-19.525587
 20
28.742267
 11
-20.981318
 21
27.286537
  0
LINE
  8
曲げ物
  6
CONTINUOUS
 10
-20.358227
 20
29.574907
 11
-21.813958
 21
28.119177
  0
LINE
  8
曲げ物
  6
CONTINUOUS
 10
-55.09672
 20
30.278377
 11
-58.792033
 21
26.583065
  0
LINE
  8
曲げ物
  6
CONTINUOUS
 10
-55.80019
 20
28.742267
 11
-57.25592
 21
27.286537
  0
LINE
  8
曲げ物
  6
CONTINUOUS
 10
-56.63283
 20
29.574907
 11
-58.08856
 21
28.119177
  0
LINE
  8
曲げ物
  6
CONTINUOUS
 10
-91.20532
 20
30.278377
 11
-94.900633
 21
26.583065
  0
LINE
  8
曲げ物
  6
CONTINUOUS
 10
-91.90879
 20
28.742267
 11
-93.36452
 21
27.286537
  0
LINE
  8
曲げ物
  6
CONTINUOUS
 10
-92.74143
 20
29.574907
 11
-94.19716
 21
28.119177
  0
LINE
  8
曲げ物
  6
CONTINUOUS
 10
166.343563
 20
-63.20038
 11
130.61023
 21
-63.20038
  0
LINE
  8
曲げ物
  6
CONTINUOUS
 10
166.343563
 20
-93.20038
 11
130.61023
 21
-93.20038
  0
LINE
  8
曲げ物
  6
CONTINUOUS
 10
166.343563
 20
-63.20038
 11
166.343563
 21
-93.20038
  0
LINE
  8
鉄骨等
  6
CONTINUOUS
 62
    47
 10
164.157057
 20
46.162233
 11
162.990393
 21
46.162233
  0
LINE
  8
鉄骨等
  6
CONTINUOUS
 62
    47
 10
162.990393
 20
46.162233
 11
161.840393
 21
44.759045
  0
LINE
  8
鉄骨等
  6
CONTINUOUS
 62
    47
 10
164.157057
 20
10.63586
 11
162.990393
 21
10.63586
  0
LINE
  8
鉄骨等
  6
CONTINUOUS
 62
    47
 10
162.990393
 20
10.63586
 11
161.840393
 21
12.039045
  0
LINE
  8
鉄骨等
  6
DOT
 62
    47
 10
152.49039
 20
46.162233
 11
151.323725
 21
46.162233
  0
LINE
  8
鉄骨等
  6
DOT
 62
    47
 10
151.323725
 20
46.162233
 11
150.173725
 21
44.759045
  0
LINE
  8
鉄骨等
  6
DOT
 62
    47
 10
152.49039
 20
10.63586
 11
151.323725
 21
10.63586
  0
LINE
  8
鉄骨等
  6
DOT
 62
    47
 10
151.323725
 20
10.63586
 11
150.173725
 21
12.039045
  0
LINE
  8
鉄骨等
  6
CONTINUOUS
 62
    47
 10
-114.839665
 20
-82.474715
 11
-114.839665
 21
-81.30805
  0
LINE
  8
鉄骨等
  6
CONTINUOUS
 62
    47
 10
-114.839665
 20
-81.30805
 11
-113.43648
 21
-80.15805
  0
LINE
  8
鉄骨等
  6
CONTINUOUS
 62
    47
 10
74.020342
 20
-82.474715
 11
74.020342
 21
-81.30805
  0
LINE
  8
鉄骨等
  6
CONTINUOUS
 62
    47
 10
74.020342
 20
-81.30805
 11
72.617158
 21
-80.15805
  0
LINE
  8
鉄骨等
  6
DOT
 62
    47
 10
-114.839665
 20
-70.808047
 11
-114.839665
 21
-69.641382
  0
LINE
  8
鉄骨等
  6
DOT
 62
    47
 10
-114.839665
 20
-69.641382
 11
-113.43648
 21
-68.491382
  0
LINE
  8
鉄骨等
  6
DOT
 62
    47
 10
74.020342
 20
-70.808047
 11
74.020342
 21
-69.641382
  0
LINE
  8
鉄骨等
  6
DOT
 62
    47
 10
74.020342
 20
-69.641382
 11
72.617158
 21
-68.491382
  0
ENDSEC
  0
EOF
