  0
SECTION
  2
HEADER
  9
$EXTMIN
 10
-210.0
 20
-148.5
  9
$EXTMAX
 10
210.0
 20
148.5
  9
$PDMODE
 70
    32
  9
$PDSIZE
 40
1.5
  9
$LTSCALE
 40
10.0
  0
ENDSEC
  0
SECTION
  2
TABLES
  0
TABLE
  2
LTYPE
 70
    15
  0
LTYPE
  2
CONTINUOUS
 70
    64
  3
実線
 72
    65
 73
     0
 40
0.0
  0
LTYPE
  2
DASHED
 70
    64
  3
破線A
 72
    65
 73
     2
 40
0.6
 49
0.4
 49
-0.2
  0
LTYPE
  2
DASHEDX2
 70
    64
  3
破線B
 72
    65
 73
     2
 40
1.3
 49
0.9
 49
-0.4
  0
LTYPE
  2
DASHDOT
 70
    64
  3
１点鎖線A
 72
    65
 73
     4
 40
0.5375
 49
0.375
 49
-0.05
 49
0.0625
 49
-0.05
  0
LTYPE
  2
DASHDOTX2
 70
    64
  3
１点鎖線B
 72
    65
 73
     4
 40
1.075
 49
0.75
 49
-0.1
 49
0.125
 49
-0.1
  0
LTYPE
  2
DIVIDE2
 70
    64
  3
２点鎖線A
 72
    65
 73
     6
 40
0.5125
 49
0.3
 49
-0.0375
 49
0.05
 49
-0.0375
 49
0.05
 49
-0.0375
  0
LTYPE
  2
DIVIDE
 70
    64
  3
２点鎖線B
 72
    65
 73
     6
 40
1.05
 49
0.55
 49
-0.1
 49
0.1
 49
-0.1
 49
0.1
 49
-0.1
  0
LTYPE
  2
DOT
 70
    64
  3
点線A
 72
    65
 73
     2
 40
0.1125
 49
0.0625
 49
-0.05
  0
LTYPE
  2
DOTX2
 70
    64
  3
点線B
 72
    65
 73
     2
 40
0.275
 49
0.15
 49
-0.125
  0
LTYPE
  2
CONTINUOUS
 70
    64
  3
実線
 72
    65
 73
     0
 40
0.0
  0
LTYPE
  2
CONTINUOUS
 70
    64
  3
実線
 72
    65
 73
     0
 40
0.0
  0
LTYPE
  2
CONTINUOUS
 70
    64
  3
実線
 72
    65
 73
     0
 40
0.0
  0
LTYPE
  2
CONTINUOUS
 70
    64
  3
実線
 72
    65
 73
     0
 40
0.0
  0
LTYPE
  2
CONTINUOUS
 70
    64
  3
実線
 72
    65
 73
     0
 40
0.0
  0
LTYPE
  2
CONTINUOUS
 70
    64
  3
実線
 72
    65
 73
     0
 40
0.0
  0
ENDTAB
  0
TABLE
  2
LAYER
 70
    34
  0
LAYER
  2
通り芯
 70
     0
 62
    15
  6
CONTINUOUS
  0
LAYER
  2
補助線
 70
     0
 62
    16
  6
DOT
  0
LAYER
  2
躯体
 70
     0
 62
    31
  6
CONTINUOUS
  0
LAYER
  2
型材
 70
     0
 62
    32
  6
CONTINUOUS
  0
LAYER
  2
型材断面
 70
     0
 62
    47
  6
CONTINUOUS
  0
LAYER
  2
ガラス
 70
     0
 62
    48
  6
CONTINUOUS
  0
LAYER
  2
ゴム等
 70
     0
 62
    63
  6
CONTINUOUS
  0
LAYER
  2
ボルト／ビス
 70
     0
 62
    64
  6
CONTINUOUS
  0
LAYER
  2
文字
 70
     0
 62
    79
  6
CONTINUOUS
  0
LAYER
  2
寸法
 70
     0
 62
    80
  6
CONTINUOUS
  0
LAYER
  2
ﾊｯﾁﾝｸﾞ
 70
     0
 62
    95
  6
CONTINUOUS
  0
LAYER
  2
別途部材
 70
     0
 62
    96
  6
CONTINUOUS
  0
LAYER
  2
曲げ物
 70
     0
 62
   111
  6
CONTINUOUS
  0
LAYER
  2
鉄骨等
 70
     0
 62
   112
  6
CONTINUOUS
  0
LAYER
  2
St
 70
     0
 62
   127
  6
CONTINUOUS
  0
LAYER
  2
その他部品等
 70
     0
 62
   128
  6
CONTINUOUS
  0
LAYER
  2
ｶﾞｽｹｯﾄ
 70
     0
 62
   143
  6
CONTINUOUS
  0
LAYER
  2
ｽｹｯﾁ
 70
     0
 62
    14
  6
CONTINUOUS
  0
LAYER
  2
0
 70
     0
 62
    17
  6
CONTINUOUS
  0
LAYER
  2
1
 70
     0
 62
    30
  6
CONTINUOUS
  0
LAYER
  2
4
 70
     0
 62
    33
  6
CONTINUOUS
  0
LAYER
  2
ﾚｲﾔ3
 70
     0
 62
    46
  6
CONTINUOUS
  0
LAYER
  2
外形線
 70
     0
 62
    49
  6
CONTINUOUS
  0
LAYER
  2
部品
 70
     0
 62
    14
  6
CONTINUOUS
  0
LAYER
  2
サッシ芯
 70
     0
 62
    17
  6
DASHDOTX2
  0
LAYER
  2
寸法線
 70
     0
 62
    62
  6
CONTINUOUS
  0
LAYER
  2
姿図外形線
 70
     0
 62
    65
  6
CONTINUOUS
  0
LAYER
  2
姿補助線
 70
     0
 62
    30
  6
CONTINUOUS
  0
LAYER
  2
透視線
 70
     0
 62
    78
  6
DOT
  0
LAYER
  2
用紙
 70
     0
 62
    81
  6
CONTINUOUS
  0
LAYER
  2
実線図枠
 70
     0
 62
    94
  6
CONTINUOUS
  0
LAYER
  2
補助図枠
 70
     0
 62
    97
  6
CONTINUOUS
  0
LAYER
  2
建具記号
 70
     0
 62
   110
  6
CONTINUOUS
  0
LAYER
  2
補助文字
 70
     0
 62
   113
  6
CONTINUOUS
  0
ENDTAB
  0
TABLE
  2
STYLE
 70
    10
  0
STYLE
  2
STANDARD
 70
     0
 40
1.0
 41
1.0
 42
1.0
 50
0.0
 71
     0
  3
TXT
  4
BIGFONT
  0
STYLE
  2
TATE
 70
     4
 40
1.0
 41
1.0
 42
1.0
 50
0.0
 71
     0
  3
TXT
  4
BIGFONT
  0
STYLE
  2
TextStyle03
 70
     0
 40
1.0
 41
1.0
 42
1.0
 50
0.0
 71
     0
  3
MONOTXT
  4
BIGFONT
  0
STYLE
  2
TextStyle04
 70
     0
 40
1.0
 41
1.0
 42
1.0
 50
0.0
 71
     0
  3
MONOTXT
  4
BIGFONT
  0
STYLE
  2
TextStyle05
 70
     0
 40
1.0
 41
1.0
 42
1.0
 50
0.0
 71
     0
  3
MONOTXT
  4
BIGFONT
  0
STYLE
  2
TextStyle06
 70
     0
 40
1.0
 41
1.0
 42
1.0
 50
0.0
 71
     0
  3
MONOTXT
  4
BIGFONT
  0
STYLE
  2
TextStyle07
 70
     0
 40
1.0
 41
1.0
 42
1.0
 50
0.0
 71
     0
  3
MONOTXT
  4
BIGFONT
  0
STYLE
  2
TextStyle08
 70
     0
 40
1.0
 41
1.0
 42
1.0
 50
0.0
 71
     0
  3
MONOTXT
  4
BIGFONT
  0
STYLE
  2
TextStyle09
 70
     0
 40
1.0
 41
1.0
 42
1.0
 50
0.0
 71
     0
  3
MONOTXT
  4
BIGFONT
  0
STYLE
  2
TextStyle10
 70
     0
 40
1.0
 41
1.0
 42
1.0
 50
0.0
 71
     0
  3
MONOTXT
  4
BIGFONT
  0
ENDTAB
  0
ENDSEC
  0
SECTION
  2
BLOCKS
  0
BLOCK
  2
*GRP_0001
 70
    65
 10
0.0
 20
0.0
  0
LINE
  8
型材断面
  6
CONTINUOUS
 10
195.0
 20
133.5
 11
195.0
 21
-133.5
  0
LINE
  8
型材断面
  6
CONTINUOUS
 10
195.0
 20
-133.5
 11
-185.0
 21
-133.5
  0
LINE
  8
型材断面
  6
CONTINUOUS
 10
-185.0
 20
-133.5
 11
-185.0
 21
133.5
  0
LINE
  8
型材断面
  6
CONTINUOUS
 10
195.0
 20
133.5
 11
-185.0
 21
133.5
  0
LINE
  8
型材断面
  6
CONTINUOUS
 10
145.0
 20
-133.5
 11
145.0
 21
-118.5
  0
LINE
  8
型材断面
  6
CONTINUOUS
 10
195.0
 20
-118.5
 11
145.0
 21
-118.5
  0
ENDBLK
  0
BLOCK
  2
*DIM_0002
 70
    65
 10
0.0
 20
0.0
  0
LINE
  8
寸法
  6
BYBLOCK
 62
     0
 10
-112.076325
 20
9.768917
 11
-112.076325
 21
4.76842
  0
LINE
  8
寸法
  6
BYBLOCK
 62
     0
 10
-28.742993
 20
9.76892
 11
-28.742993
 21
4.76842
  0
LINE
  8
寸法
  6
BYBLOCK
 62
     0
 10
-112.076325
 20
4.76842
 11
-28.742993
 21
4.76842
  0
POINT
  8
寸法
 62
     0
 10
-112.076325
 20
4.76842
  0
POINT
  8
寸法
 62
     0
 10
-28.742993
 20
4.76842
  0
TEXT
  7
TextStyle03
  8
寸法
  6
CONTINUOUS
 62
     0
 10
-73.70625
 20
5.125
  1
2500
 40
3.0
 72
     5
 11
-67.14375
 21
5.125
  0
ENDBLK
  0
BLOCK
  2
*DIM_0003
 70
    65
 10
0.0
 20
0.0
  0
LINE
  8
寸法
  6
BYBLOCK
 62
     0
 10
54.59034
 20
9.768917
 11
54.59034
 21
4.76842
  0
LINE
  8
寸法
  6
BYBLOCK
 62
     0
 10
-28.742993
 20
4.76842
 11
54.59034
 21
4.76842
  0
POINT
  8
寸法
 62
     0
 10
54.59034
 20
4.76842
  0
TEXT
  7
TextStyle03
  8
寸法
  6
CONTINUOUS
 62
     0
 10
9.61875
 20
5.125
  1
2500
 40
3.0
 72
     5
 11
16.18125
 21
5.125
  0
ENDBLK
  0
BLOCK
  2
*DIM_0004
 70
    65
 10
0.0
 20
0.0
  0
LINE
  8
寸法
  6
BYBLOCK
 62
     0
 10
72.257007
 20
43.39905
 11
81.98129
 21
43.39905
  0
LINE
  8
寸法
  6
BYBLOCK
 62
     0
 10
74.887138
 20
39.69905
 11
81.98129
 21
39.69905
  0
LINE
  8
寸法
  6
BYBLOCK
 62
     0
 10
81.98129
 20
43.39905
 11
81.98129
 21
39.69905
  0
POINT
  8
寸法
 62
     0
 10
81.98129
 20
43.39905
  0
POINT
  8
寸法
 62
     0
 10
81.98129
 20
39.69905
  0
TEXT
  7
TextStyle03
  8
寸法
  6
CONTINUOUS
 62
     0
 10
81.65
 20
44.4125
  1
111
 40
3.0
 50
90.0
 72
     5
 11
81.65
 21
49.2875
  0
ENDBLK
  0
BLOCK
  2
*DIM_0005
 70
    65
 10
0.0
 20
0.0
  0
LINE
  8
寸法
  6
BYBLOCK
 62
     0
 10
72.257007
 20
13.399045
 11
81.98129
 21
13.399042
  0
LINE
  8
寸法
  6
BYBLOCK
 62
     0
 10
74.887138
 20
17.099045
 11
81.98129
 21
17.099042
  0
LINE
  8
寸法
  6
BYBLOCK
 62
     0
 10
81.98129
 20
13.399042
 11
81.98129
 21
17.099042
  0
POINT
  8
寸法
 62
     0
 10
81.98129
 20
13.399042
  0
POINT
  8
寸法
 62
     0
 10
81.98129
 20
17.099042
  0
TEXT
  7
TextStyle03
  8
寸法
  6
CONTINUOUS
 62
     0
 10
81.65
 20
7.5375
  1
111
 40
3.0
 50
90.0
 72
     5
 11
81.65
 21
12.4125
  0
ENDBLK
  0
BLOCK
  2
*DIM_0006
 70
    65
 10
0.0
 20
0.0
  0
LINE
  8
寸法
  6
BYBLOCK
 62
     0
 10
-131.742993
 20
38.399048
 11
-145.03583
 21
38.399048
  0
LINE
  8
寸法
  6
BYBLOCK
 62
     0
 10
-131.742993
 20
18.399048
 11
-145.03583
 21
18.399048
  0
LINE
  8
寸法
  6
BYBLOCK
 62
     0
 10
-145.03583
 20
38.399048
 11
-145.03583
 21
18.399048
  0
POINT
  8
寸法
 62
     0
 10
-145.03583
 20
38.399048
  0
POINT
  8
寸法
 62
     0
 10
-145.03583
 20
18.399048
  0
TEXT
  7
TextStyle03
  8
寸法
  6
CONTINUOUS
 62
     0
 10
-145.375
 20
25.9625
  1
600
 40
3.0
 50
90.0
 72
     5
 11
-145.375
 21
30.8375
  0
ENDBLK
  0
BLOCK
  2
*DIM_0007
 70
    65
 10
0.0
 20
0.0
  0
LINE
  8
寸法
  6
BYBLOCK
 62
     0
 10
-122.076325
 20
46.399048
 11
-122.076325
 21
75.50712
  0
LINE
  8
寸法
  6
BYBLOCK
 62
     0
 10
-98.742993
 20
46.399048
 11
-98.742993
 21
75.50712
  0
LINE
  8
寸法
  6
BYBLOCK
 62
     0
 10
-122.076325
 20
75.50712
 11
-98.742993
 21
75.50712
  0
POINT
  8
寸法
 62
     0
 10
-122.076325
 20
75.50712
  0
POINT
  8
寸法
 62
     0
 10
-98.742993
 20
75.50712
  0
TEXT
  7
TextStyle03
  8
寸法
  6
CONTINUOUS
 62
     0
 10
-112.8625
 20
75.875
  1
700
 40
3.0
 72
     5
 11
-107.9875
 21
75.875
  0
ENDBLK
  0
BLOCK
  2
*DIM_0008
 70
    65
 10
0.0
 20
0.0
  0
LINE
  8
寸法
  6
BYBLOCK
 62
     0
 10
-75.40966
 20
46.399048
 11
-75.40966
 21
75.50712
  0
LINE
  8
寸法
  6
BYBLOCK
 62
     0
 10
-98.742993
 20
75.50712
 11
-75.40966
 21
75.50712
  0
POINT
  8
寸法
 62
     0
 10
-75.40966
 20
75.50712
  0
TEXT
  7
TextStyle03
  8
寸法
  6
CONTINUOUS
 62
     0
 10
-89.5375
 20
75.875
  1
700
 40
3.0
 72
     5
 11
-84.6625
 21
75.875
  0
ENDBLK
  0
BLOCK
  2
*DIM_0009
 70
    65
 10
0.0
 20
0.0
  0
LINE
  8
寸法
  6
BYBLOCK
 62
     0
 10
-52.076325
 20
46.399048
 11
-52.076325
 21
75.50712
  0
LINE
  8
寸法
  6
BYBLOCK
 62
     0
 10
-75.40966
 20
75.50712
 11
-52.076325
 21
75.50712
  0
POINT
  8
寸法
 62
     0
 10
-52.076325
 20
75.50712
  0
TEXT
  7
TextStyle03
  8
寸法
  6
CONTINUOUS
 62
     0
 10
-66.1875
 20
75.875
  1
700
 40
3.0
 72
     5
 11
-61.3125
 21
75.875
  0
ENDBLK
  0
BLOCK
  2
*DIM_0010
 70
    65
 10
0.0
 20
0.0
  0
LINE
  8
寸法
  6
BYBLOCK
 62
     0
 10
-28.742993
 20
46.399048
 11
-28.742993
 21
75.50712
  0
LINE
  8
寸法
  6
BYBLOCK
 62
     0
 10
-52.076325
 20
75.50712
 11
-28.742993
 21
75.50712
  0
POINT
  8
寸法
 62
     0
 10
-28.742993
 20
75.50712
  0
TEXT
  7
TextStyle03
  8
寸法
  6
CONTINUOUS
 62
     0
 10
-42.8625
 20
75.875
  1
700
 40
3.0
 72
     5
 11
-37.9875
 21
75.875
  0
ENDBLK
  0
BLOCK
  2
*DIM_0011
 70
    65
 10
0.0
 20
0.0
  0
LINE
  8
寸法
  6
BYBLOCK
 62
     0
 10
-5.40966
 20
46.399048
 11
-5.40966
 21
75.50712
  0
LINE
  8
寸法
  6
BYBLOCK
 62
     0
 10
-28.742993
 20
75.50712
 11
-5.40966
 21
75.50712
  0
POINT
  8
寸法
 62
     0
 10
-5.40966
 20
75.50712
  0
TEXT
  7
TextStyle03
  8
寸法
  6
CONTINUOUS
 62
     0
 10
-19.5375
 20
75.875
  1
700
 40
3.0
 72
     5
 11
-14.6625
 21
75.875
  0
ENDBLK
  0
BLOCK
  2
*DIM_0012
 70
    65
 10
0.0
 20
0.0
  0
LINE
  8
寸法
  6
BYBLOCK
 62
     0
 10
17.923675
 20
46.399048
 11
17.923675
 21
75.50712
  0
LINE
  8
寸法
  6
BYBLOCK
 62
     0
 10
-5.40966
 20
75.50712
 11
17.923675
 21
75.50712
  0
POINT
  8
寸法
 62
     0
 10
17.923675
 20
75.50712
  0
TEXT
  7
TextStyle03
  8
寸法
  6
CONTINUOUS
 62
     0
 10
3.8125
 20
75.875
  1
700
 40
3.0
 72
     5
 11
8.6875
 21
75.875
  0
ENDBLK
  0
BLOCK
  2
*DIM_0013
 70
    65
 10
0.0
 20
0.0
  0
LINE
  8
寸法
  6
BYBLOCK
 62
     0
 10
41.257007
 20
46.399048
 11
41.257007
 21
75.50712
  0
LINE
  8
寸法
  6
BYBLOCK
 62
     0
 10
17.923675
 20
75.50712
 11
41.257007
 21
75.50712
  0
POINT
  8
寸法
 62
     0
 10
41.257007
 20
75.50712
  0
TEXT
  7
TextStyle03
  8
寸法
  6
CONTINUOUS
 62
     0
 10
27.1375
 20
75.875
  1
700
 40
3.0
 72
     5
 11
32.0125
 21
75.875
  0
ENDBLK
  0
BLOCK
  2
*DIM_0014
 70
    65
 10
0.0
 20
0.0
  0
LINE
  8
寸法
  6
BYBLOCK
 62
     0
 10
64.59034
 20
46.399048
 11
64.59034
 21
75.50712
  0
LINE
  8
寸法
  6
BYBLOCK
 62
     0
 10
41.257007
 20
75.50712
 11
64.59034
 21
75.50712
  0
POINT
  8
寸法
 62
     0
 10
64.59034
 20
75.50712
  0
TEXT
  7
TextStyle03
  8
寸法
  6
CONTINUOUS
 62
     0
 10
50.4625
 20
75.875
  1
700
 40
3.0
 72
     5
 11
55.3375
 21
75.875
  0
ENDBLK
  0
BLOCK
  2
*DIM_0015
 70
    65
 10
0.0
 20
0.0
  0
LINE
  8
寸法
  6
CONTINUOUS
 10
105.276657
 20
46.162233
 11
105.276657
 21
43.399048
  0
POINT
  8
寸法
 10
105.276657
 20
46.162233
  0
POINT
  8
寸法
 10
105.276657
 20
43.399048
  0
TEXT
  7
TextStyle03
  8
寸法
  6
CONTINUOUS
 10
106.65
 20
47.24375
  1
82.9
 40
3.0
 50
90.0
 72
     5
 11
106.65
 21
53.80625
  0
ENDBLK
  0
BLOCK
  2
*DIM_0016
 70
    65
 10
0.0
 20
0.0
  0
LINE
  8
寸法
  6
CONTINUOUS
 10
105.276657
 20
13.399048
 11
105.276657
 21
10.63586
  0
POINT
  8
寸法
 10
105.276657
 20
13.399048
  0
POINT
  8
寸法
 10
105.276657
 20
10.63586
  0
TEXT
  7
TextStyle03
  8
寸法
  6
CONTINUOUS
 10
106.65
 20
3.01875
  1
82.9
 40
3.0
 50
90.0
 72
     5
 11
106.65
 21
9.58125
  0
ENDBLK
  0
BLOCK
  2
*DIM_0017
 70
    65
 10
0.0
 20
0.0
  0
LINE
  8
寸法
  6
CONTINUOUS
 10
105.276657
 20
43.399048
 11
105.276657
 21
13.399048
  0
POINT
  8
寸法
 10
105.276657
 20
43.399048
  0
POINT
  8
寸法
 10
105.276657
 20
13.399048
  0
TEXT
  7
TextStyle03
  8
寸法
  6
CONTINUOUS
 10
104.85
 20
17.525
  1
呼称寸法　900
 40
3.0
 50
90.0
 72
     5
 11
104.85
 21
39.275
  0
ENDBLK
  0
BLOCK
  2
*DIM_0018
 70
    65
 10
0.0
 20
0.0
  0
LINE
  8
寸法
  6
CONTINUOUS
 10
-128.742998
 20
-22.024302
 11
-131.50633
 21
-22.024302
  0
POINT
  8
寸法
 10
-128.742998
 20
-22.024302
  0
POINT
  8
寸法
 10
-131.50633
 20
-22.024302
  0
TEXT
  7
TextStyle03
  8
寸法
  6
CONTINUOUS
 10
-136.08125
 20
-21.075
  1
82.9
 40
3.0
 72
     5
 11
-129.51875
 21
-21.075
  0
ENDBLK
  0
BLOCK
  2
*DIM_0019
 70
    65
 10
0.0
 20
0.0
  0
LINE
  8
寸法
  6
CONTINUOUS
 10
74.020345
 20
-22.024302
 11
71.25701
 21
-22.024302
  0
POINT
  8
寸法
 10
74.020345
 20
-22.024302
  0
POINT
  8
寸法
 10
71.25701
 20
-22.024302
  0
TEXT
  7
TextStyle03
  8
寸法
  6
CONTINUOUS
 10
72.24375
 20
-21.125
  1
82.9
 40
3.0
 72
     5
 11
78.80625
 21
-21.125
  0
ENDBLK
  0
BLOCK
  2
*DIM_0020
 70
    65
 10
0.0
 20
0.0
  0
LINE
  8
寸法
  6
CONTINUOUS
 10
-128.742998
 20
-22.024302
 11
71.257003
 21
-22.024302
  0
POINT
  8
寸法
 10
-128.742998
 20
-22.024302
  0
POINT
  8
寸法
 10
71.257003
 20
-22.024302
  0
TEXT
  7
TextStyle03
  8
寸法
  6
CONTINUOUS
 10
-40.46875
 20
-21.65
  1
呼称寸法　6000
 40
3.0
 72
     5
 11
-17.03125
 21
-21.65
  0
ENDBLK
  0
BLOCK
  2
*GRP_0021
 70
    65
 10
0.0
 20
0.0
  0
LINE
  8
補助線
  6
BYBLOCK
 62
    64
 10
-125.345913
 20
-84.08889
 11
-125.473398
 21
-84.19625
  0
LINE
  8
補助線
  6
BYBLOCK
 62
    64
 10
-125.463335
 20
-84.078825
 11
-125.355975
 21
-84.206312
  0
LINE
  8
補助線
  6
BYBLOCK
 62
    64
 10
-116.855495
 20
-76.938868
 11
-116.98298
 21
-77.046223
  0
LINE
  8
補助線
  6
BYBLOCK
 62
    64
 10
-116.972918
 20
-76.928802
 11
-116.865557
 21
-77.056285
  0
LINE
  8
補助線
  6
BYBLOCK
 62
    64
 10
-108.49256
 20
-69.896198
 11
-108.365078
 21
-69.78884
  0
LINE
  8
補助線
  6
BYBLOCK
 62
    64
 10
-108.4825
 20
-69.778775
 11
-108.37514
 21
-69.906262
  0
LINE
  8
型材断面
  6
CONTINUOUS
 10
-126.20141
 20
-83.719867
 11
-126.261788
 21
-84.424392
  0
LINE
  8
型材断面
  6
CONTINUOUS
 10
-126.261788
 20
-84.424392
 11
-125.832355
 21
-84.934328
  0
LINE
  8
型材断面
  6
CONTINUOUS
 10
-125.832355
 20
-84.934328
 11
-125.12783
 21
-84.994705
  0
LINE
  8
型材断面
  6
CONTINUOUS
 10
-108.710642
 20
-68.990387
 11
-108.006117
 21
-69.050765
  0
LINE
  8
型材断面
  6
CONTINUOUS
 10
-108.006117
 20
-69.050765
 11
-107.576685
 21
-69.5607
  0
LINE
  8
型材断面
  6
CONTINUOUS
 10
-107.576685
 20
-69.5607
 11
-107.637062
 21
-70.265225
  0
LINE
  8
型材断面
  6
CONTINUOUS
 10
-126.20141
 20
-83.719867
 11
-108.710642
 21
-68.990387
  0
LINE
  8
型材断面
  6
CONTINUOUS
 10
-125.12783
 20
-84.994705
 11
-107.637062
 21
-70.265225
  0
CIRCLE
  8
ボルト／ビス
  6
CONTINUOUS
 10
-125.409655
 20
-84.14257
 40
0.250185
  0
CIRCLE
  8
ボルト／ビス
  6
CONTINUOUS
 10
-125.409655
 20
-84.14257
 40
0.301025
  0
LINE
  8
ボルト／ビス
  6
CONTINUOUS
 62
    64
 10
-125.655962
 20
-84.186453
 11
-125.57081
 21
-83.951205
  0
LINE
  8
ボルト／ビス
  6
CONTINUOUS
 62
    64
 10
-125.324503
 20
-83.90732
 11
-125.57081
 21
-83.951205
  0
LINE
  8
ボルト／ビス
  6
CONTINUOUS
 62
    64
 10
-125.494808
 20
-84.37782
 11
-125.2485
 21
-84.333935
  0
LINE
  8
ボルト／ビス
  6
CONTINUOUS
 62
    64
 10
-125.163347
 20
-84.098687
 11
-125.2485
 21
-84.333935
  0
LINE
  8
ボルト／ビス
  6
CONTINUOUS
 62
    64
 10
-125.655962
 20
-84.186453
 11
-125.494808
 21
-84.37782
  0
LINE
  8
ボルト／ビス
  6
CONTINUOUS
 62
    64
 10
-125.324503
 20
-83.90732
 11
-125.163347
 21
-84.098687
  0
CIRCLE
  8
ボルト／ビス
  6
CONTINUOUS
 62
    64
 10
-125.409655
 20
-84.14257
 40
0.216668
  0
CIRCLE
  8
ボルト／ビス
  6
CONTINUOUS
 10
-116.919237
 20
-76.992545
 40
0.250185
  0
CIRCLE
  8
ボルト／ビス
  6
CONTINUOUS
 10
-116.919237
 20
-76.992545
 40
0.301025
  0
LINE
  8
ボルト／ビス
  6
CONTINUOUS
 62
    64
 10
-117.165545
 20
-77.036427
 11
-117.080393
 21
-76.801177
  0
LINE
  8
ボルト／ビス
  6
CONTINUOUS
 62
    64
 10
-116.834085
 20
-76.757295
 11
-117.080393
 21
-76.801177
  0
LINE
  8
ボルト／ビス
  6
CONTINUOUS
 62
    64
 10
-117.00439
 20
-77.227795
 11
-116.75808
 21
-77.183913
  0
LINE
  8
ボルト／ビス
  6
CONTINUOUS
 62
    64
 10
-116.67293
 20
-76.948665
 11
-116.75808
 21
-77.183913
  0
LINE
  8
ボルト／ビス
  6
CONTINUOUS
 62
    64
 10
-117.165545
 20
-77.036427
 11
-117.00439
 21
-77.227795
  0
LINE
  8
ボルト／ビス
  6
CONTINUOUS
 62
    64
 10
-116.834085
 20
-76.757295
 11
-116.67293
 21
-76.948665
  0
CIRCLE
  8
ボルト／ビス
  6
CONTINUOUS
 62
    64
 10
-116.919237
 20
-76.992545
 40
0.216668
  0
CIRCLE
  8
ボルト／ビス
  6
CONTINUOUS
 10
-108.428817
 20
-69.84252
 40
0.250185
  0
CIRCLE
  8
ボルト／ビス
  6
CONTINUOUS
 10
-108.428817
 20
-69.84252
 40
0.301025
  0
LINE
  8
ボルト／ビス
  6
CONTINUOUS
 62
    64
 10
-108.343665
 20
-69.60727
 11
-108.589975
 21
-69.651155
  0
LINE
  8
ボルト／ビス
  6
CONTINUOUS
 62
    64
 10
-108.675127
 20
-69.886402
 11
-108.589975
 21
-69.651155
  0
LINE
  8
ボルト／ビス
  6
CONTINUOUS
 62
    64
 10
-108.182513
 20
-69.798638
 11
-108.267663
 21
-70.033885
  0
LINE
  8
ボルト／ビス
  6
CONTINUOUS
 62
    64
 10
-108.513972
 20
-70.07777
 11
-108.267663
 21
-70.033885
  0
LINE
  8
ボルト／ビス
  6
CONTINUOUS
 62
    64
 10
-108.343665
 20
-69.60727
 11
-108.182513
 21
-69.798638
  0
LINE
  8
ボルト／ビス
  6
CONTINUOUS
 62
    64
 10
-108.675127
 20
-69.886402
 11
-108.513972
 21
-70.07777
  0
CIRCLE
  8
ボルト／ビス
  6
CONTINUOUS
 62
    64
 10
-108.428817
 20
-69.84252
 40
0.216668
  0
ENDBLK
  0
BLOCK
  2
*GRP_0022
 70
    65
 10
0.0
 20
0.0
  0
LINE
  8
補助線
  6
BYBLOCK
 62
    64
 10
-108.492562
 20
-84.08889
 11
-108.365078
 21
-84.19625
  0
LINE
  8
補助線
  6
BYBLOCK
 62
    64
 10
-108.37514
 20
-84.078825
 11
-108.4825
 21
-84.206312
  0
LINE
  8
補助線
  6
BYBLOCK
 62
    64
 10
-116.98298
 20
-76.938868
 11
-116.855495
 21
-77.046223
  0
LINE
  8
補助線
  6
BYBLOCK
 62
    64
 10
-116.865557
 20
-76.928802
 11
-116.972918
 21
-77.056285
  0
LINE
  8
補助線
  6
BYBLOCK
 62
    64
 10
-125.345915
 20
-69.896198
 11
-125.473398
 21
-69.78884
  0
LINE
  8
補助線
  6
BYBLOCK
 62
    64
 10
-125.355975
 20
-69.778775
 11
-125.463335
 21
-69.906262
  0
LINE
  8
型材断面
  6
CONTINUOUS
 10
-107.637065
 20
-83.719867
 11
-107.576688
 21
-84.424392
  0
LINE
  8
型材断面
  6
CONTINUOUS
 10
-107.576688
 20
-84.424392
 11
-108.00612
 21
-84.934328
  0
LINE
  8
型材断面
  6
CONTINUOUS
 10
-108.00612
 20
-84.934328
 11
-108.710645
 21
-84.994705
  0
LINE
  8
型材断面
  6
CONTINUOUS
 10
-125.127833
 20
-68.990387
 11
-125.832358
 21
-69.050765
  0
LINE
  8
型材断面
  6
CONTINUOUS
 10
-125.832358
 20
-69.050765
 11
-126.26179
 21
-69.5607
  0
LINE
  8
型材断面
  6
CONTINUOUS
 10
-126.26179
 20
-69.5607
 11
-126.201412
 21
-70.265225
  0
LINE
  8
型材断面
  6
CONTINUOUS
 10
-107.637065
 20
-83.719867
 11
-125.127833
 21
-68.990387
  0
LINE
  8
型材断面
  6
CONTINUOUS
 10
-108.710645
 20
-84.994705
 11
-126.201412
 21
-70.265225
  0
CIRCLE
  8
ボルト／ビス
  6
CONTINUOUS
 10
-108.42882
 20
-84.14257
 40
0.250185
  0
CIRCLE
  8
ボルト／ビス
  6
CONTINUOUS
 10
-108.42882
 20
-84.14257
 40
0.301025
  0
LINE
  8
ボルト／ビス
  6
CONTINUOUS
 62
    64
 10
-108.182513
 20
-84.186453
 11
-108.267665
 21
-83.951205
  0
LINE
  8
ボルト／ビス
  6
CONTINUOUS
 62
    64
 10
-108.513972
 20
-83.90732
 11
-108.267665
 21
-83.951205
  0
LINE
  8
ボルト／ビス
  6
CONTINUOUS
 62
    64
 10
-108.343668
 20
-84.37782
 11
-108.589975
 21
-84.333935
  0
LINE
  8
ボルト／ビス
  6
CONTINUOUS
 62
    64
 10
-108.675127
 20
-84.098687
 11
-108.589975
 21
-84.333935
  0
LINE
  8
ボルト／ビス
  6
CONTINUOUS
 62
    64
 10
-108.182513
 20
-84.186453
 11
-108.343668
 21
-84.37782
  0
LINE
  8
ボルト／ビス
  6
CONTINUOUS
 62
    64
 10
-108.513972
 20
-83.90732
 11
-108.675127
 21
-84.098687
  0
CIRCLE
  8
ボルト／ビス
  6
CONTINUOUS
 62
    64
 10
-108.42882
 20
-84.14257
 40
0.216668
  0
CIRCLE
  8
ボルト／ビス
  6
CONTINUOUS
 10
-116.919237
 20
-76.992545
 40
0.250185
  0
CIRCLE
  8
ボルト／ビス
  6
CONTINUOUS
 10
-116.919237
 20
-76.992545
 40
0.301025
  0
LINE
  8
ボルト／ビス
  6
CONTINUOUS
 62
    64
 10
-116.67293
 20
-77.036427
 11
-116.758083
 21
-76.801177
  0
LINE
  8
ボルト／ビス
  6
CONTINUOUS
 62
    64
 10
-117.00439
 20
-76.757295
 11
-116.758083
 21
-76.801177
  0
LINE
  8
ボルト／ビス
  6
CONTINUOUS
 62
    64
 10
-116.834085
 20
-77.227795
 11
-117.080395
 21
-77.183913
  0
LINE
  8
ボルト／ビス
  6
CONTINUOUS
 62
    64
 10
-117.165545
 20
-76.948665
 11
-117.080395
 21
-77.183913
  0
LINE
  8
ボルト／ビス
  6
CONTINUOUS
 62
    64
 10
-116.67293
 20
-77.036427
 11
-116.834085
 21
-77.227795
  0
LINE
  8
ボルト／ビス
  6
CONTINUOUS
 62
    64
 10
-117.00439
 20
-76.757295
 11
-117.165545
 21
-76.948665
  0
CIRCLE
  8
ボルト／ビス
  6
CONTINUOUS
 62
    64
 10
-116.919237
 20
-76.992545
 40
0.216668
  0
CIRCLE
  8
ボルト／ビス
  6
CONTINUOUS
 10
-125.409657
 20
-69.84252
 40
0.250185
  0
CIRCLE
  8
ボルト／ビス
  6
CONTINUOUS
 10
-125.409657
 20
-69.84252
 40
0.301025
  0
LINE
  8
ボルト／ビス
  6
CONTINUOUS
 62
    64
 10
-125.49481
 20
-69.60727
 11
-125.2485
 21
-69.651155
  0
LINE
  8
ボルト／ビス
  6
CONTINUOUS
 62
    64
 10
-125.163347
 20
-69.886402
 11
-125.2485
 21
-69.651155
  0
LINE
  8
ボルト／ビス
  6
CONTINUOUS
 62
    64
 10
-125.655962
 20
-69.798638
 11
-125.570813
 21
-70.033885
  0
LINE
  8
ボルト／ビス
  6
CONTINUOUS
 62
    64
 10
-125.324503
 20
-70.07777
 11
-125.570813
 21
-70.033885
  0
LINE
  8
ボルト／ビス
  6
CONTINUOUS
 62
    64
 10
-125.49481
 20
-69.60727
 11
-125.655962
 21
-69.798638
  0
LINE
  8
ボルト／ビス
  6
CONTINUOUS
 62
    64
 10
-125.163347
 20
-69.886402
 11
-125.324503
 21
-70.07777
  0
CIRCLE
  8
ボルト／ビス
  6
CONTINUOUS
 62
    64
 10
-125.409657
 20
-69.84252
 40
0.216668
  0
ENDBLK
  0
BLOCK
  2
*GRP_0023
 70
    65
 10
0.0
 20
0.0
  0
LINE
  8
補助線
  6
BYBLOCK
 62
    64
 10
67.859937
 20
-84.08889
 11
67.987422
 21
-84.19625
  0
LINE
  8
補助線
  6
BYBLOCK
 62
    64
 10
67.97736
 20
-84.078825
 11
67.87
 21
-84.206312
  0
LINE
  8
補助線
  6
BYBLOCK
 62
    64
 10
59.36952
 20
-76.938868
 11
59.497005
 21
-77.046223
  0
LINE
  8
補助線
  6
BYBLOCK
 62
    64
 10
59.486943
 20
-76.928802
 11
59.379582
 21
-77.056285
  0
LINE
  8
補助線
  6
BYBLOCK
 62
    64
 10
51.006585
 20
-69.896198
 11
50.879103
 21
-69.78884
  0
LINE
  8
補助線
  6
BYBLOCK
 62
    64
 10
50.996525
 20
-69.778775
 11
50.889165
 21
-69.906262
  0
LINE
  8
型材断面
  6
CONTINUOUS
 10
68.715435
 20
-83.719867
 11
68.775813
 21
-84.424392
  0
LINE
  8
型材断面
  6
CONTINUOUS
 10
68.775813
 20
-84.424392
 11
68.34638
 21
-84.934328
  0
LINE
  8
型材断面
  6
CONTINUOUS
 10
68.34638
 20
-84.934328
 11
67.641855
 21
-84.994705
  0
LINE
  8
型材断面
  6
CONTINUOUS
 10
51.224668
 20
-68.990387
 11
50.520142
 21
-69.050765
  0
LINE
  8
型材断面
  6
CONTINUOUS
 10
50.520142
 20
-69.050765
 11
50.09071
 21
-69.5607
  0
LINE
  8
型材断面
  6
CONTINUOUS
 10
50.09071
 20
-69.5607
 11
50.151087
 21
-70.265225
  0
LINE
  8
型材断面
  6
CONTINUOUS
 10
68.715435
 20
-83.719867
 11
51.224668
 21
-68.990387
  0
LINE
  8
型材断面
  6
CONTINUOUS
 10
67.641855
 20
-84.994705
 11
50.151087
 21
-70.265225
  0
CIRCLE
  8
ボルト／ビス
  6
CONTINUOUS
 10
67.92368
 20
-84.14257
 40
0.250185
  0
CIRCLE
  8
ボルト／ビス
  6
CONTINUOUS
 10
67.92368
 20
-84.14257
 40
0.301025
  0
LINE
  8
ボルト／ビス
  6
CONTINUOUS
 62
    64
 10
68.169988
 20
-84.186453
 11
68.084835
 21
-83.951205
  0
LINE
  8
ボルト／ビス
  6
CONTINUOUS
 62
    64
 10
67.838528
 20
-83.90732
 11
68.084835
 21
-83.951205
  0
LINE
  8
ボルト／ビス
  6
CONTINUOUS
 62
    64
 10
68.008833
 20
-84.37782
 11
67.762525
 21
-84.333935
  0
LINE
  8
ボルト／ビス
  6
CONTINUOUS
 62
    64
 10
67.677372
 20
-84.098687
 11
67.762525
 21
-84.333935
  0
LINE
  8
ボルト／ビス
  6
CONTINUOUS
 62
    64
 10
68.169988
 20
-84.186453
 11
68.008833
 21
-84.37782
  0
LINE
  8
ボルト／ビス
  6
CONTINUOUS
 62
    64
 10
67.838528
 20
-83.90732
 11
67.677372
 21
-84.098687
  0
CIRCLE
  8
ボルト／ビス
  6
CONTINUOUS
 62
    64
 10
67.92368
 20
-84.14257
 40
0.216668
  0
CIRCLE
  8
ボルト／ビス
  6
CONTINUOUS
 10
59.433262
 20
-76.992545
 40
0.250185
  0
CIRCLE
  8
ボルト／ビス
  6
CONTINUOUS
 10
59.433262
 20
-76.992545
 40
0.301025
  0
LINE
  8
ボルト／ビス
  6
CONTINUOUS
 62
    64
 10
59.67957
 20
-77.036427
 11
59.594418
 21
-76.801177
  0
LINE
  8
ボルト／ビス
  6
CONTINUOUS
 62
    64
 10
59.34811
 20
-76.757295
 11
59.594418
 21
-76.801177
  0
LINE
  8
ボルト／ビス
  6
CONTINUOUS
 62
    64
 10
59.518415
 20
-77.227795
 11
59.272105
 21
-77.183913
  0
LINE
  8
ボルト／ビス
  6
CONTINUOUS
 62
    64
 10
59.186955
 20
-76.948665
 11
59.272105
 21
-77.183913
  0
LINE
  8
ボルト／ビス
  6
CONTINUOUS
 62
    64
 10
59.67957
 20
-77.036427
 11
59.518415
 21
-77.227795
  0
LINE
  8
ボルト／ビス
  6
CONTINUOUS
 62
    64
 10
59.34811
 20
-76.757295
 11
59.186955
 21
-76.948665
  0
CIRCLE
  8
ボルト／ビス
  6
CONTINUOUS
 62
    64
 10
59.433262
 20
-76.992545
 40
0.216668
  0
CIRCLE
  8
ボルト／ビス
  6
CONTINUOUS
 10
50.942843
 20
-69.84252
 40
0.250185
  0
CIRCLE
  8
ボルト／ビス
  6
CONTINUOUS
 10
50.942843
 20
-69.84252
 40
0.301025
  0
LINE
  8
ボルト／ビス
  6
CONTINUOUS
 62
    64
 10
50.85769
 20
-69.60727
 11
51.104
 21
-69.651155
  0
LINE
  8
ボルト／ビス
  6
CONTINUOUS
 62
    64
 10
51.189152
 20
-69.886402
 11
51.104
 21
-69.651155
  0
LINE
  8
ボルト／ビス
  6
CONTINUOUS
 62
    64
 10
50.696537
 20
-69.798638
 11
50.781688
 21
-70.033885
  0
LINE
  8
ボルト／ビス
  6
CONTINUOUS
 62
    64
 10
51.027997
 20
-70.07777
 11
50.781688
 21
-70.033885
  0
LINE
  8
ボルト／ビス
  6
CONTINUOUS
 62
    64
 10
50.85769
 20
-69.60727
 11
50.696537
 21
-69.798638
  0
LINE
  8
ボルト／ビス
  6
CONTINUOUS
 62
    64
 10
51.189152
 20
-69.886402
 11
51.027997
 21
-70.07777
  0
CIRCLE
  8
ボルト／ビス
  6
CONTINUOUS
 62
    64
 10
50.942843
 20
-69.84252
 40
0.216668
  0
ENDBLK
  0
BLOCK
  2
*GRP_0024
 70
    65
 10
0.0
 20
0.0
  0
LINE
  8
補助線
  6
BYBLOCK
 62
    64
 10
51.006588
 20
-84.08889
 11
50.879103
 21
-84.19625
  0
LINE
  8
補助線
  6
BYBLOCK
 62
    64
 10
50.889165
 20
-84.078825
 11
50.996525
 21
-84.206312
  0
LINE
  8
補助線
  6
BYBLOCK
 62
    64
 10
59.497005
 20
-76.938868
 11
59.36952
 21
-77.046223
  0
LINE
  8
補助線
  6
BYBLOCK
 62
    64
 10
59.379582
 20
-76.928802
 11
59.486943
 21
-77.056285
  0
LINE
  8
補助線
  6
BYBLOCK
 62
    64
 10
67.85994
 20
-69.896198
 11
67.987422
 21
-69.78884
  0
LINE
  8
補助線
  6
BYBLOCK
 62
    64
 10
67.87
 20
-69.778775
 11
67.97736
 21
-69.906262
  0
LINE
  8
型材断面
  6
CONTINUOUS
 10
50.15109
 20
-83.719867
 11
50.090712
 21
-84.424392
  0
LINE
  8
型材断面
  6
CONTINUOUS
 10
50.090712
 20
-84.424392
 11
50.520145
 21
-84.934328
  0
LINE
  8
型材断面
  6
CONTINUOUS
 10
50.520145
 20
-84.934328
 11
51.22467
 21
-84.994705
  0
LINE
  8
型材断面
  6
CONTINUOUS
 10
67.641857
 20
-68.990387
 11
68.346383
 21
-69.050765
  0
LINE
  8
型材断面
  6
CONTINUOUS
 10
68.346383
 20
-69.050765
 11
68.775815
 21
-69.5607
  0
LINE
  8
型材断面
  6
CONTINUOUS
 10
68.775815
 20
-69.5607
 11
68.715438
 21
-70.265225
  0
LINE
  8
型材断面
  6
CONTINUOUS
 10
50.15109
 20
-83.719867
 11
67.641857
 21
-68.990387
  0
LINE
  8
型材断面
  6
CONTINUOUS
 10
51.22467
 20
-84.994705
 11
68.715438
 21
-70.265225
  0
CIRCLE
  8
ボルト／ビス
  6
CONTINUOUS
 10
50.942845
 20
-84.14257
 40
0.250185
  0
CIRCLE
  8
ボルト／ビス
  6
CONTINUOUS
 10
50.942845
 20
-84.14257
 40
0.301025
  0
LINE
  8
ボルト／ビス
  6
CONTINUOUS
 62
    64
 10
50.696537
 20
-84.186453
 11
50.78169
 21
-83.951205
  0
LINE
  8
ボルト／ビス
  6
CONTINUOUS
 62
    64
 10
51.027997
 20
-83.90732
 11
50.78169
 21
-83.951205
  0
LINE
  8
ボルト／ビス
  6
CONTINUOUS
 62
    64
 10
50.857692
 20
-84.37782
 11
51.104
 21
-84.333935
  0
LINE
  8
ボルト／ビス
  6
CONTINUOUS
 62
    64
 10
51.189152
 20
-84.098687
 11
51.104
 21
-84.333935
  0
LINE
  8
ボルト／ビス
  6
CONTINUOUS
 62
    64
 10
50.696537
 20
-84.186453
 11
50.857692
 21
-84.37782
  0
LINE
  8
ボルト／ビス
  6
CONTINUOUS
 62
    64
 10
51.027997
 20
-83.90732
 11
51.189152
 21
-84.098687
  0
CIRCLE
  8
ボルト／ビス
  6
CONTINUOUS
 62
    64
 10
50.942845
 20
-84.14257
 40
0.216668
  0
CIRCLE
  8
ボルト／ビス
  6
CONTINUOUS
 10
59.433262
 20
-76.992545
 40
0.250185
  0
CIRCLE
  8
ボルト／ビス
  6
CONTINUOUS
 10
59.433262
 20
-76.992545
 40
0.301025
  0
LINE
  8
ボルト／ビス
  6
CONTINUOUS
 62
    64
 10
59.186955
 20
-77.036427
 11
59.272107
 21
-76.801177
  0
LINE
  8
ボルト／ビス
  6
CONTINUOUS
 62
    64
 10
59.518415
 20
-76.757295
 11
59.272107
 21
-76.801177
  0
LINE
  8
ボルト／ビス
  6
CONTINUOUS
 62
    64
 10
59.34811
 20
-77.227795
 11
59.59442
 21
-77.183913
  0
LINE
  8
ボルト／ビス
  6
CONTINUOUS
 62
    64
 10
59.67957
 20
-76.948665
 11
59.59442
 21
-77.183913
  0
LINE
  8
ボルト／ビス
  6
CONTINUOUS
 62
    64
 10
59.186955
 20
-77.036427
 11
59.34811
 21
-77.227795
  0
LINE
  8
ボルト／ビス
  6
CONTINUOUS
 62
    64
 10
59.518415
 20
-76.757295
 11
59.67957
 21
-76.948665
  0
CIRCLE
  8
ボルト／ビス
  6
CONTINUOUS
 62
    64
 10
59.433262
 20
-76.992545
 40
0.216668
  0
CIRCLE
  8
ボルト／ビス
  6
CONTINUOUS
 10
67.923682
 20
-69.84252
 40
0.250185
  0
CIRCLE
  8
ボルト／ビス
  6
CONTINUOUS
 10
67.923682
 20
-69.84252
 40
0.301025
  0
LINE
  8
ボルト／ビス
  6
CONTINUOUS
 62
    64
 10
68.008835
 20
-69.60727
 11
67.762525
 21
-69.651155
  0
LINE
  8
ボルト／ビス
  6
CONTINUOUS
 62
    64
 10
67.677372
 20
-69.886402
 11
67.762525
 21
-69.651155
  0
LINE
  8
ボルト／ビス
  6
CONTINUOUS
 62
    64
 10
68.169988
 20
-69.798638
 11
68.084837
 21
-70.033885
  0
LINE
  8
ボルト／ビス
  6
CONTINUOUS
 62
    64
 10
67.838528
 20
-70.07777
 11
68.084837
 21
-70.033885
  0
LINE
  8
ボルト／ビス
  6
CONTINUOUS
 62
    64
 10
68.008835
 20
-69.60727
 11
68.169988
 21
-69.798638
  0
LINE
  8
ボルト／ビス
  6
CONTINUOUS
 62
    64
 10
67.677372
 20
-69.886402
 11
67.838528
 21
-70.07777
  0
CIRCLE
  8
ボルト／ビス
  6
CONTINUOUS
 62
    64
 10
67.923682
 20
-69.84252
 40
0.216668
  0
ENDBLK
  0
BLOCK
  2
*GRP_0025
 70
    65
 10
0.0
 20
0.0
  0
LINE
  8
補助線
  6
BYBLOCK
 62
    64
 10
-20.316313
 20
-84.08889
 11
-20.188828
 21
-84.19625
  0
LINE
  8
補助線
  6
BYBLOCK
 62
    64
 10
-20.19889
 20
-84.078825
 11
-20.30625
 21
-84.206312
  0
LINE
  8
補助線
  6
BYBLOCK
 62
    64
 10
-28.80673
 20
-76.938868
 11
-28.679245
 21
-77.046223
  0
LINE
  8
補助線
  6
BYBLOCK
 62
    64
 10
-28.689307
 20
-76.928802
 11
-28.796667
 21
-77.056285
  0
LINE
  8
補助線
  6
BYBLOCK
 62
    64
 10
-37.169665
 20
-69.896198
 11
-37.297148
 21
-69.78884
  0
LINE
  8
補助線
  6
BYBLOCK
 62
    64
 10
-37.179725
 20
-69.778775
 11
-37.287085
 21
-69.906262
  0
LINE
  8
型材断面
  6
CONTINUOUS
 10
-19.460815
 20
-83.719867
 11
-19.400438
 21
-84.424392
  0
LINE
  8
型材断面
  6
CONTINUOUS
 10
-19.400438
 20
-84.424392
 11
-19.82987
 21
-84.934328
  0
LINE
  8
型材断面
  6
CONTINUOUS
 10
-19.82987
 20
-84.934328
 11
-20.534395
 21
-84.994705
  0
LINE
  8
型材断面
  6
CONTINUOUS
 10
-36.951583
 20
-68.990387
 11
-37.656107
 21
-69.050765
  0
LINE
  8
型材断面
  6
CONTINUOUS
 10
-37.656107
 20
-69.050765
 11
-38.08554
 21
-69.5607
  0
LINE
  8
型材断面
  6
CONTINUOUS
 10
-38.08554
 20
-69.5607
 11
-38.025162
 21
-70.265225
  0
LINE
  8
型材断面
  6
CONTINUOUS
 10
-19.460815
 20
-83.719867
 11
-36.951583
 21
-68.990387
  0
LINE
  8
型材断面
  6
CONTINUOUS
 10
-20.534395
 20
-84.994705
 11
-38.025162
 21
-70.265225
  0
CIRCLE
  8
ボルト／ビス
  6
CONTINUOUS
 10
-20.25257
 20
-84.14257
 40
0.250185
  0
CIRCLE
  8
ボルト／ビス
  6
CONTINUOUS
 10
-20.25257
 20
-84.14257
 40
0.301025
  0
LINE
  8
ボルト／ビス
  6
CONTINUOUS
 62
    64
 10
-20.006262
 20
-84.186453
 11
-20.091415
 21
-83.951205
  0
LINE
  8
ボルト／ビス
  6
CONTINUOUS
 62
    64
 10
-20.337723
 20
-83.90732
 11
-20.091415
 21
-83.951205
  0
LINE
  8
ボルト／ビス
  6
CONTINUOUS
 62
    64
 10
-20.167418
 20
-84.37782
 11
-20.413725
 21
-84.333935
  0
LINE
  8
ボルト／ビス
  6
CONTINUOUS
 62
    64
 10
-20.498877
 20
-84.098687
 11
-20.413725
 21
-84.333935
  0
LINE
  8
ボルト／ビス
  6
CONTINUOUS
 62
    64
 10
-20.006262
 20
-84.186453
 11
-20.167418
 21
-84.37782
  0
LINE
  8
ボルト／ビス
  6
CONTINUOUS
 62
    64
 10
-20.337723
 20
-83.90732
 11
-20.498877
 21
-84.098687
  0
CIRCLE
  8
ボルト／ビス
  6
CONTINUOUS
 62
    64
 10
-20.25257
 20
-84.14257
 40
0.216668
  0
CIRCLE
  8
ボルト／ビス
  6
CONTINUOUS
 10
-28.742987
 20
-76.992545
 40
0.250185
  0
CIRCLE
  8
ボルト／ビス
  6
CONTINUOUS
 10
-28.742987
 20
-76.992545
 40
0.301025
  0
LINE
  8
ボルト／ビス
  6
CONTINUOUS
 62
    64
 10
-28.49668
 20
-77.036427
 11
-28.581833
 21
-76.801177
  0
LINE
  8
ボルト／ビス
  6
CONTINUOUS
 62
    64
 10
-28.82814
 20
-76.757295
 11
-28.581833
 21
-76.801177
  0
LINE
  8
ボルト／ビス
  6
CONTINUOUS
 62
    64
 10
-28.657835
 20
-77.227795
 11
-28.904145
 21
-77.183913
  0
LINE
  8
ボルト／ビス
  6
CONTINUOUS
 62
    64
 10
-28.989295
 20
-76.948665
 11
-28.904145
 21
-77.183913
  0
LINE
  8
ボルト／ビス
  6
CONTINUOUS
 62
    64
 10
-28.49668
 20
-77.036427
 11
-28.657835
 21
-77.227795
  0
LINE
  8
ボルト／ビス
  6
CONTINUOUS
 62
    64
 10
-28.82814
 20
-76.757295
 11
-28.989295
 21
-76.948665
  0
CIRCLE
  8
ボルト／ビス
  6
CONTINUOUS
 62
    64
 10
-28.742987
 20
-76.992545
 40
0.216668
  0
CIRCLE
  8
ボルト／ビス
  6
CONTINUOUS
 10
-37.233407
 20
-69.84252
 40
0.250185
  0
CIRCLE
  8
ボルト／ビス
  6
CONTINUOUS
 10
-37.233407
 20
-69.84252
 40
0.301025
  0
LINE
  8
ボルト／ビス
  6
CONTINUOUS
 62
    64
 10
-37.31856
 20
-69.60727
 11
-37.07225
 21
-69.651155
  0
LINE
  8
ボルト／ビス
  6
CONTINUOUS
 62
    64
 10
-36.987097
 20
-69.886402
 11
-37.07225
 21
-69.651155
  0
LINE
  8
ボルト／ビス
  6
CONTINUOUS
 62
    64
 10
-37.479713
 20
-69.798638
 11
-37.394563
 21
-70.033885
  0
LINE
  8
ボルト／ビス
  6
CONTINUOUS
 62
    64
 10
-37.148253
 20
-70.07777
 11
-37.394563
 21
-70.033885
  0
LINE
  8
ボルト／ビス
  6
CONTINUOUS
 62
    64
 10
-37.31856
 20
-69.60727
 11
-37.479713
 21
-69.798638
  0
LINE
  8
ボルト／ビス
  6
CONTINUOUS
 62
    64
 10
-36.987097
 20
-69.886402
 11
-37.148253
 21
-70.07777
  0
CIRCLE
  8
ボルト／ビス
  6
CONTINUOUS
 62
    64
 10
-37.233407
 20
-69.84252
 40
0.216668
  0
ENDBLK
  0
BLOCK
  2
*GRP_0026
 70
    65
 10
0.0
 20
0.0
  0
LINE
  8
補助線
  6
BYBLOCK
 62
    64
 10
-37.169662
 20
-84.08889
 11
-37.297148
 21
-84.19625
  0
LINE
  8
補助線
  6
BYBLOCK
 62
    64
 10
-37.287085
 20
-84.078825
 11
-37.179725
 21
-84.206312
  0
LINE
  8
補助線
  6
BYBLOCK
 62
    64
 10
-28.679245
 20
-76.938868
 11
-28.80673
 21
-77.046223
  0
LINE
  8
補助線
  6
BYBLOCK
 62
    64
 10
-28.796667
 20
-76.928802
 11
-28.689307
 21
-77.056285
  0
LINE
  8
補助線
  6
BYBLOCK
 62
    64
 10
-20.31631
 20
-69.896198
 11
-20.188828
 21
-69.78884
  0
LINE
  8
補助線
  6
BYBLOCK
 62
    64
 10
-20.30625
 20
-69.778775
 11
-20.19889
 21
-69.906262
  0
LINE
  8
型材断面
  6
CONTINUOUS
 10
-38.02516
 20
-83.719867
 11
-38.085538
 21
-84.424392
  0
LINE
  8
型材断面
  6
CONTINUOUS
 10
-38.085538
 20
-84.424392
 11
-37.656105
 21
-84.934328
  0
LINE
  8
型材断面
  6
CONTINUOUS
 10
-37.656105
 20
-84.934328
 11
-36.95158
 21
-84.994705
  0
LINE
  8
型材断面
  6
CONTINUOUS
 10
-20.534393
 20
-68.990387
 11
-19.829867
 21
-69.050765
  0
LINE
  8
型材断面
  6
CONTINUOUS
 10
-19.829867
 20
-69.050765
 11
-19.400435
 21
-69.5607
  0
LINE
  8
型材断面
  6
CONTINUOUS
 10
-19.400435
 20
-69.5607
 11
-19.460812
 21
-70.265225
  0
LINE
  8
型材断面
  6
CONTINUOUS
 10
-38.02516
 20
-83.719867
 11
-20.534393
 21
-68.990387
  0
LINE
  8
型材断面
  6
CONTINUOUS
 10
-36.95158
 20
-84.994705
 11
-19.460812
 21
-70.265225
  0
CIRCLE
  8
ボルト／ビス
  6
CONTINUOUS
 10
-37.233405
 20
-84.14257
 40
0.250185
  0
CIRCLE
  8
ボルト／ビス
  6
CONTINUOUS
 10
-37.233405
 20
-84.14257
 40
0.301025
  0
LINE
  8
ボルト／ビス
  6
CONTINUOUS
 62
    64
 10
-37.479713
 20
-84.186453
 11
-37.39456
 21
-83.951205
  0
LINE
  8
ボルト／ビス
  6
CONTINUOUS
 62
    64
 10
-37.148253
 20
-83.90732
 11
-37.39456
 21
-83.951205
  0
LINE
  8
ボルト／ビス
  6
CONTINUOUS
 62
    64
 10
-37.318558
 20
-84.37782
 11
-37.07225
 21
-84.333935
  0
LINE
  8
ボルト／ビス
  6
CONTINUOUS
 62
    64
 10
-36.987097
 20
-84.098687
 11
-37.07225
 21
-84.333935
  0
LINE
  8
ボルト／ビス
  6
CONTINUOUS
 62
    64
 10
-37.479713
 20
-84.186453
 11
-37.318558
 21
-84.37782
  0
LINE
  8
ボルト／ビス
  6
CONTINUOUS
 62
    64
 10
-37.148253
 20
-83.90732
 11
-36.987097
 21
-84.098687
  0
CIRCLE
  8
ボルト／ビス
  6
CONTINUOUS
 62
    64
 10
-37.233405
 20
-84.14257
 40
0.216668
  0
CIRCLE
  8
ボルト／ビス
  6
CONTINUOUS
 10
-28.742987
 20
-76.992545
 40
0.250185
  0
CIRCLE
  8
ボルト／ビス
  6
CONTINUOUS
 10
-28.742987
 20
-76.992545
 40
0.301025
  0
LINE
  8
ボルト／ビス
  6
CONTINUOUS
 62
    64
 10
-28.989295
 20
-77.036427
 11
-28.904143
 21
-76.801177
  0
LINE
  8
ボルト／ビス
  6
CONTINUOUS
 62
    64
 10
-28.657835
 20
-76.757295
 11
-28.904143
 21
-76.801177
  0
LINE
  8
ボルト／ビス
  6
CONTINUOUS
 62
    64
 10
-28.82814
 20
-77.227795
 11
-28.58183
 21
-77.183913
  0
LINE
  8
ボルト／ビス
  6
CONTINUOUS
 62
    64
 10
-28.49668
 20
-76.948665
 11
-28.58183
 21
-77.183913
  0
LINE
  8
ボルト／ビス
  6
CONTINUOUS
 62
    64
 10
-28.989295
 20
-77.036427
 11
-28.82814
 21
-77.227795
  0
LINE
  8
ボルト／ビス
  6
CONTINUOUS
 62
    64
 10
-28.657835
 20
-76.757295
 11
-28.49668
 21
-76.948665
  0
CIRCLE
  8
ボルト／ビス
  6
CONTINUOUS
 62
    64
 10
-28.742987
 20
-76.992545
 40
0.216668
  0
CIRCLE
  8
ボルト／ビス
  6
CONTINUOUS
 10
-20.252567
 20
-69.84252
 40
0.250185
  0
CIRCLE
  8
ボルト／ビス
  6
CONTINUOUS
 10
-20.252567
 20
-69.84252
 40
0.301025
  0
LINE
  8
ボルト／ビス
  6
CONTINUOUS
 62
    64
 10
-20.167415
 20
-69.60727
 11
-20.413725
 21
-69.651155
  0
LINE
  8
ボルト／ビス
  6
CONTINUOUS
 62
    64
 10
-20.498877
 20
-69.886402
 11
-20.413725
 21
-69.651155
  0
LINE
  8
ボルト／ビス
  6
CONTINUOUS
 62
    64
 10
-20.006262
 20
-69.798638
 11
-20.091413
 21
-70.033885
  0
LINE
  8
ボルト／ビス
  6
CONTINUOUS
 62
    64
 10
-20.337723
 20
-70.07777
 11
-20.091413
 21
-70.033885
  0
LINE
  8
ボルト／ビス
  6
CONTINUOUS
 62
    64
 10
-20.167415
 20
-69.60727
 11
-20.006262
 21
-69.798638
  0
LINE
  8
ボルト／ビス
  6
CONTINUOUS
 62
    64
 10
-20.498877
 20
-69.886402
 11
-20.337723
 21
-70.07777
  0
CIRCLE
  8
ボルト／ビス
  6
CONTINUOUS
 62
    64
 10
-20.252567
 20
-69.84252
 40
0.216668
  0
ENDBLK
  0
BLOCK
  2
*DIM_0027
 70
    65
 10
0.0
 20
0.0
  0
LINE
  8
寸法
  6
CONTINUOUS
 10
166.343563
 20
-55.652718
 11
134.010227
 21
-55.652718
  0
POINT
  8
寸法
 10
166.343563
 20
-55.652718
  0
POINT
  8
寸法
 10
134.010227
 20
-55.652718
  0
TEXT
  7
TextStyle03
  8
寸法
  6
CONTINUOUS
 10
147.7375
 20
-55.3
  1
970
 40
3.0
 72
     5
 11
152.6125
 21
-55.3
  0
ENDBLK
  0
BLOCK
  2
*DIM_0028
 70
    65
 10
0.0
 20
0.0
  0
LINE
  8
寸法
  6
BYBLOCK
 62
     0
 10
90.433833
 20
-78.49138
 11
90.433833
 21
-66.824712
  0
POINT
  8
寸法
 62
     0
 10
90.433833
 20
-78.49138
  0
POINT
  8
寸法
 62
     0
 10
90.433833
 20
-66.824712
  0
TEXT
  7
TextStyle03
  8
寸法
  6
CONTINUOUS
 62
     0
 10
89.6
 20
-64.19375
  1
上昇330以上
 40
3.0
 50
90.0
 72
     5
 11
89.6
 21
-46.00625
  0
ENDBLK
  0
BLOCK
  2
*DIM_0029
 70
    65
 10
0.0
 20
0.0
  0
LINE
  8
寸法
  6
BYBLOCK
 62
     0
 10
160.173723
 20
52.400165
 11
148.507055
 21
52.400165
  0
POINT
  8
寸法
 62
     0
 10
160.173723
 20
52.400165
  0
POINT
  8
寸法
 62
     0
 10
148.507055
 20
52.400165
  0
TEXT
  7
TextStyle03
  8
寸法
  6
CONTINUOUS
 62
     0
 10
127.13125
 20
51.025
  1
上昇330以上
 40
3.0
 72
     5
 11
145.31875
 21
51.025
  0
ENDBLK
  0
BLOCK
  2
*DIM_0030
 70
    65
 10
0.0
 20
0.0
  0
LINE
  8
寸法
  6
CONTINUOUS
 10
171.343563
 20
-63.20038
 11
177.96701
 21
-63.20038
  0
LINE
  8
寸法
  6
CONTINUOUS
 10
171.343563
 20
-93.20038
 11
177.96701
 21
-93.20038
  0
LINE
  8
寸法
  6
CONTINUOUS
 10
177.96701
 20
-63.20038
 11
177.96701
 21
-93.20038
  0
POINT
  8
寸法
 10
177.96701
 20
-63.20038
  0
POINT
  8
寸法
 10
177.96701
 20
-93.20038
  0
TEXT
  7
TextStyle03
  8
寸法
  6
CONTINUOUS
 10
177.575
 20
-80.6625
  1
900
 40
3.0
 50
90.0
 72
     5
 11
177.575
 21
-75.7875
  0
ENDBLK
  0
BLOCK
  2
*DIM_0031
 70
    65
 10
0.0
 20
0.0
  0
LINE
  8
寸法
  6
CONTINUOUS
 10
77.932523
 20
-78.49138
 11
90.433833
 21
-78.49138
  0
LINE
  8
寸法
  6
CONTINUOUS
 10
79.020348
 20
-86.607932
 11
90.433833
 21
-86.607932
  0
LINE
  8
寸法
  6
CONTINUOUS
 10
90.433833
 20
-78.49138
 11
90.433833
 21
-86.607932
  0
POINT
  8
寸法
 10
90.433833
 20
-78.49138
  0
POINT
  8
寸法
 10
90.433833
 20
-86.607932
  0
TEXT
  7
TextStyle03
  8
寸法
  6
CONTINUOUS
 10
93.4
 20
-86.675
  1
243.5
 40
3.0
 50
90.0
 72
     5
 11
93.4
 21
-78.425
  0
ENDBLK
  0
BLOCK
  2
*DIM_0032
 70
    65
 10
0.0
 20
0.0
  0
LINE
  8
寸法
  6
CONTINUOUS
 10
160.173723
 20
48.399048
 11
160.173723
 21
52.400165
  0
LINE
  8
寸法
  6
CONTINUOUS
 10
168.290275
 20
48.399048
 11
168.290275
 21
52.400165
  0
LINE
  8
寸法
  6
CONTINUOUS
 10
160.173723
 20
52.400165
 11
168.290275
 21
52.400165
  0
POINT
  8
寸法
 10
160.173723
 20
52.400165
  0
POINT
  8
寸法
 10
168.290275
 20
52.400165
  0
TEXT
  7
TextStyle03
  8
寸法
  6
CONTINUOUS
 10
160.05
 20
52.775
  1
243.5
 40
3.0
 72
     5
 11
168.3
 21
52.775
  0
ENDBLK
  0
ENDSEC
  0
SECTION
  2
ENTITIES
  0
POLYLINE
  8
通り芯
  6
CONTINUOUS
 66
     1
 70
     1
  0
VERTEX
  8
通り芯
 10
-210.0
 20
-148.5
  0
VERTEX
  8
通り芯
 10
210.0
 20
-148.5
  0
VERTEX
  8
通り芯
 10
210.0
 20
148.5
  0
VERTEX
  8
通り芯
 10
-210.0
 20
148.5
  0
SEQEND
  0
INSERT
  2
*GRP_0001
  8
型材断面
  6
CONTINUOUS
 10
0.0
 20
0.0
  0
LINE
  8
型材断面
  6
DASHDOT
 10
-128.742993
 20
13.399048
 11
168.93377
 21
13.399048
  0
POLYLINE
  8
型材断面
  6
CONTINUOUS
 66
     1
 70
     1
  0
VERTEX
  8
型材断面
 10
-19.342983
 20
3.623125
  0
VERTEX
  8
型材断面
 10
-38.114912
 20
3.623125
  0
VERTEX
  8
型材断面
 10
-38.114912
 20
-1.113717
  0
VERTEX
  8
型材断面
 10
-19.342983
 20
-1.113717
  0
SEQEND
  0
LINE
  8
型材断面
  6
DASHDOT
 10
-128.742993
 20
28.399048
 11
168.93377
 21
28.399048
  0
LINE
  8
型材断面
  6
DASHDOT
 10
-128.742993
 20
43.399048
 11
168.93377
 21
43.399048
  0
LINE
  8
型材断面
  6
DASHDOT
 10
-128.742993
 20
-87.251428
 11
-128.742993
 21
43.399048
  0
LINE
  8
型材断面
  6
DASHDOT
 10
-28.742993
 20
-87.251428
 11
-28.742993
 21
43.399048
  0
LINE
  8
型材断面
  6
DASHDOT
 10
71.257007
 20
-87.251428
 11
71.257007
 21
43.399048
  0
POLYLINE
  8
型材断面
  6
CONTINUOUS
 66
     1
 70
     1
  0
VERTEX
  8
型材断面
 10
-19.342983
 20
53.17497
  0
VERTEX
  8
型材断面
 10
-38.114912
 20
53.17497
  0
VERTEX
  8
型材断面
 10
-38.114912
 20
57.911813
  0
VERTEX
  8
型材断面
 10
-19.342983
 20
57.911813
  0
SEQEND
  0
LINE
  8
型材断面
  6
CONTINUOUS
 10
-169.5952
 20
81.37652
 11
-168.999145
 21
78.786012
  0
LINE
  8
型材断面
  6
CONTINUOUS
 10
-169.5952
 20
81.37652
 11
-170.191258
 21
78.786012
  0
LINE
  8
型材断面
  6
CONTINUOUS
 10
-170.191258
 20
78.786012
 11
-168.999145
 21
78.786012
  0
LINE
  8
型材断面
  6
CONTINUOUS
 10
-175.617788
 20
75.50712
 11
-129.37601
 21
75.50712
  0
LINE
  8
型材断面
  6
CONTINUOUS
 10
-169.5952
 20
87.906395
 11
-171.09083
 21
85.315887
  0
LINE
  8
型材断面
  6
CONTINUOUS
 10
-169.5952
 20
87.906395
 11
-168.09957
 21
85.315887
  0
LINE
  8
型材断面
  6
CONTINUOUS
 10
-168.09957
 20
85.315887
 11
-171.09083
 21
85.315887
  0
LINE
  8
型材断面
  6
CONTINUOUS
 10
-175.617788
 20
84.377292
 11
-129.37601
 21
84.377292
  0
LINE
  8
型材断面
  6
CONTINUOUS
 10
-175.617788
 20
69.719088
 11
-129.37601
 21
69.719088
  0
LINE
  8
型材断面
  6
CONTINUOUS
 10
-175.617788
 20
63.931055
 11
-129.37601
 21
63.931055
  0
INSERT
  2
*GRP_0021
  8
型材断面
  6
CONTINUOUS
 10
0.0
 20
0.0
  0
INSERT
  2
*GRP_0022
  8
型材断面
  6
CONTINUOUS
 10
0.0
 20
0.0
  0
INSERT
  2
*GRP_0023
  8
型材断面
  6
CONTINUOUS
 10
0.0
 20
0.0
  0
INSERT
  2
*GRP_0024
  8
型材断面
  6
CONTINUOUS
 10
0.0
 20
0.0
  0
INSERT
  2
*GRP_0025
  8
型材断面
  6
CONTINUOUS
 10
0.0
 20
0.0
  0
INSERT
  2
*GRP_0026
  8
型材断面
  6
CONTINUOUS
 10
0.0
 20
0.0
  0
LINE
  8
型材断面
  6
CONTINUOUS
 10
-131.50633
 20
10.63586
 11
74.020345
 21
10.63586
  0
LINE
  8
型材断面
  6
CONTINUOUS
 10
74.020345
 20
10.63586
 11
74.020345
 21
46.162233
  0
LINE
  8
型材断面
  6
CONTINUOUS
 10
-131.50633
 20
46.162233
 11
74.020345
 21
46.162233
  0
LINE
  8
型材断面
  6
CONTINUOUS
 10
-131.50633
 20
28.399045
 11
-134.096838
 21
29.894675
  0
LINE
  8
型材断面
  6
CONTINUOUS
 10
-131.50633
 20
28.399045
 11
-134.096838
 21
26.903415
  0
LINE
  8
型材断面
  6
CONTINUOUS
 10
-134.096838
 20
26.903415
 11
-134.096838
 21
29.894675
  0
LINE
  8
型材断面
  6
CONTINUOUS
 10
-131.50633
 20
39.699048
 11
-134.09684
 21
39.102995
  0
LINE
  8
型材断面
  6
CONTINUOUS
 10
-131.50633
 20
39.699048
 11
-134.096838
 21
40.295108
  0
LINE
  8
型材断面
  6
CONTINUOUS
 10
-134.096838
 20
40.295108
 11
-134.09684
 21
39.102995
  0
LINE
  8
型材断面
  6
CONTINUOUS
 10
-131.50633
 20
17.099042
 11
-134.09684
 21
17.695095
  0
LINE
  8
型材断面
  6
CONTINUOUS
 10
-131.50633
 20
17.099042
 11
-134.096838
 21
16.502982
  0
LINE
  8
型材断面
  6
CONTINUOUS
 10
-134.096838
 20
16.502982
 11
-134.09684
 21
17.695095
  0
LINE
  8
型材断面
  6
CONTINUOUS
 10
-112.076325
 20
46.162233
 11
-113.571955
 21
48.75274
  0
LINE
  8
型材断面
  6
CONTINUOUS
 10
-112.076325
 20
46.162233
 11
-110.580695
 21
48.75274
  0
LINE
  8
型材断面
  6
CONTINUOUS
 10
-110.580695
 20
48.75274
 11
-113.571955
 21
48.75274
  0
LINE
  8
型材断面
  6
CONTINUOUS
 10
54.59034
 20
46.162233
 11
56.08597
 21
48.75274
  0
LINE
  8
型材断面
  6
CONTINUOUS
 10
54.59034
 20
46.162233
 11
53.09471
 21
48.75274
  0
LINE
  8
型材断面
  6
CONTINUOUS
 10
53.09471
 20
48.75274
 11
56.08597
 21
48.75274
  0
LINE
  8
型材断面
  6
CONTINUOUS
 10
-28.742993
 20
46.16223
 11
-27.247362
 21
48.752737
  0
LINE
  8
型材断面
  6
CONTINUOUS
 10
-28.742993
 20
46.16223
 11
-30.238623
 21
48.752737
  0
LINE
  8
型材断面
  6
CONTINUOUS
 10
-30.238623
 20
48.752737
 11
-27.247362
 21
48.752737
  0
LINE
  8
型材断面
  6
CONTINUOUS
 10
74.020345
 20
28.399048
 11
76.610852
 21
29.894678
  0
LINE
  8
型材断面
  6
CONTINUOUS
 10
74.020345
 20
28.399048
 11
76.610852
 21
26.903418
  0
LINE
  8
型材断面
  6
CONTINUOUS
 10
76.610852
 20
26.903418
 11
76.610852
 21
29.894678
  0
LINE
  8
型材断面
  6
CONTINUOUS
 10
74.020345
 20
39.69905
 11
76.610855
 21
39.102997
  0
LINE
  8
型材断面
  6
CONTINUOUS
 10
74.020345
 20
39.69905
 11
76.610852
 21
40.29511
  0
LINE
  8
型材断面
  6
CONTINUOUS
 10
76.610852
 20
40.29511
 11
76.610855
 21
39.102997
  0
LINE
  8
型材断面
  6
CONTINUOUS
 10
74.020345
 20
17.099045
 11
76.610855
 21
17.695097
  0
LINE
  8
型材断面
  6
CONTINUOUS
 10
74.020345
 20
17.099045
 11
76.610852
 21
16.502985
  0
LINE
  8
型材断面
  6
CONTINUOUS
 10
76.610852
 20
16.502985
 11
76.610855
 21
17.695097
  0
LINE
  8
型材断面
  6
CONTINUOUS
 10
-112.076325
 20
10.63586
 11
-113.571955
 21
8.045353
  0
LINE
  8
型材断面
  6
CONTINUOUS
 10
-112.076325
 20
10.63586
 11
-110.580695
 21
8.045353
  0
LINE
  8
型材断面
  6
CONTINUOUS
 10
-110.580695
 20
8.045353
 11
-113.571955
 21
8.045353
  0
LINE
  8
型材断面
  6
CONTINUOUS
 10
54.59034
 20
10.63586
 11
56.08597
 21
8.045353
  0
LINE
  8
型材断面
  6
CONTINUOUS
 10
54.59034
 20
10.63586
 11
53.09471
 21
8.045353
  0
LINE
  8
型材断面
  6
CONTINUOUS
 10
53.09471
 20
8.045353
 11
56.08597
 21
8.045353
  0
LINE
  8
型材断面
  6
CONTINUOUS
 10
-28.742993
 20
10.635865
 11
-27.247362
 21
8.045357
  0
LINE
  8
型材断面
  6
CONTINUOUS
 10
-28.742993
 20
10.635865
 11
-30.238623
 21
8.045357
  0
LINE
  8
型材断面
  6
CONTINUOUS
 10
-30.238623
 20
8.045357
 11
-27.247362
 21
8.045357
  0
LINE
  8
型材断面
  6
DASHDOT
 10
-95.79966
 20
13.399048
 11
-95.79966
 21
43.399048
  0
LINE
  8
型材断面
  6
DASHDOT
 10
-62.272992
 20
13.399048
 11
-62.272992
 21
43.399048
  0
LINE
  8
型材断面
  6
DASHDOT
 10
38.313675
 20
13.399048
 11
38.313675
 21
43.399048
  0
LINE
  8
型材断面
  6
DASHDOT
 10
4.787008
 20
13.399048
 11
4.787008
 21
43.399048
  0
LINE
  8
型材断面
  6
CONTINUOUS
 10
72.854665
 20
11.565692
 11
73.090365
 21
11.801392
  0
LINE
  8
型材断面
  6
CONTINUOUS
 10
70.354663
 20
14.065692
 11
70.590363
 21
14.301392
  0
LINE
  8
型材断面
  6
CONTINUOUS
 10
70.590363
 20
14.301392
 11
73.090365
 21
11.801392
  0
LINE
  8
型材断面
  6
CONTINUOUS
 10
70.354663
 20
14.065692
 11
72.854665
 21
11.565692
  0
LINE
  8
型材断面
  6
CONTINUOUS
 10
74.020197
 20
10.63586
 11
72.972513
 21
11.68354
  0
LINE
  8
型材断面
  6
CONTINUOUS
 10
-28.742993
 20
11.565765
 11
72.854665
 21
11.565692
  0
LINE
  8
型材断面
  6
CONTINUOUS
 10
73.090343
 20
28.399048
 11
73.090365
 21
11.801392
  0
LINE
  8
型材断面
  6
CONTINUOUS
 10
39.563675
 20
14.899048
 11
37.063675
 21
14.89905
  0
LINE
  8
型材断面
  6
CONTINUOUS
 10
39.563675
 20
41.899048
 11
37.063675
 21
41.899045
  0
LINE
  8
型材断面
  6
CONTINUOUS
 10
39.563675
 20
14.899048
 11
39.563675
 21
41.899048
  0
LINE
  8
型材断面
  6
CONTINUOUS
 10
37.063675
 20
14.89905
 11
37.063675
 21
41.899045
  0
LINE
  8
型材断面
  6
CONTINUOUS
 10
72.854665
 20
45.232402
 11
73.090365
 21
44.996702
  0
LINE
  8
型材断面
  6
CONTINUOUS
 10
70.590363
 20
42.496702
 11
73.090365
 21
44.996702
  0
LINE
  8
型材断面
  6
CONTINUOUS
 10
74.020197
 20
46.162235
 11
72.972513
 21
45.114555
  0
LINE
  8
型材断面
  6
CONTINUOUS
 10
70.354663
 20
42.732402
 11
70.590363
 21
42.496702
  0
LINE
  8
型材断面
  6
CONTINUOUS
 10
73.090343
 20
28.399048
 11
73.090365
 21
44.996702
  0
LINE
  8
型材断面
  6
CONTINUOUS
 10
70.354663
 20
42.732402
 11
72.854665
 21
45.232402
  0
LINE
  8
型材断面
  6
CONTINUOUS
 10
-28.742993
 20
45.23233
 11
72.854665
 21
45.232402
  0
LINE
  8
型材断面
  6
CONTINUOUS
 10
6.037008
 20
14.899048
 11
3.537008
 21
14.89905
  0
LINE
  8
型材断面
  6
CONTINUOUS
 10
6.037008
 20
41.899048
 11
3.537008
 21
41.899045
  0
LINE
  8
型材断面
  6
CONTINUOUS
 10
6.037008
 20
14.899048
 11
6.037008
 21
41.899048
  0
LINE
  8
型材断面
  6
CONTINUOUS
 10
3.537008
 20
14.89905
 11
3.537008
 21
41.899045
  0
LINE
  8
型材断面
  6
CONTINUOUS
 10
-27.492993
 20
14.899048
 11
-29.992993
 21
14.89905
  0
LINE
  8
型材断面
  6
CONTINUOUS
 10
-27.492993
 20
41.899048
 11
-29.992993
 21
41.899045
  0
LINE
  8
型材断面
  6
CONTINUOUS
 10
-27.492993
 20
14.899048
 11
-27.492993
 21
41.899048
  0
LINE
  8
型材断面
  6
CONTINUOUS
 10
-29.992993
 20
14.89905
 11
-29.992993
 21
41.899045
  0
LINE
  8
型材断面
  6
CONTINUOUS
 10
-97.04966
 20
14.899048
 11
-94.54966
 21
14.89905
  0
LINE
  8
型材断面
  6
CONTINUOUS
 10
-97.04966
 20
41.899048
 11
-94.54966
 21
41.899045
  0
LINE
  8
型材断面
  6
CONTINUOUS
 10
-97.04966
 20
14.899048
 11
-97.04966
 21
41.899048
  0
LINE
  8
型材断面
  6
CONTINUOUS
 10
-94.54966
 20
14.89905
 11
-94.54966
 21
41.899045
  0
LINE
  8
型材断面
  6
CONTINUOUS
 10
-63.522992
 20
14.899048
 11
-61.022992
 21
14.89905
  0
LINE
  8
型材断面
  6
CONTINUOUS
 10
-63.522992
 20
41.899048
 11
-61.022992
 21
41.899045
  0
LINE
  8
型材断面
  6
CONTINUOUS
 10
-63.522992
 20
14.899048
 11
-63.522992
 21
41.899048
  0
LINE
  8
型材断面
  6
CONTINUOUS
 10
-61.022992
 20
14.89905
 11
-61.022992
 21
41.899045
  0
LINE
  8
型材断面
  6
CONTINUOUS
 10
55.20201
 20
14.065705
 11
55.20201
 21
11.565705
  0
LINE
  8
型材断面
  6
CONTINUOUS
 10
54.368675
 20
14.065705
 11
54.368675
 21
11.565705
  0
LINE
  8
型材断面
  6
CONTINUOUS
 10
21.96701
 20
14.065705
 11
21.96701
 21
11.565705
  0
LINE
  8
型材断面
  6
CONTINUOUS
 10
21.133675
 20
14.065705
 11
21.133675
 21
11.565705
  0
LINE
  8
型材断面
  6
CONTINUOUS
 10
-11.559657
 20
14.065705
 11
-11.559657
 21
11.565705
  0
LINE
  8
型材断面
  6
CONTINUOUS
 10
-12.392993
 20
14.065705
 11
-12.392993
 21
11.565705
  0
LINE
  8
型材断面
  6
CONTINUOUS
 10
55.20201
 20
42.73239
 11
55.20201
 21
45.23239
  0
LINE
  8
型材断面
  6
CONTINUOUS
 10
54.368675
 20
42.73239
 11
54.368675
 21
45.23239
  0
LINE
  8
型材断面
  6
CONTINUOUS
 10
21.96701
 20
42.73239
 11
21.96701
 21
45.23239
  0
LINE
  8
型材断面
  6
CONTINUOUS
 10
21.133675
 20
42.73239
 11
21.133675
 21
45.23239
  0
LINE
  8
型材断面
  6
CONTINUOUS
 10
-11.559657
 20
42.73239
 11
-11.559657
 21
45.23239
  0
LINE
  8
型材断面
  6
CONTINUOUS
 10
-12.392993
 20
42.73239
 11
-12.392993
 21
45.23239
  0
LINE
  8
型材断面
  6
CONTINUOUS
 10
55.20201
 20
42.73239
 11
70.354663
 21
42.732402
  0
LINE
  8
型材断面
  6
CONTINUOUS
 10
55.20201
 20
14.065705
 11
70.354663
 21
14.065692
  0
LINE
  8
型材断面
  6
CONTINUOUS
 10
21.96701
 20
42.732365
 11
54.368675
 21
42.73239
  0
LINE
  8
型材断面
  6
CONTINUOUS
 10
21.96701
 20
14.06573
 11
54.368675
 21
14.065705
  0
LINE
  8
型材断面
  6
CONTINUOUS
 10
-28.742993
 20
14.065768
 11
-12.392993
 21
14.065755
  0
LINE
  8
型材断面
  6
CONTINUOUS
 10
-11.559657
 20
14.065755
 11
21.133675
 21
14.06573
  0
LINE
  8
型材断面
  6
CONTINUOUS
 10
-28.742993
 20
42.732328
 11
-12.392993
 21
42.73234
  0
LINE
  8
型材断面
  6
CONTINUOUS
 10
-11.559657
 20
42.73234
 11
21.133675
 21
42.732365
  0
LINE
  8
型材断面
  6
CONTINUOUS
 10
-131.50633
 20
10.63586
 11
-131.50633
 21
46.162233
  0
LINE
  8
型材断面
  6
CONTINUOUS
 10
-130.34065
 20
11.565692
 11
-130.57635
 21
11.801392
  0
LINE
  8
型材断面
  6
CONTINUOUS
 10
-127.840647
 20
14.065692
 11
-128.076347
 21
14.301392
  0
LINE
  8
型材断面
  6
CONTINUOUS
 10
-128.076347
 20
14.301392
 11
-130.57635
 21
11.801392
  0
LINE
  8
型材断面
  6
CONTINUOUS
 10
-127.840647
 20
14.065692
 11
-130.34065
 21
11.565692
  0
LINE
  8
型材断面
  6
CONTINUOUS
 10
-131.506182
 20
10.63586
 11
-130.458497
 21
11.68354
  0
LINE
  8
型材断面
  6
CONTINUOUS
 10
-130.576328
 20
28.399048
 11
-130.57635
 21
11.801392
  0
LINE
  8
型材断面
  6
CONTINUOUS
 10
-130.34065
 20
45.232402
 11
-130.57635
 21
44.996702
  0
LINE
  8
型材断面
  6
CONTINUOUS
 10
-128.076347
 20
42.496702
 11
-130.57635
 21
44.996702
  0
LINE
  8
型材断面
  6
CONTINUOUS
 10
-131.506182
 20
46.162235
 11
-130.458497
 21
45.114555
  0
LINE
  8
型材断面
  6
CONTINUOUS
 10
-127.840647
 20
42.732402
 11
-128.076347
 21
42.496702
  0
LINE
  8
型材断面
  6
CONTINUOUS
 10
-130.576328
 20
28.399048
 11
-130.57635
 21
44.996702
  0
LINE
  8
型材断面
  6
CONTINUOUS
 10
-127.840647
 20
42.732402
 11
-130.34065
 21
45.232402
  0
LINE
  8
型材断面
  6
CONTINUOUS
 10
-112.687995
 20
14.065705
 11
-112.687995
 21
11.565705
  0
LINE
  8
型材断面
  6
CONTINUOUS
 10
-111.85466
 20
14.065705
 11
-111.85466
 21
11.565705
  0
LINE
  8
型材断面
  6
CONTINUOUS
 10
-79.452995
 20
14.065705
 11
-79.452995
 21
11.565705
  0
LINE
  8
型材断面
  6
CONTINUOUS
 10
-78.61966
 20
14.065705
 11
-78.61966
 21
11.565705
  0
LINE
  8
型材断面
  6
CONTINUOUS
 10
-45.926328
 20
14.065705
 11
-45.926328
 21
11.565705
  0
LINE
  8
型材断面
  6
CONTINUOUS
 10
-45.092993
 20
14.065705
 11
-45.092993
 21
11.565705
  0
LINE
  8
型材断面
  6
CONTINUOUS
 10
-112.687995
 20
42.73239
 11
-112.687995
 21
45.23239
  0
LINE
  8
型材断面
  6
CONTINUOUS
 10
-111.85466
 20
42.73239
 11
-111.85466
 21
45.23239
  0
LINE
  8
型材断面
  6
CONTINUOUS
 10
-79.452995
 20
42.73239
 11
-79.452995
 21
45.23239
  0
LINE
  8
型材断面
  6
CONTINUOUS
 10
-78.61966
 20
42.73239
 11
-78.61966
 21
45.23239
  0
LINE
  8
型材断面
  6
CONTINUOUS
 10
-45.926328
 20
42.73239
 11
-45.926328
 21
45.23239
  0
LINE
  8
型材断面
  6
CONTINUOUS
 10
-45.092993
 20
42.73239
 11
-45.092993
 21
45.23239
  0
LINE
  8
型材断面
  6
CONTINUOUS
 10
-112.687995
 20
42.73239
 11
-127.840647
 21
42.732402
  0
LINE
  8
型材断面
  6
CONTINUOUS
 10
-112.687995
 20
14.065705
 11
-127.840647
 21
14.065692
  0
LINE
  8
型材断面
  6
CONTINUOUS
 10
-79.452995
 20
42.732365
 11
-111.85466
 21
42.73239
  0
LINE
  8
型材断面
  6
CONTINUOUS
 10
-79.452995
 20
14.06573
 11
-111.85466
 21
14.065705
  0
LINE
  8
型材断面
  6
CONTINUOUS
 10
-45.926328
 20
14.065755
 11
-78.61966
 21
14.06573
  0
LINE
  8
型材断面
  6
CONTINUOUS
 10
-45.926328
 20
42.73234
 11
-78.61966
 21
42.732365
  0
LINE
  8
型材断面
  6
CONTINUOUS
 10
-28.742993
 20
42.732328
 11
-45.092993
 21
42.73234
  0
LINE
  8
型材断面
  6
CONTINUOUS
 10
-28.742993
 20
14.065768
 11
-45.092993
 21
14.065755
  0
LINE
  8
型材断面
  6
CONTINUOUS
 10
-28.742993
 20
45.23233
 11
-130.34065
 21
45.232402
  0
LINE
  8
型材断面
  6
CONTINUOUS
 10
-28.742993
 20
11.565765
 11
-130.34065
 21
11.565692
  0
LINE
  8
型材断面
  6
CONTINUOUS
 10
70.590343
 20
28.815715
 11
73.090343
 21
28.815715
  0
LINE
  8
型材断面
  6
CONTINUOUS
 10
70.590343
 20
27.98238
 11
73.090343
 21
27.98238
  0
LINE
  8
型材断面
  6
CONTINUOUS
 10
70.590343
 20
27.98238
 11
70.590363
 21
14.301392
  0
LINE
  8
型材断面
  6
CONTINUOUS
 10
70.590343
 20
28.815715
 11
70.590363
 21
42.496702
  0
LINE
  8
型材断面
  6
CONTINUOUS
 10
-128.076328
 20
28.815715
 11
-130.576328
 21
28.815715
  0
LINE
  8
型材断面
  6
CONTINUOUS
 10
-128.076328
 20
27.98238
 11
-130.576328
 21
27.98238
  0
LINE
  8
型材断面
  6
CONTINUOUS
 10
-128.076347
 20
14.301392
 11
-128.076328
 21
27.98238
  0
LINE
  8
型材断面
  6
CONTINUOUS
 10
-128.076347
 20
42.496702
 11
-128.076328
 21
28.815715
  0
LINE
  8
型材断面
  6
CONTINUOUS
 10
73.520348
 20
-86.607932
 11
73.520348
 21
-86.944597
  0
LINE
  8
型材断面
  6
CONTINUOUS
 10
73.82368
 20
-82.511383
 11
74.020348
 21
-82.70805
  0
LINE
  8
型材断面
  6
CONTINUOUS
 10
74.020348
 20
-82.70805
 11
74.020348
 21
-86.607932
  0
LINE
  8
型材断面
  6
CONTINUOUS
 10
168.290275
 20
45.662235
 11
168.62694
 21
45.662235
  0
LINE
  8
型材断面
  6
CONTINUOUS
 10
164.193725
 20
45.965567
 11
164.390393
 21
46.162235
  0
LINE
  8
型材断面
  6
CONTINUOUS
 10
164.390393
 20
46.162235
 11
168.290275
 21
46.162235
  0
LINE
  8
型材断面
  6
CONTINUOUS
 10
168.62694
 20
45.662235
 11
168.62694
 21
28.399048
  0
LINE
  8
型材断面
  6
CONTINUOUS
 10
168.290275
 20
46.162235
 11
168.290275
 21
28.399048
  0
LINE
  8
型材断面
  6
CONTINUOUS
 62
    47
 10
164.19377
 20
45.96561
 11
164.19377
 21
28.399048
  0
LINE
  8
型材断面
  6
CONTINUOUS
 10
164.390393
 20
46.162235
 11
164.390393
 21
28.399048
  0
LINE
  8
型材断面
  6
CONTINUOUS
 10
168.290275
 20
11.13586
 11
168.62694
 21
11.13586
  0
LINE
  8
型材断面
  6
CONTINUOUS
 10
164.193725
 20
10.832527
 11
164.390393
 21
10.63586
  0
LINE
  8
型材断面
  6
CONTINUOUS
 10
164.390393
 20
10.63586
 11
168.290275
 21
10.63586
  0
LINE
  8
型材断面
  6
CONTINUOUS
 10
168.62694
 20
11.13586
 11
168.62694
 21
28.399048
  0
LINE
  8
型材断面
  6
CONTINUOUS
 10
168.290275
 20
10.63586
 11
168.290275
 21
28.399048
  0
LINE
  8
型材断面
  6
CONTINUOUS
 62
    47
 10
164.19377
 20
10.832485
 11
164.19377
 21
28.399048
  0
LINE
  8
型材断面
  6
CONTINUOUS
 10
164.390393
 20
10.63586
 11
164.390393
 21
28.399048
  0
LINE
  8
型材断面
  6
CONTINUOUS
 62
    47
 10
73.823723
 20
-82.511427
 11
-28.742993
 21
-82.511427
  0
LINE
  8
型材断面
  6
CONTINUOUS
 10
74.020348
 20
-82.70805
 11
-28.742993
 21
-82.70805
  0
LINE
  8
型材断面
  6
CONTINUOUS
 10
74.020348
 20
-86.607932
 11
-28.742993
 21
-86.607932
  0
LINE
  8
型材断面
  6
CONTINUOUS
 10
73.520348
 20
-86.944597
 11
-28.742993
 21
-86.944597
  0
LINE
  8
型材断面
  6
CONTINUOUS
 10
-131.006333
 20
-86.607932
 11
-131.006333
 21
-86.944597
  0
LINE
  8
型材断面
  6
CONTINUOUS
 10
-131.309665
 20
-82.511383
 11
-131.506333
 21
-82.70805
  0
LINE
  8
型材断面
  6
CONTINUOUS
 10
-131.506333
 20
-82.70805
 11
-131.506333
 21
-86.607932
  0
LINE
  8
型材断面
  6
CONTINUOUS
 62
    47
 10
-131.309707
 20
-82.511427
 11
-28.742993
 21
-82.511427
  0
LINE
  8
型材断面
  6
CONTINUOUS
 10
-131.506333
 20
-82.70805
 11
-28.742993
 21
-82.70805
  0
LINE
  8
型材断面
  6
CONTINUOUS
 10
-131.506333
 20
-86.607932
 11
-28.742993
 21
-86.607932
  0
LINE
  8
型材断面
  6
CONTINUOUS
 10
-131.006333
 20
-86.944597
 11
-28.742993
 21
-86.944597
  0
TEXT
  7
TextStyle03
  8
文字
  6
CONTINUOUS
 10
-37.025
 20
-0.075
  1
可動装置側
 40
3.0
 72
     5
 11
-20.525
 21
-0.075
  0
TEXT
  7
TextStyle03
  8
文字
  6
CONTINUOUS
 10
-37.025
 20
53.875
  1
可動装置側
 40
3.0
 72
     5
 11
-20.525
 21
53.875
  0
TEXT
  7
TextStyle03
  8
文字
  6
CONTINUOUS
 10
-166.775
 20
80.0
  1
はケーシング位置を示す
 40
3.0
 72
     5
 11
-130.025
 21
80.0
  0
TEXT
  7
TextStyle03
  8
文字
  6
CONTINUOUS
 10
-166.775
 20
76.625
  1
４ヶ所中1ヶ所に設定
 40
3.0
 72
     5
 11
-135.0875
 21
76.625
  0
TEXT
  7
TextStyle03
  8
文字
  6
CONTINUOUS
 10
-166.775
 20
85.525
  1
は排水穴位置を示す
 40
3.0
 72
     5
 11
-136.775
 21
85.525
  0
TEXT
  7
TextStyle03
  8
文字
  6
CONTINUOUS
 10
-149.7
 20
6.875
  1
アンカーピッチ
 40
3.0
 50
90.0
 72
     5
 11
-149.7
 21
30.125
  0
TEXT
  7
TextStyle03
  8
文字
  6
CONTINUOUS
 10
-115.3
 20
80.55
  1
アンカーピッチ
 40
3.0
 72
     5
 11
-92.05
 21
80.55
  0
TEXT
  7
TextStyle03
  8
文字
  6
CONTINUOUS
 10
-170.5
 20
70.65
  1
アンカー数量　２２ヶ所
 40
3.0
 72
     5
 11
-133.75
 21
70.65
  0
TEXT
  7
TextStyle03
  8
文字
  6
CONTINUOUS
 10
-170.575
 20
64.875
  1
アームユニット数　４～６ヶ所
 40
3.0
 72
     5
 11
-123.7
 21
64.875
  0
TEXT
  7
TextStyle03
  8
文字
  6
CONTINUOUS
 10
-175.5
 20
59.925
  1
※重量に依るのでご相談ください
 40
3.0
 72
     5
 11
-125.25
 21
59.925
  0
LINE
  8
文字
  6
CONTINUOUS
 10
162.386035
 20
46.162233
 11
105.276657
 21
46.162233
  0
LINE
  8
文字
  6
CONTINUOUS
 10
160.173723
 20
52.400165
 11
160.173723
 21
47.487392
  0
LINE
  8
文字
  6
CONTINUOUS
 10
162.386035
 20
10.63586
 11
105.276657
 21
10.63586
  0
LINE
  8
文字
  6
CONTINUOUS
 10
148.507055
 20
52.400165
 11
148.507055
 21
47.487392
  0
LINE
  8
文字
  6
CONTINUOUS
 10
-131.50633
 20
-80.158047
 11
-131.50633
 21
-22.024302
  0
LINE
  8
文字
  6
CONTINUOUS
 10
74.020345
 20
-80.158047
 11
74.020345
 21
-22.024302
  0
LINE
  8
文字
  6
CONTINUOUS
 10
90.433833
 20
-66.824712
 11
76.875
 21
-66.824712
  0
LINE
  8
文字
  6
CONTINUOUS
 10
134.010227
 20
-55.652718
 11
134.010227
 21
-62.181862
  0
LINE
  8
文字
  6
CONTINUOUS
 10
166.343563
 20
-55.652718
 11
166.343563
 21
-61.87711
  0
TEXT
  7
TextStyle03
  8
文字
  6
CONTINUOUS
 10
147.775
 20
-86.75
  1
網入り6.8t
 40
3.0
 72
     5
 11
164.4625
 21
-86.75
  0
TEXT
  7
TextStyle03
  8
文字
  6
CONTINUOUS
 10
154.45
 20
-91.425
  1
×６枚
 40
3.0
 72
     5
 11
164.2
 21
-91.425
  0
TEXT
  7
TextStyle03
  8
文字
  6
CONTINUOUS
 10
63.175
 20
125.25
  1
シリーズ：ＴＦＦＬ
 40
5.0
 72
     5
 11
113.175
 21
125.25
  0
TEXT
  7
TextStyle03
  8
文字
  6
CONTINUOUS
 10
63.175
 20
119.625
  1
　　　　　（上下可動）900×6000タイプ
 40
5.0
 72
     5
 11
166.6125
 21
119.625
  0
TEXT
  7
TextStyle03
  8
文字
  6
CONTINUOUS
 10
63.175
 20
114.0
  1
図面名　：外観姿図
 40
5.0
 72
     5
 11
113.175
 21
114.0
  0
TEXT
  7
TextStyle03
  8
文字
  6
CONTINUOUS
 10
63.175
 20
108.375
  1
　　　　　　
 40
5.0
 72
     5
 11
96.3
 21
108.375
  0
TEXT
  7
TextStyle03
  8
文字
  6
CONTINUOUS
 10
63.325
 20
104.525
  1
ＮＳコード：ＮＳＦＬ
 40
5.0
 72
     5
 11
118.95
 21
104.525
  0
INSERT
  2
*DIM_0002
  8
寸法
  6
CONTINUOUS
 10
0.0
 20
0.0
  0
INSERT
  2
*DIM_0003
  8
寸法
  6
CONTINUOUS
 10
0.0
 20
0.0
  0
INSERT
  2
*DIM_0004
  8
寸法
  6
CONTINUOUS
 10
0.0
 20
0.0
  0
INSERT
  2
*DIM_0005
  8
寸法
  6
CONTINUOUS
 10
0.0
 20
0.0
  0
INSERT
  2
*DIM_0006
  8
寸法
  6
CONTINUOUS
 10
0.0
 20
0.0
  0
INSERT
  2
*DIM_0007
  8
寸法
  6
CONTINUOUS
 10
0.0
 20
0.0
  0
INSERT
  2
*DIM_0008
  8
寸法
  6
CONTINUOUS
 10
0.0
 20
0.0
  0
INSERT
  2
*DIM_0009
  8
寸法
  6
CONTINUOUS
 10
0.0
 20
0.0
  0
INSERT
  2
*DIM_0010
  8
寸法
  6
CONTINUOUS
 10
0.0
 20
0.0
  0
INSERT
  2
*DIM_0011
  8
寸法
  6
CONTINUOUS
 10
0.0
 20
0.0
  0
INSERT
  2
*DIM_0012
  8
寸法
  6
CONTINUOUS
 10
0.0
 20
0.0
  0
INSERT
  2
*DIM_0013
  8
寸法
  6
CONTINUOUS
 10
0.0
 20
0.0
  0
INSERT
  2
*DIM_0014
  8
寸法
  6
CONTINUOUS
 10
0.0
 20
0.0
  0
INSERT
  2
*DIM_0015
  8
寸法
  6
CONTINUOUS
 10
0.0
 20
0.0
  0
INSERT
  2
*DIM_0016
  8
寸法
  6
CONTINUOUS
 10
0.0
 20
0.0
  0
INSERT
  2
*DIM_0017
  8
寸法
  6
CONTINUOUS
 10
0.0
 20
0.0
  0
INSERT
  2
*DIM_0018
  8
寸法
  6
CONTINUOUS
 10
0.0
 20
0.0
  0
INSERT
  2
*DIM_0019
  8
寸法
  6
CONTINUOUS
 10
0.0
 20
0.0
  0
INSERT
  2
*DIM_0020
  8
寸法
  6
CONTINUOUS
 10
0.0
 20
0.0
  0
INSERT
  2
*DIM_0027
  8
寸法
  6
CONTINUOUS
 10
0.0
 20
0.0
  0
INSERT
  2
*DIM_0028
  8
寸法
  6
CONTINUOUS
 10
0.0
 20
0.0
  0
INSERT
  2
*DIM_0029
  8
寸法
  6
CONTINUOUS
 10
0.0
 20
0.0
  0
INSERT
  2
*DIM_0030
  8
寸法
  6
CONTINUOUS
 10
0.0
 20
0.0
  0
INSERT
  2
*DIM_0031
  8
寸法
  6
CONTINUOUS
 10
0.0
 20
0.0
  0
INSERT
  2
*DIM_0032
  8
寸法
  6
CONTINUOUS
 10
0.0
 20
0.0
  0
LINE
  8
別途部材
  6
CONTINUOUS
 62
    47
 10
160.273723
 20
45.232235
 11
160.34039
 21
45.232235
  0
ARC
  8
別途部材
  6
CONTINUOUS
 62
    47
 10
160.273724
 20
45.132233
 40
0.1
 50
90.0
 51
180.0
  0
LINE
  8
別途部材
  6
CONTINUOUS
 62
    47
 10
160.34039
 20
45.075713
 11
161.84039
 21
45.075713
  0
LINE
  8
別途部材
  6
CONTINUOUS
 62
    47
 10
160.273723
 20
11.565857
 11
160.34039
 21
11.565857
  0
ARC
  8
別途部材
  6
CONTINUOUS
 62
    47
 10
160.273724
 20
11.665858
 40
0.1
 50
180.0
 51
270.0
  0
LINE
  8
別途部材
  6
CONTINUOUS
 62
    47
 10
160.34039
 20
11.72238
 11
161.84039
 21
11.72238
  0
LINE
  8
別途部材
  6
CONTINUOUS
 62
    47
 10
164.157057
 20
46.162233
 11
164.157057
 21
28.399048
  0
LINE
  8
別途部材
  6
CONTINUOUS
 62
    47
 10
162.990393
 20
46.162233
 11
162.990393
 21
28.399048
  0
LINE
  8
別途部材
  6
CONTINUOUS
 62
    47
 10
161.84039
 20
45.075713
 11
161.84039
 21
28.399048
  0
LINE
  8
別途部材
  6
CONTINUOUS
 62
    47
 10
160.34039
 20
45.232235
 11
160.34039
 21
28.399048
  0
LINE
  8
別途部材
  6
CONTINUOUS
 62
    47
 10
160.173723
 20
45.132235
 11
160.173723
 21
28.399048
  0
LINE
  8
別途部材
  6
CONTINUOUS
 62
    47
 10
164.157057
 20
10.63586
 11
164.157057
 21
28.399048
  0
LINE
  8
別途部材
  6
CONTINUOUS
 62
    47
 10
162.990393
 20
10.63586
 11
162.990393
 21
28.399048
  0
LINE
  8
別途部材
  6
CONTINUOUS
 62
    47
 10
160.34039
 20
11.565857
 11
160.34039
 21
28.399048
  0
LINE
  8
別途部材
  6
CONTINUOUS
 62
    47
 10
160.173723
 20
11.665857
 11
160.173723
 21
28.399048
  0
LINE
  8
別途部材
  6
CONTINUOUS
 62
    47
 10
161.84039
 20
11.72238
 11
161.84039
 21
28.399048
  0
LINE
  8
別途部材
  6
DOT
 62
    47
 10
148.607055
 20
45.232235
 11
148.673723
 21
45.232235
  0
ARC
  8
別途部材
  6
DOT
 62
    47
 10
148.607056
 20
45.132233
 40
0.1
 50
90.0
 51
180.0
  0
LINE
  8
別途部材
  6
DOT
 62
    47
 10
148.673723
 20
45.075713
 11
150.173723
 21
45.075713
  0
LINE
  8
別途部材
  6
DOT
 62
    47
 10
148.607055
 20
11.565857
 11
148.673723
 21
11.565857
  0
ARC
  8
別途部材
  6
DOT
 62
    47
 10
148.607056
 20
11.665858
 40
0.1
 50
180.0
 51
270.0
  0
LINE
  8
別途部材
  6
DOT
 62
    47
 10
148.673723
 20
11.72238
 11
150.173723
 21
11.72238
  0
LINE
  8
別途部材
  6
DOT
 62
    47
 10
152.49039
 20
46.162233
 11
152.49039
 21
28.399048
  0
LINE
  8
別途部材
  6
DOT
 62
    47
 10
151.323725
 20
46.162233
 11
151.323725
 21
28.399048
  0
LINE
  8
別途部材
  6
DOT
 62
    47
 10
150.173723
 20
45.075713
 11
150.173723
 21
28.399048
  0
LINE
  8
別途部材
  6
DOT
 62
    47
 10
148.673723
 20
45.232235
 11
148.673723
 21
28.399048
  0
LINE
  8
別途部材
  6
DOT
 62
    47
 10
148.507055
 20
45.132235
 11
148.507055
 21
28.399048
  0
LINE
  8
別途部材
  6
DOT
 62
    47
 10
151.323725
 20
10.63586
 11
151.323725
 21
28.399048
  0
LINE
  8
別途部材
  6
DOT
 62
    47
 10
152.49039
 20
10.63586
 11
152.49039
 21
28.399048
  0
LINE
  8
別途部材
  6
DOT
 62
    47
 10
148.673723
 20
11.565857
 11
148.673723
 21
28.399048
  0
LINE
  8
別途部材
  6
DOT
 62
    47
 10
148.507055
 20
11.665857
 11
148.507055
 21
28.399048
  0
LINE
  8
別途部材
  6
DOT
 62
    47
 10
150.173723
 20
11.72238
 11
150.173723
 21
28.399048
  0
LINE
  8
別途部材
  6
CONTINUOUS
 62
    47
 10
-130.576332
 20
-78.59138
 11
-130.576332
 21
-78.658047
  0
ARC
  8
別途部材
  6
CONTINUOUS
 62
    47
 10
-130.47633
 20
-78.591382
 40
0.1
 50
90.0
 51
180.0
  0
LINE
  8
別途部材
  6
CONTINUOUS
 62
    47
 10
-130.41981
 20
-78.658047
 11
-130.41981
 21
-80.158047
  0
LINE
  8
別途部材
  6
CONTINUOUS
 62
    47
 10
73.090347
 20
-78.59138
 11
73.090347
 21
-78.658047
  0
ARC
  8
別途部材
  6
CONTINUOUS
 62
    47
 10
72.990339
 20
-78.591382
 40
0.1
 50
0.0
 51
90.0
  0
LINE
  8
別途部材
  6
CONTINUOUS
 62
    47
 10
72.933825
 20
-78.658047
 11
72.933825
 21
-80.158047
  0
LINE
  8
別途部材
  6
CONTINUOUS
 62
    47
 10
-131.50633
 20
-81.30805
 11
-28.742993
 21
-81.30805
  0
LINE
  8
別途部材
  6
CONTINUOUS
 62
    47
 10
-131.50633
 20
-82.474715
 11
-28.742993
 21
-82.474715
  0
LINE
  8
別途部材
  6
CONTINUOUS
 62
    47
 10
-130.41981
 20
-80.158047
 11
-28.742993
 21
-80.158047
  0
LINE
  8
別途部材
  6
CONTINUOUS
 62
    47
 10
-130.576332
 20
-78.658047
 11
-28.742993
 21
-78.658047
  0
LINE
  8
別途部材
  6
CONTINUOUS
 62
    47
 10
-130.476332
 20
-78.49138
 11
-28.742993
 21
-78.49138
  0
LINE
  8
別途部材
  6
CONTINUOUS
 62
    47
 10
74.020345
 20
-82.474715
 11
-28.742993
 21
-82.474715
  0
LINE
  8
別途部材
  6
CONTINUOUS
 62
    47
 10
74.020345
 20
-81.30805
 11
-28.742993
 21
-81.30805
  0
LINE
  8
別途部材
  6
CONTINUOUS
 62
    47
 10
72.933825
 20
-80.158047
 11
-28.742993
 21
-80.158047
  0
LINE
  8
別途部材
  6
CONTINUOUS
 62
    47
 10
72.990347
 20
-78.49138
 11
-28.742993
 21
-78.49138
  0
LINE
  8
別途部材
  6
CONTINUOUS
 62
    47
 10
73.090347
 20
-78.658047
 11
-28.742993
 21
-78.658047
  0
LINE
  8
別途部材
  6
DOT
 62
    47
 10
-130.576332
 20
-66.924712
 11
-130.576332
 21
-66.99138
  0
ARC
  8
別途部材
  6
DOT
 62
    47
 10
-130.47633
 20
-66.924714
 40
0.1
 50
90.0
 51
180.0
  0
LINE
  8
別途部材
  6
DOT
 62
    47
 10
-130.41981
 20
-66.99138
 11
-130.41981
 21
-68.49138
  0
LINE
  8
別途部材
  6
DOT
 62
    47
 10
73.090347
 20
-66.924712
 11
73.090347
 21
-66.99138
  0
ARC
  8
別途部材
  6
DOT
 62
    47
 10
72.990339
 20
-66.924714
 40
0.1
 50
0.0
 51
90.0
  0
LINE
  8
別途部材
  6
DOT
 62
    47
 10
72.933825
 20
-66.99138
 11
72.933825
 21
-68.49138
  0
LINE
  8
別途部材
  6
DOT
 62
    47
 10
-131.50633
 20
-70.808047
 11
-28.742993
 21
-70.808047
  0
LINE
  8
別途部材
  6
DOT
 62
    47
 10
-131.50633
 20
-69.641382
 11
-28.742993
 21
-69.641382
  0
LINE
  8
別途部材
  6
DOT
 62
    47
 10
-130.41981
 20
-68.49138
 11
-28.742993
 21
-68.49138
  0
LINE
  8
別途部材
  6
DOT
 62
    47
 10
-130.476332
 20
-66.824712
 11
-28.742993
 21
-66.824712
  0
LINE
  8
別途部材
  6
DOT
 62
    47
 10
-130.576332
 20
-66.99138
 11
-28.742993
 21
-66.99138
  0
LINE
  8
別途部材
  6
DOT
 62
    47
 10
74.020345
 20
-70.808047
 11
-28.742993
 21
-70.808047
  0
LINE
  8
別途部材
  6
DOT
 62
    47
 10
74.020345
 20
-69.641382
 11
-28.742993
 21
-69.641382
  0
LINE
  8
別途部材
  6
DOT
 62
    47
 10
72.933825
 20
-68.49138
 11
-28.742993
 21
-68.49138
  0
LINE
  8
別途部材
  6
DOT
 62
    47
 10
72.990347
 20
-66.824712
 11
-28.742993
 21
-66.824712
  0
LINE
  8
別途部材
  6
DOT
 62
    47
 10
73.090347
 20
-66.99138
 11
-28.742993
 21
-66.99138
  0
LINE
  8
曲げ物
  6
CONTINUOUS
 10
166.343563
 20
-63.20038
 11
134.010227
 21
-63.20038
  0
LINE
  8
曲げ物
  6
CONTINUOUS
 10
55.982738
 20
30.602695
 11
52.287425
 21
26.907382
  0
LINE
  8
曲げ物
  6
CONTINUOUS
 10
55.279268
 20
29.066585
 11
53.823538
 21
27.610855
  0
LINE
  8
曲げ物
  6
CONTINUOUS
 10
54.446628
 20
29.899225
 11
52.990898
 21
28.443495
  0
LINE
  8
曲げ物
  6
CONTINUOUS
 10
23.355437
 20
30.602695
 11
19.660125
 21
26.907382
  0
LINE
  8
曲げ物
  6
CONTINUOUS
 10
22.651967
 20
29.066585
 11
21.196237
 21
27.610855
  0
LINE
  8
曲げ物
  6
CONTINUOUS
 10
21.819327
 20
29.899225
 11
20.363597
 21
28.443495
  0
LINE
  8
曲げ物
  6
CONTINUOUS
 10
-9.597012
 20
30.602695
 11
-13.292325
 21
26.907382
  0
LINE
  8
曲げ物
  6
CONTINUOUS
 10
-10.300482
 20
29.066585
 11
-11.756213
 21
27.610855
  0
LINE
  8
曲げ物
  6
CONTINUOUS
 10
-11.133122
 20
29.899225
 11
-12.588853
 21
28.443495
  0
LINE
  8
曲げ物
  6
CONTINUOUS
 10
-42.977415
 20
30.602695
 11
-46.672728
 21
26.907382
  0
LINE
  8
曲げ物
  6
CONTINUOUS
 10
-43.680885
 20
29.066585
 11
-45.136615
 21
27.610855
  0
LINE
  8
曲げ物
  6
CONTINUOUS
 10
-44.513525
 20
29.899225
 11
-45.969255
 21
28.443495
  0
LINE
  8
曲げ物
  6
CONTINUOUS
 10
-75.930945
 20
30.602695
 11
-79.626257
 21
26.907382
  0
LINE
  8
曲げ物
  6
CONTINUOUS
 10
-76.634415
 20
29.066585
 11
-78.090145
 21
27.610855
  0
LINE
  8
曲げ物
  6
CONTINUOUS
 10
-77.467055
 20
29.899225
 11
-78.922785
 21
28.443495
  0
LINE
  8
曲げ物
  6
CONTINUOUS
 10
-109.596652
 20
30.602695
 11
-113.291965
 21
26.907382
  0
LINE
  8
曲げ物
  6
CONTINUOUS
 10
-110.300123
 20
29.066585
 11
-111.755853
 21
27.610855
  0
LINE
  8
曲げ物
  6
CONTINUOUS
 10
-111.132762
 20
29.899225
 11
-112.588493
 21
28.443495
  0
LINE
  8
曲げ物
  6
CONTINUOUS
 10
166.343563
 20
-93.20038
 11
134.010227
 21
-93.20038
  0
LINE
  8
曲げ物
  6
CONTINUOUS
 10
134.010227
 20
-63.20038
 11
134.010227
 21
-93.20038
  0
LINE
  8
曲げ物
  6
CONTINUOUS
 10
166.343563
 20
-63.20038
 11
166.343563
 21
-93.20038
  0
LINE
  8
鉄骨等
  6
CONTINUOUS
 62
    47
 10
164.157057
 20
46.162233
 11
162.990393
 21
46.162233
  0
LINE
  8
鉄骨等
  6
CONTINUOUS
 62
    47
 10
162.990393
 20
46.162233
 11
161.840393
 21
44.759045
  0
LINE
  8
鉄骨等
  6
CONTINUOUS
 62
    47
 10
164.157057
 20
10.63586
 11
162.990393
 21
10.63586
  0
LINE
  8
鉄骨等
  6
CONTINUOUS
 62
    47
 10
162.990393
 20
10.63586
 11
161.840393
 21
12.039045
  0
LINE
  8
鉄骨等
  6
DOT
 62
    47
 10
152.49039
 20
46.162233
 11
151.323725
 21
46.162233
  0
LINE
  8
鉄骨等
  6
DOT
 62
    47
 10
151.323725
 20
46.162233
 11
150.173725
 21
44.759045
  0
LINE
  8
鉄骨等
  6
DOT
 62
    47
 10
152.49039
 20
10.63586
 11
151.323725
 21
10.63586
  0
LINE
  8
鉄骨等
  6
DOT
 62
    47
 10
151.323725
 20
10.63586
 11
150.173725
 21
12.039045
  0
LINE
  8
鉄骨等
  6
CONTINUOUS
 62
    47
 10
-131.50633
 20
-82.474715
 11
-131.50633
 21
-81.30805
  0
LINE
  8
鉄骨等
  6
CONTINUOUS
 62
    47
 10
-131.50633
 20
-81.30805
 11
-130.103145
 21
-80.15805
  0
LINE
  8
鉄骨等
  6
CONTINUOUS
 62
    47
 10
74.020345
 20
-82.474715
 11
74.020345
 21
-81.30805
  0
LINE
  8
鉄骨等
  6
CONTINUOUS
 62
    47
 10
74.020345
 20
-81.30805
 11
72.61716
 21
-80.15805
  0
LINE
  8
鉄骨等
  6
DOT
 62
    47
 10
-131.50633
 20
-70.808047
 11
-131.50633
 21
-69.641382
  0
LINE
  8
鉄骨等
  6
DOT
 62
    47
 10
-131.50633
 20
-69.641382
 11
-130.103145
 21
-68.491382
  0
LINE
  8
鉄骨等
  6
DOT
 62
    47
 10
74.020345
 20
-70.808047
 11
74.020345
 21
-69.641382
  0
LINE
  8
鉄骨等
  6
DOT
 62
    47
 10
74.020345
 20
-69.641382
 11
72.61716
 21
-68.491382
  0
ENDSEC
  0
EOF
